999
Erzeugt mit innoplus bad 
0
SECTION
2
HEADER
9
$ACADVER
1
AC1009
9
$DWGCODEPAGE
3
ISO8859-1
0
ENDSEC
0
SECTION
2
TABLES
0
TABLE
2
LAYER
70
1
0
LAYER
2
0
70
0
62
7
6
CONTINUOUS
0
ENDTAB
0
ENDSEC
0
SECTION
2
ENTITIES
0
LINE
8
0
6
CONTINUOUS
10
0.008792
20
0.100445
30
0.0
11
0.008792
21
0.069358
31
0.0
0
LINE
8
0
6
CONTINUOUS
10
0.028667
20
0.110000
30
0.0
11
0.024101
21
0.110000
31
0.0
0
LINE
8
0
6
CONTINUOUS
10
0.043098
20
0.110000
30
0.0
11
0.038511
21
0.110000
31
0.0
0
LINE
8
0
6
CONTINUOUS
10
0.020166
20
0.110000
30
0.0
11
0.017147
21
0.110000
31
0.0
0
LINE
8
0
6
CONTINUOUS
10
0.038511
20
0.110000
30
0.0
11
0.033609
21
0.110000
31
0.0
0
LINE
8
0
6
CONTINUOUS
10
0.051956
20
0.110000
30
0.0
11
0.050058
21
0.110000
31
0.0
0
LINE
8
0
6
CONTINUOUS
10
0.033609
20
0.110000
30
0.0
11
0.028667
21
0.110000
31
0.0
0
LINE
8
0
6
CONTINUOUS
10
0.052601
20
0.110000
30
0.0
11
0.051956
21
0.110000
31
0.0
0
LINE
8
0
6
CONTINUOUS
10
0.052601
20
0.109610
30
0.0
11
0.052601
21
0.110000
31
0.0
0
LINE
8
0
6
CONTINUOUS
10
0.047037
20
0.110000
30
0.0
11
0.043098
21
0.110000
31
0.0
0
LINE
8
0
6
CONTINUOUS
10
0.024101
20
0.110000
30
0.0
11
0.020166
21
0.110000
31
0.0
0
LINE
8
0
6
CONTINUOUS
10
0.017147
20
0.110000
30
0.0
11
0.015249
21
0.110000
31
0.0
0
LINE
8
0
6
CONTINUOUS
10
0.050058
20
0.110000
30
0.0
11
0.047037
21
0.110000
31
0.0
0
LINE
8
0
6
CONTINUOUS
10
0.052601
20
0.060193
30
0.0
11
0.052601
21
0.109610
31
0.0
0
LINE
8
0
6
CONTINUOUS
10
0.014601
20
0.110000
30
0.0
11
0.014601
21
0.109511
31
0.0
0
LINE
8
0
6
CONTINUOUS
10
0.015249
20
0.110000
30
0.0
11
0.014601
21
0.110000
31
0.0
0
LINE
8
0
6
CONTINUOUS
10
0.009623
20
0.101605
30
0.0
11
0.008792
21
0.100949
31
0.0
0
LINE
8
0
6
CONTINUOUS
10
0.008792
20
0.100949
30
0.0
11
0.008792
21
0.100445
31
0.0
0
LINE
8
0
6
CONTINUOUS
10
0.009081
20
0.100994
30
0.0
11
0.008792
21
0.100949
31
0.0
0
LINE
8
0
6
CONTINUOUS
10
0.009240
20
0.069293
30
0.0
11
0.009240
21
0.100509
31
0.0
0
LINE
8
0
6
CONTINUOUS
10
0.009243
20
0.101017
30
0.0
11
0.010034
21
0.101289
31
0.0
0
LINE
8
0
6
CONTINUOUS
10
0.010034
20
0.101289
30
0.0
11
0.014677
21
0.103386
31
0.0
0
LINE
8
0
6
CONTINUOUS
10
0.014677
20
0.103386
30
0.0
11
0.012514
21
0.103268
31
0.0
0
LINE
8
0
6
CONTINUOUS
10
0.014722
20
0.106139
30
0.0
11
0.014673
21
0.106142
31
0.0
0
LINE
8
0
6
CONTINUOUS
10
0.015229
20
0.067357
30
0.0
11
0.015229
21
0.102445
31
0.0
0
LINE
8
0
6
CONTINUOUS
10
0.009240
20
0.100509
30
0.0
11
0.009243
21
0.101017
31
0.0
0
LINE
8
0
6
CONTINUOUS
10
0.009081
20
0.100994
30
0.0
11
0.009243
21
0.101017
31
0.0
0
LINE
8
0
6
CONTINUOUS
10
0.009243
20
0.101017
30
0.0
11
0.009889
21
0.101622
31
0.0
0
LINE
8
0
6
CONTINUOUS
10
0.015229
20
0.102445
30
0.0
11
0.015229
21
0.103014
31
0.0
0
LINE
8
0
6
CONTINUOUS
10
0.015229
20
0.103014
30
0.0
11
0.015229
21
0.103585
31
0.0
0
LINE
8
0
6
CONTINUOUS
10
0.014582
20
0.106148
30
0.0
11
0.013648
21
0.104860
31
0.0
0
LINE
8
0
6
CONTINUOUS
10
0.014673
20
0.106142
30
0.0
11
0.014582
21
0.106148
31
0.0
0
LINE
8
0
6
CONTINUOUS
10
0.015229
20
0.103585
30
0.0
11
0.015229
21
0.103705
31
0.0
0
LINE
8
0
6
CONTINUOUS
10
0.015229
20
0.105949
30
0.0
11
0.015229
21
0.106104
31
0.0
0
LINE
8
0
6
CONTINUOUS
10
0.015229
20
0.106104
30
0.0
11
0.015147
21
0.106110
31
0.0
0
LINE
8
0
6
CONTINUOUS
10
0.015147
20
0.106110
30
0.0
11
0.014785
21
0.106134
31
0.0
0
LINE
8
0
6
CONTINUOUS
10
0.014785
20
0.106134
30
0.0
11
0.014722
21
0.106139
31
0.0
0
LINE
8
0
6
CONTINUOUS
10
0.011895
20
0.103160
30
0.0
11
0.009623
21
0.101605
31
0.0
0
LINE
8
0
6
CONTINUOUS
10
0.014903
20
0.104731
30
0.0
11
0.015229
21
0.103705
31
0.0
0
LINE
8
0
6
CONTINUOUS
10
0.015229
20
0.103705
30
0.0
11
0.015229
21
0.104827
31
0.0
0
LINE
8
0
6
CONTINUOUS
10
0.015229
20
0.104827
30
0.0
11
0.015229
21
0.105949
31
0.0
0
LINE
8
0
6
CONTINUOUS
10
0.012514
20
0.103268
30
0.0
11
0.014718
21
0.103632
31
0.0
0
LINE
8
0
6
CONTINUOUS
10
0.013537
20
0.104010
30
0.0
11
0.014718
21
0.103632
31
0.0
0
LINE
8
0
6
CONTINUOUS
10
0.014718
20
0.103632
30
0.0
11
0.014903
21
0.104731
31
0.0
0
LINE
8
0
6
CONTINUOUS
10
0.012944
20
0.103877
30
0.0
11
0.011895
21
0.103160
31
0.0
0
LINE
8
0
6
CONTINUOUS
10
0.013648
20
0.104860
30
0.0
11
0.012944
21
0.103877
31
0.0
0
LINE
8
0
6
CONTINUOUS
10
0.024101
20
0.059802
30
0.0
11
0.028667
21
0.059802
31
0.0
0
LINE
8
0
6
CONTINUOUS
10
0.038511
20
0.059802
30
0.0
11
0.043098
21
0.059802
31
0.0
0
LINE
8
0
6
CONTINUOUS
10
0.017147
20
0.059802
30
0.0
11
0.020166
21
0.059802
31
0.0
0
LINE
8
0
6
CONTINUOUS
10
0.033609
20
0.059802
30
0.0
11
0.038511
21
0.059802
31
0.0
0
LINE
8
0
6
CONTINUOUS
10
0.050058
20
0.059802
30
0.0
11
0.051956
21
0.059802
31
0.0
0
LINE
8
0
6
CONTINUOUS
10
0.028667
20
0.059802
30
0.0
11
0.033609
21
0.059802
31
0.0
0
LINE
8
0
6
CONTINUOUS
10
0.052601
20
0.059802
30
0.0
11
0.052601
21
0.060193
31
0.0
0
LINE
8
0
6
CONTINUOUS
10
0.051956
20
0.059802
30
0.0
11
0.052601
21
0.059802
31
0.0
0
LINE
8
0
6
CONTINUOUS
10
0.043098
20
0.059802
30
0.0
11
0.047037
21
0.059802
31
0.0
0
LINE
8
0
6
CONTINUOUS
10
0.020166
20
0.059802
30
0.0
11
0.024101
21
0.059802
31
0.0
0
LINE
8
0
6
CONTINUOUS
10
0.015249
20
0.059802
30
0.0
11
0.017147
21
0.059802
31
0.0
0
LINE
8
0
6
CONTINUOUS
10
0.047037
20
0.059802
30
0.0
11
0.050058
21
0.059802
31
0.0
0
LINE
8
0
6
CONTINUOUS
10
0.014601
20
0.059802
30
0.0
11
0.015249
21
0.059802
31
0.0
0
LINE
8
0
6
CONTINUOUS
10
0.014601
20
0.060291
30
0.0
11
0.014601
21
0.059802
31
0.0
0
LINE
8
0
6
CONTINUOUS
10
0.008792
20
0.068853
30
0.0
11
0.009623
21
0.068197
31
0.0
0
LINE
8
0
6
CONTINUOUS
10
0.008792
20
0.068853
30
0.0
11
0.009081
21
0.068809
31
0.0
0
LINE
8
0
6
CONTINUOUS
10
0.008792
20
0.069358
30
0.0
11
0.008792
21
0.068853
31
0.0
0
LINE
8
0
6
CONTINUOUS
10
0.010034
20
0.068513
30
0.0
11
0.009243
21
0.068785
31
0.0
0
LINE
8
0
6
CONTINUOUS
10
0.010034
20
0.068513
30
0.0
11
0.014677
21
0.066416
31
0.0
0
LINE
8
0
6
CONTINUOUS
10
0.014677
20
0.066416
30
0.0
11
0.012514
21
0.066534
31
0.0
0
LINE
8
0
6
CONTINUOUS
10
0.014673
20
0.063660
30
0.0
11
0.014722
21
0.063664
31
0.0
0
LINE
8
0
6
CONTINUOUS
10
0.009243
20
0.068785
30
0.0
11
0.009240
21
0.069293
31
0.0
0
LINE
8
0
6
CONTINUOUS
10
0.009889
20
0.068180
30
0.0
11
0.009243
21
0.068785
31
0.0
0
LINE
8
0
6
CONTINUOUS
10
0.009243
20
0.068785
30
0.0
11
0.009081
21
0.068809
31
0.0
0
LINE
8
0
6
CONTINUOUS
10
0.015229
20
0.066788
30
0.0
11
0.015229
21
0.067357
31
0.0
0
LINE
8
0
6
CONTINUOUS
10
0.015229
20
0.066217
30
0.0
11
0.015229
21
0.066788
31
0.0
0
LINE
8
0
6
CONTINUOUS
10
0.014582
20
0.063654
30
0.0
11
0.014673
21
0.063660
31
0.0
0
LINE
8
0
6
CONTINUOUS
10
0.013648
20
0.064942
30
0.0
11
0.014582
21
0.063654
31
0.0
0
LINE
8
0
6
CONTINUOUS
10
0.015229
20
0.066097
30
0.0
11
0.015229
21
0.066217
31
0.0
0
LINE
8
0
6
CONTINUOUS
10
0.015147
20
0.063692
30
0.0
11
0.015229
21
0.063698
31
0.0
0
LINE
8
0
6
CONTINUOUS
10
0.015229
20
0.063698
30
0.0
11
0.015229
21
0.063853
31
0.0
0
LINE
8
0
6
CONTINUOUS
10
0.014785
20
0.063668
30
0.0
11
0.015147
21
0.063692
31
0.0
0
LINE
8
0
6
CONTINUOUS
10
0.014722
20
0.063664
30
0.0
11
0.014785
21
0.063668
31
0.0
0
LINE
8
0
6
CONTINUOUS
10
0.009623
20
0.068197
30
0.0
11
0.011895
21
0.066643
31
0.0
0
LINE
8
0
6
CONTINUOUS
10
0.015229
20
0.064975
30
0.0
11
0.015229
21
0.066097
31
0.0
0
LINE
8
0
6
CONTINUOUS
10
0.014903
20
0.065071
30
0.0
11
0.015229
21
0.066097
31
0.0
0
LINE
8
0
6
CONTINUOUS
10
0.015229
20
0.063853
30
0.0
11
0.015229
21
0.064975
31
0.0
0
LINE
8
0
6
CONTINUOUS
10
0.014903
20
0.065071
30
0.0
11
0.014718
21
0.066170
31
0.0
0
LINE
8
0
6
CONTINUOUS
10
0.013537
20
0.065792
30
0.0
11
0.014718
21
0.066170
31
0.0
0
LINE
8
0
6
CONTINUOUS
10
0.014718
20
0.066170
30
0.0
11
0.012514
21
0.066534
31
0.0
0
LINE
8
0
6
CONTINUOUS
10
0.011895
20
0.066643
30
0.0
11
0.012944
21
0.065926
31
0.0
0
LINE
8
0
6
CONTINUOUS
10
0.012944
20
0.065926
30
0.0
11
0.013648
21
0.064942
31
0.0
0
LINE
8
0
6
CONTINUOUS
10
0.057420
20
-0.055554
30
0.0
11
0.057021
21
-0.056110
31
0.0
0
LINE
8
0
6
CONTINUOUS
10
0.057627
20
-0.055826
30
0.0
11
0.058039
21
-0.055134
31
0.0
0
LINE
8
0
6
CONTINUOUS
10
0.063105
20
-0.053581
30
0.0
11
0.059500
21
-0.053216
31
0.0
0
LINE
8
0
6
CONTINUOUS
10
0.063105
20
-0.053581
30
0.0
11
0.059925
21
-0.053802
31
0.0
0
LINE
8
0
6
CONTINUOUS
10
0.060660
20
-0.053982
30
0.0
11
0.064496
21
-0.053841
31
0.0
0
LINE
8
0
6
CONTINUOUS
10
0.067055
20
-0.053503
30
0.0
11
0.064967
21
-0.053590
31
0.0
0
LINE
8
0
6
CONTINUOUS
10
0.059500
20
-0.053216
30
0.0
11
0.062918
21
-0.053503
31
0.0
0
LINE
8
0
6
CONTINUOUS
10
0.057022
20
-0.053378
30
0.0
11
0.056293
21
-0.053882
31
0.0
0
LINE
8
0
6
CONTINUOUS
10
0.057893
20
-0.055084
30
0.0
11
0.058453
21
-0.054803
31
0.0
0
LINE
8
0
6
CONTINUOUS
10
0.057250
20
-0.054295
30
0.0
11
0.056664
21
-0.054671
31
0.0
0
LINE
8
0
6
CONTINUOUS
10
0.064503
20
-0.051560
30
0.0
11
0.060932
21
-0.051112
31
0.0
0
LINE
8
0
6
CONTINUOUS
10
0.055849
20
-0.055826
30
0.0
11
0.056117
21
-0.055134
31
0.0
0
LINE
8
0
6
CONTINUOUS
10
0.055534
20
-0.054383
30
0.0
11
0.055110
21
-0.055267
31
0.0
0
LINE
8
0
6
CONTINUOUS
10
0.054435
20
-0.054879
30
0.0
11
0.053915
21
-0.055705
31
0.0
0
LINE
8
0
6
CONTINUOUS
10
0.055607
20
-0.056526
30
0.0
11
0.055849
21
-0.055826
31
0.0
0
LINE
8
0
6
CONTINUOUS
10
0.055110
20
-0.055267
30
0.0
11
0.054912
21
-0.056245
31
0.0
0
LINE
8
0
6
CONTINUOUS
10
0.056664
20
-0.054671
30
0.0
11
0.056117
21
-0.055134
31
0.0
0
LINE
8
0
6
CONTINUOUS
10
0.057022
20
-0.053378
30
0.0
11
0.059500
21
-0.053216
31
0.0
0
LINE
8
0
6
CONTINUOUS
10
0.056984
20
-0.052399
30
0.0
11
0.059394
21
-0.051908
31
0.0
0
LINE
8
0
6
CONTINUOUS
10
0.062928
20
-0.052051
30
0.0
11
0.059509
21
-0.051401
31
0.0
0
LINE
8
0
6
CONTINUOUS
10
0.059409
20
-0.051611
30
0.0
11
0.062928
21
-0.052051
31
0.0
0
LINE
8
0
6
CONTINUOUS
10
0.056038
20
-0.052750
30
0.0
11
0.057104
21
-0.052113
31
0.0
0
LINE
8
0
6
CONTINUOUS
10
0.057372
20
-0.051816
30
0.0
11
0.056162
21
-0.052499
31
0.0
0
LINE
8
0
6
CONTINUOUS
10
0.055026
20
-0.053586
30
0.0
11
0.056038
21
-0.052750
31
0.0
0
LINE
8
0
6
CONTINUOUS
10
0.056162
20
-0.052499
30
0.0
11
0.055042
21
-0.053403
31
0.0
0
LINE
8
0
6
CONTINUOUS
10
0.054265
20
-0.054674
30
0.0
11
0.055026
21
-0.053586
31
0.0
0
LINE
8
0
6
CONTINUOUS
10
0.055042
20
-0.053403
30
0.0
11
0.054190
21
-0.054512
31
0.0
0
LINE
8
0
6
CONTINUOUS
10
0.054190
20
-0.054512
30
0.0
11
0.053522
21
-0.055382
31
0.0
0
LINE
8
0
6
CONTINUOUS
10
0.057104
20
-0.052113
30
0.0
11
0.059409
21
-0.051611
31
0.0
0
LINE
8
0
6
CONTINUOUS
10
0.066188
20
-0.051560
30
0.0
11
0.064503
21
-0.051560
31
0.0
0
LINE
8
0
6
CONTINUOUS
10
0.066050
20
-0.053503
30
0.0
11
0.067055
21
-0.053503
31
0.0
0
LINE
8
0
6
CONTINUOUS
10
0.064728
20
-0.053503
30
0.0
11
0.065463
21
-0.053503
31
0.0
0
LINE
8
0
6
CONTINUOUS
10
0.064748
20
-0.052051
30
0.0
11
0.065595
21
-0.052051
31
0.0
0
LINE
8
0
6
CONTINUOUS
10
0.066740
20
-0.053855
30
0.0
11
0.064967
21
-0.053590
31
0.0
0
LINE
8
0
6
CONTINUOUS
10
0.064496
20
-0.053841
30
0.0
11
0.066740
21
-0.053855
31
0.0
0
LINE
8
0
6
CONTINUOUS
10
0.067095
20
-0.051560
30
0.0
11
0.066188
21
-0.051560
31
0.0
0
LINE
8
0
6
CONTINUOUS
10
0.064900
20
-0.051923
30
0.0
11
0.065828
21
-0.051923
31
0.0
0
LINE
8
0
6
CONTINUOUS
10
0.067095
20
-0.051560
30
0.0
11
0.065828
21
-0.051923
31
0.0
0
LINE
8
0
6
CONTINUOUS
10
0.064728
20
-0.053503
30
0.0
11
0.064705
21
-0.052487
31
0.0
0
LINE
8
0
6
CONTINUOUS
10
0.064705
20
-0.052487
30
0.0
11
0.064748
21
-0.052051
31
0.0
0
LINE
8
0
6
CONTINUOUS
10
0.062928
20
-0.052051
30
0.0
11
0.064748
21
-0.052051
31
0.0
0
LINE
8
0
6
CONTINUOUS
10
0.064728
20
-0.053503
30
0.0
11
0.062918
21
-0.053503
31
0.0
0
LINE
8
0
6
CONTINUOUS
10
0.065463
20
-0.053503
30
0.0
11
0.066050
21
-0.053503
31
0.0
0
LINE
8
0
6
CONTINUOUS
10
0.059925
20
-0.053802
30
0.0
11
0.057250
21
-0.054295
31
0.0
0
LINE
8
0
6
CONTINUOUS
10
0.065828
20
-0.051923
30
0.0
11
0.065595
21
-0.052051
31
0.0
0
LINE
8
0
6
CONTINUOUS
10
0.065595
20
-0.052051
30
0.0
11
0.065552
21
-0.052487
31
0.0
0
LINE
8
0
6
CONTINUOUS
10
0.058541
20
-0.051540
30
0.0
11
0.057372
21
-0.051816
31
0.0
0
LINE
8
0
6
CONTINUOUS
10
0.060932
20
-0.051112
30
0.0
11
0.058541
21
-0.051540
31
0.0
0
LINE
8
0
6
CONTINUOUS
10
0.057372
20
-0.051816
30
0.0
11
0.059509
21
-0.051401
31
0.0
0
LINE
8
0
6
CONTINUOUS
10
0.054912
20
-0.056245
30
0.0
11
0.049509
21
-0.081708
31
0.0
0
LINE
8
0
6
CONTINUOUS
10
0.055607
20
-0.056526
30
0.0
11
0.049963
21
-0.084046
31
0.0
0
LINE
8
0
6
CONTINUOUS
10
0.053522
20
-0.055382
30
0.0
11
0.049618
21
-0.073165
31
0.0
0
LINE
8
0
6
CONTINUOUS
10
0.066740
20
-0.053855
30
0.0
11
0.067417
21
-0.053590
31
0.0
0
LINE
8
0
6
CONTINUOUS
10
0.067055
20
-0.053503
30
0.0
11
0.066740
21
-0.053855
31
0.0
0
LINE
8
0
6
CONTINUOUS
10
0.067055
20
-0.053503
30
0.0
11
0.067417
21
-0.053590
31
0.0
0
LINE
8
0
6
CONTINUOUS
10
0.067417
20
-0.053590
30
0.0
11
0.067737
21
-0.053503
31
0.0
0
LINE
8
0
6
CONTINUOUS
10
0.057021
20
-0.056110
30
0.0
11
0.056658
21
-0.056706
31
0.0
0
LINE
8
0
6
CONTINUOUS
10
0.057261
20
-0.056526
30
0.0
11
0.057627
21
-0.055826
31
0.0
0
LINE
8
0
6
CONTINUOUS
10
0.057893
20
-0.055084
30
0.0
11
0.057420
21
-0.055554
31
0.0
0
LINE
8
0
6
CONTINUOUS
10
0.058039
20
-0.055134
30
0.0
11
0.058532
21
-0.054671
31
0.0
0
LINE
8
0
6
CONTINUOUS
10
0.067055
20
-0.053503
30
0.0
11
0.067737
21
-0.053503
31
0.0
0
LINE
8
0
6
CONTINUOUS
10
0.067827
20
-0.051923
30
0.0
11
0.067095
21
-0.051560
31
0.0
0
LINE
8
0
6
CONTINUOUS
10
0.067787
20
-0.053503
30
0.0
11
0.067939
21
-0.052487
31
0.0
0
LINE
8
0
6
CONTINUOUS
10
0.067737
20
-0.053503
30
0.0
11
0.067787
21
-0.053503
31
0.0
0
LINE
8
0
6
CONTINUOUS
10
0.058453
20
-0.054803
30
0.0
11
0.061638
21
-0.053802
31
0.0
0
LINE
8
0
6
CONTINUOUS
10
0.067939
20
-0.052487
30
0.0
11
0.067898
21
-0.052051
31
0.0
0
LINE
8
0
6
CONTINUOUS
10
0.067898
20
-0.052051
30
0.0
11
0.067827
21
-0.051923
31
0.0
0
LINE
8
0
6
CONTINUOUS
10
0.051277
20
-0.083714
30
0.0
11
0.057261
21
-0.056526
31
0.0
0
LINE
8
0
6
CONTINUOUS
10
0.056658
20
-0.056706
30
0.0
11
0.050643
21
-0.084844
31
0.0
0
LINE
8
0
6
CONTINUOUS
10
0.049277
20
-0.077969
30
0.0
11
0.053915
21
-0.055705
31
0.0
0
LINE
8
0
6
CONTINUOUS
10
-0.042992
20
-0.016802
30
0.0
11
0.003906
21
0.002331
31
0.0
0
LINE
8
0
6
CONTINUOUS
10
0.014601
20
0.057401
30
0.0
11
0.014601
21
0.053319
31
0.0
0
LINE
8
0
6
CONTINUOUS
10
-0.043724
20
-0.016118
30
0.0
11
0.004542
21
0.003139
31
0.0
0
LINE
8
0
6
CONTINUOUS
10
0.053687
20
0.008387
30
0.0
11
0.053194
21
0.028401
31
0.0
0
LINE
8
0
6
CONTINUOUS
10
-0.045869
20
-0.014111
30
0.0
11
0.006399
21
0.005497
31
0.0
0
LINE
8
0
6
CONTINUOUS
10
0.052825
20
0.043401
30
0.0
11
0.052616
21
0.057401
31
0.0
0
LINE
8
0
6
CONTINUOUS
10
0.003672
20
0.037239
30
0.0
11
-0.066973
21
0.005740
31
0.0
0
LINE
8
0
6
CONTINUOUS
10
0.013327
20
0.023551
30
0.0
11
0.016926
21
0.025078
31
0.0
0
LINE
8
0
6
CONTINUOUS
10
0.012647
20
0.006123
30
0.0
11
0.009150
21
0.006529
31
0.0
0
LINE
8
0
6
CONTINUOUS
10
0.012647
20
0.006123
30
0.0
11
0.010580
21
0.003813
31
0.0
0
LINE
8
0
6
CONTINUOUS
10
0.015137
20
0.002591
30
0.0
11
0.012647
21
0.006123
31
0.0
0
LINE
8
0
6
CONTINUOUS
10
0.015137
20
0.002591
30
0.0
11
0.013062
21
0.000329
31
0.0
0
LINE
8
0
6
CONTINUOUS
10
0.006374
20
0.003338
30
0.0
11
0.009872
21
0.003023
31
0.0
0
LINE
8
0
6
CONTINUOUS
10
0.010580
20
0.003813
30
0.0
11
0.009872
21
0.003023
31
0.0
0
LINE
8
0
6
CONTINUOUS
10
0.009872
20
0.003023
30
0.0
11
0.012352
21
-0.000442
31
0.0
0
LINE
8
0
6
CONTINUOUS
10
0.013062
20
0.000329
30
0.0
11
0.012352
21
-0.000442
31
0.0
0
LINE
8
0
6
CONTINUOUS
10
0.012352
20
-0.000442
30
0.0
11
0.013156
21
-0.006130
31
0.0
0
LINE
8
0
6
CONTINUOUS
10
0.018871
20
0.025904
30
0.0
11
0.020866
21
0.026751
31
0.0
0
LINE
8
0
6
CONTINUOUS
10
0.016926
20
0.025078
30
0.0
11
0.018871
21
0.025904
31
0.0
0
LINE
8
0
6
CONTINUOUS
10
0.014601
20
0.052506
30
0.0
11
0.013549
21
0.046797
31
0.0
0
LINE
8
0
6
CONTINUOUS
10
0.013549
20
0.046797
30
0.0
11
0.010913
21
0.041816
31
0.0
0
LINE
8
0
6
CONTINUOUS
10
0.010913
20
0.041816
30
0.0
11
0.007391
21
0.038897
31
0.0
0
LINE
8
0
6
CONTINUOUS
10
0.012968
20
0.033203
30
0.0
11
0.016463
21
0.036176
31
0.0
0
LINE
8
0
6
CONTINUOUS
10
0.016463
20
0.036176
30
0.0
11
0.019059
21
0.041197
31
0.0
0
LINE
8
0
6
CONTINUOUS
10
0.056575
20
-0.109000
30
0.0
11
0.055483
21
-0.064605
31
0.0
0
LINE
8
0
6
CONTINUOUS
10
0.055204
20
-0.053273
30
0.0
11
0.054435
21
-0.022037
31
0.0
0
LINE
8
0
6
CONTINUOUS
10
0.020069
20
0.046920
30
0.0
11
0.019059
21
0.041197
31
0.0
0
LINE
8
0
6
CONTINUOUS
10
0.012483
20
-0.033394
30
0.0
11
0.010619
21
-0.109000
31
0.0
0
LINE
8
0
6
CONTINUOUS
10
0.053194
20
0.028401
30
0.0
11
0.052825
21
0.043401
31
0.0
0
LINE
8
0
6
CONTINUOUS
10
-0.044002
20
-0.017215
30
0.0
11
-0.044743
21
-0.016518
31
0.0
0
LINE
8
0
6
CONTINUOUS
10
-0.044738
20
-0.016523
30
0.0
11
-0.044002
21
-0.017215
31
0.0
0
LINE
8
0
6
CONTINUOUS
10
-0.060933
20
-0.001284
30
0.0
11
-0.064625
21
0.002191
31
0.0
0
LINE
8
0
6
CONTINUOUS
10
-0.064625
20
0.002191
30
0.0
11
-0.067072
21
0.004493
31
0.0
0
LINE
8
0
6
CONTINUOUS
10
-0.067939
20
0.005309
30
0.0
11
-0.067072
21
0.004493
31
0.0
0
LINE
8
0
6
CONTINUOUS
10
-0.066973
20
0.005740
30
0.0
11
-0.067939
21
0.005309
31
0.0
0
LINE
8
0
6
CONTINUOUS
10
-0.060933
20
-0.001284
30
0.0
11
-0.056030
21
-0.005897
31
0.0
0
LINE
8
0
6
CONTINUOUS
10
-0.044002
20
-0.017215
30
0.0
11
-0.042992
21
-0.016802
31
0.0
0
LINE
8
0
6
CONTINUOUS
10
-0.044738
20
-0.016523
30
0.0
11
-0.044002
21
-0.017215
31
0.0
0
LINE
8
0
6
CONTINUOUS
10
-0.044738
20
-0.016523
30
0.0
11
-0.046892
21
-0.014495
31
0.0
0
LINE
8
0
6
CONTINUOUS
10
-0.055048
20
-0.005473
30
0.0
11
-0.056030
21
-0.005897
31
0.0
0
LINE
8
0
6
CONTINUOUS
10
-0.056030
20
-0.005897
30
0.0
11
-0.051051
21
-0.010582
31
0.0
0
LINE
8
0
6
CONTINUOUS
10
-0.046892
20
-0.014495
30
0.0
11
-0.045869
21
-0.014111
31
0.0
0
LINE
8
0
6
CONTINUOUS
10
-0.046892
20
-0.014495
30
0.0
11
-0.051051
21
-0.010582
31
0.0
0
LINE
8
0
6
CONTINUOUS
10
0.014601
20
0.058401
30
0.0
11
0.014601
21
0.057401
31
0.0
0
LINE
8
0
6
CONTINUOUS
10
0.015249
20
0.058401
30
0.0
11
0.014601
21
0.058401
31
0.0
0
LINE
8
0
6
CONTINUOUS
10
0.047036
20
0.058401
30
0.0
11
0.043101
21
0.058401
31
0.0
0
LINE
8
0
6
CONTINUOUS
10
0.052601
20
0.058401
30
0.0
11
0.051954
21
0.058401
31
0.0
0
LINE
8
0
6
CONTINUOUS
10
0.052616
20
0.057401
30
0.0
11
0.052601
21
0.058401
31
0.0
0
LINE
8
0
6
CONTINUOUS
10
0.024101
20
0.058401
30
0.0
11
0.020166
21
0.058401
31
0.0
0
LINE
8
0
6
CONTINUOUS
10
0.038519
20
0.058401
30
0.0
11
0.033601
21
0.058401
31
0.0
0
LINE
8
0
6
CONTINUOUS
10
0.033601
20
0.058401
30
0.0
11
0.028684
21
0.058401
31
0.0
0
LINE
8
0
6
CONTINUOUS
10
0.017147
20
0.058401
30
0.0
11
0.015249
21
0.058401
31
0.0
0
LINE
8
0
6
CONTINUOUS
10
0.051954
20
0.058401
30
0.0
11
0.050056
21
0.058401
31
0.0
0
LINE
8
0
6
CONTINUOUS
10
0.050056
20
0.058401
30
0.0
11
0.047036
21
0.058401
31
0.0
0
LINE
8
0
6
CONTINUOUS
10
0.020166
20
0.058401
30
0.0
11
0.017147
21
0.058401
31
0.0
0
LINE
8
0
6
CONTINUOUS
10
0.043101
20
0.058401
30
0.0
11
0.038519
21
0.058401
31
0.0
0
LINE
8
0
6
CONTINUOUS
10
0.028684
20
0.058401
30
0.0
11
0.024101
21
0.058401
31
0.0
0
LINE
8
0
6
CONTINUOUS
10
0.013676
20
-0.110000
30
0.0
11
0.017332
21
-0.110000
31
0.0
0
LINE
8
0
6
CONTINUOUS
10
0.022096
20
-0.110000
30
0.0
11
0.027644
21
-0.110000
31
0.0
0
LINE
8
0
6
CONTINUOUS
10
0.053518
20
-0.110000
30
0.0
11
0.055816
21
-0.110000
31
0.0
0
LINE
8
0
6
CONTINUOUS
10
0.010619
20
-0.109000
30
0.0
11
0.010595
21
-0.110000
31
0.0
0
LINE
8
0
6
CONTINUOUS
10
0.010595
20
-0.110000
30
0.0
11
0.011378
21
-0.110000
31
0.0
0
LINE
8
0
6
CONTINUOUS
10
0.045098
20
-0.110000
30
0.0
11
0.049862
21
-0.110000
31
0.0
0
LINE
8
0
6
CONTINUOUS
10
0.033597
20
-0.110000
30
0.0
11
0.039551
21
-0.110000
31
0.0
0
LINE
8
0
6
CONTINUOUS
10
0.017332
20
-0.110000
30
0.0
11
0.022096
21
-0.110000
31
0.0
0
LINE
8
0
6
CONTINUOUS
10
0.056600
20
-0.110000
30
0.0
11
0.056575
21
-0.109000
31
0.0
0
LINE
8
0
6
CONTINUOUS
10
0.055816
20
-0.110000
30
0.0
11
0.056600
21
-0.110000
31
0.0
0
LINE
8
0
6
CONTINUOUS
10
0.027644
20
-0.110000
30
0.0
11
0.033597
21
-0.110000
31
0.0
0
LINE
8
0
6
CONTINUOUS
10
0.011378
20
-0.110000
30
0.0
11
0.013676
21
-0.110000
31
0.0
0
LINE
8
0
6
CONTINUOUS
10
0.049862
20
-0.110000
30
0.0
11
0.053518
21
-0.110000
31
0.0
0
LINE
8
0
6
CONTINUOUS
10
0.039551
20
-0.110000
30
0.0
11
0.045098
21
-0.110000
31
0.0
0
LINE
8
0
6
CONTINUOUS
10
0.009320
20
0.031501
30
0.0
11
0.012968
21
0.033203
31
0.0
0
LINE
8
0
6
CONTINUOUS
10
0.007391
20
0.038897
30
0.0
11
0.003672
21
0.037239
31
0.0
0
LINE
8
0
6
CONTINUOUS
10
0.013327
20
0.023551
30
0.0
11
-0.055048
21
-0.005473
31
0.0
0
LINE
8
0
6
CONTINUOUS
10
0.009150
20
0.006529
30
0.0
11
0.006399
21
0.005497
31
0.0
0
LINE
8
0
6
CONTINUOUS
10
0.007082
20
0.004152
30
0.0
11
0.009150
21
0.006529
31
0.0
0
LINE
8
0
6
CONTINUOUS
10
0.003906
20
0.002331
30
0.0
11
0.006374
21
0.003338
31
0.0
0
LINE
8
0
6
CONTINUOUS
10
0.006374
20
0.003338
30
0.0
11
0.007082
21
0.004152
31
0.0
0
LINE
8
0
6
CONTINUOUS
10
0.013156
20
-0.006130
30
0.0
11
0.013136
21
-0.006943
31
0.0
0
LINE
8
0
6
CONTINUOUS
10
0.014601
20
0.053319
30
0.0
11
0.014601
21
0.052506
31
0.0
0
LINE
8
0
6
CONTINUOUS
10
0.022896
20
0.027386
30
0.0
11
0.019887
21
0.004793
31
0.0
0
LINE
8
0
6
CONTINUOUS
10
0.051593
20
0.058401
30
0.0
11
0.051593
21
0.059802
31
0.0
0
LINE
8
0
6
CONTINUOUS
10
0.015610
20
0.059802
30
0.0
11
0.015610
21
0.058401
31
0.0
0
LINE
8
0
6
CONTINUOUS
10
0.013136
20
-0.006943
30
0.0
11
0.012483
21
-0.033394
31
0.0
0
LINE
8
0
6
CONTINUOUS
10
0.054435
20
-0.022037
30
0.0
11
0.053687
21
0.008387
31
0.0
0
LINE
8
0
6
CONTINUOUS
10
-0.050047
20
-0.018127
30
0.0
11
-0.049488
21
-0.017490
31
0.0
0
LINE
8
0
6
CONTINUOUS
10
-0.050475
20
-0.017735
30
0.0
11
-0.050047
21
-0.018127
31
0.0
0
LINE
8
0
6
CONTINUOUS
10
-0.051715
20
-0.016596
30
0.0
11
-0.050475
21
-0.017735
31
0.0
0
LINE
8
0
6
CONTINUOUS
10
-0.053648
20
-0.014822
30
0.0
11
-0.051715
21
-0.016596
31
0.0
0
LINE
8
0
6
CONTINUOUS
10
-0.056082
20
-0.012587
30
0.0
11
-0.053648
21
-0.014822
31
0.0
0
LINE
8
0
6
CONTINUOUS
10
-0.058782
20
-0.010109
30
0.0
11
-0.056082
21
-0.012587
31
0.0
0
LINE
8
0
6
CONTINUOUS
10
-0.061481
20
-0.007632
30
0.0
11
-0.058782
21
-0.010109
31
0.0
0
LINE
8
0
6
CONTINUOUS
10
-0.063916
20
-0.005396
30
0.0
11
-0.061481
21
-0.007632
31
0.0
0
LINE
8
0
6
CONTINUOUS
10
-0.065848
20
-0.003623
30
0.0
11
-0.063916
21
-0.005396
31
0.0
0
LINE
8
0
6
CONTINUOUS
10
-0.067089
20
-0.002484
30
0.0
11
-0.065848
21
-0.003623
31
0.0
0
LINE
8
0
6
CONTINUOUS
10
-0.066957
20
-0.001454
30
0.0
11
-0.067516
21
-0.002091
31
0.0
0
LINE
8
0
6
CONTINUOUS
10
-0.067516
20
-0.002091
30
0.0
11
-0.067089
21
-0.002484
31
0.0
0
LINE
8
0
6
CONTINUOUS
10
-0.049488
20
-0.017490
30
0.0
11
-0.046810
21
-0.014572
31
0.0
0
LINE
8
0
6
CONTINUOUS
10
-0.064081
20
0.001679
30
0.0
11
-0.066957
21
-0.001454
31
0.0
0
LINE
8
0
6
CONTINUOUS
10
0.049312
20
-0.078328
30
0.0
11
0.049277
21
-0.077969
31
0.0
0
LINE
8
0
6
CONTINUOUS
10
0.049277
20
-0.077969
30
0.0
11
0.049298
21
-0.077569
31
0.0
0
LINE
8
0
6
CONTINUOUS
10
0.049450
20
-0.080280
30
0.0
11
0.049312
21
-0.078328
31
0.0
0
LINE
8
0
6
CONTINUOUS
10
0.049509
20
-0.081708
30
0.0
11
0.049450
21
-0.080280
31
0.0
0
LINE
8
0
6
CONTINUOUS
10
0.049298
20
-0.077569
30
0.0
11
0.049308
21
-0.077318
31
0.0
0
LINE
8
0
6
CONTINUOUS
10
0.049308
20
-0.077318
30
0.0
11
0.049349
21
-0.075286
31
0.0
0
ENDSEC
0
EOF
