999
Erzeugt mit innoplus bad 
0
SECTION
2
HEADER
9
$ACADVER
1
AC1009
9
$DWGCODEPAGE
3
ISO8859-1
0
ENDSEC
0
SECTION
2
TABLES
0
TABLE
2
LAYER
70
1
0
LAYER
2
0
70
0
62
7
6
CONTINUOUS
0
ENDTAB
0
ENDSEC
0
SECTION
2
ENTITIES
0
LINE
8
0
6
CONTINUOUS
10
-0.051094
20
-0.033411
30
0.0
11
-0.050535
21
-0.032774
31
0.0
0
LINE
8
0
6
CONTINUOUS
10
-0.051521
20
-0.033019
30
0.0
11
-0.051094
21
-0.033411
31
0.0
0
LINE
8
0
6
CONTINUOUS
10
-0.052762
20
-0.031880
30
0.0
11
-0.051521
21
-0.033019
31
0.0
0
LINE
8
0
6
CONTINUOUS
10
-0.054694
20
-0.030106
30
0.0
11
-0.052762
21
-0.031880
31
0.0
0
LINE
8
0
6
CONTINUOUS
10
-0.057129
20
-0.027871
30
0.0
11
-0.054694
21
-0.030106
31
0.0
0
LINE
8
0
6
CONTINUOUS
10
-0.059828
20
-0.025393
30
0.0
11
-0.057129
21
-0.027871
31
0.0
0
LINE
8
0
6
CONTINUOUS
10
-0.062528
20
-0.022916
30
0.0
11
-0.059828
21
-0.025393
31
0.0
0
LINE
8
0
6
CONTINUOUS
10
-0.064963
20
-0.020681
30
0.0
11
-0.062528
21
-0.022916
31
0.0
0
LINE
8
0
6
CONTINUOUS
10
-0.066895
20
-0.018907
30
0.0
11
-0.064963
21
-0.020681
31
0.0
0
LINE
8
0
6
CONTINUOUS
10
-0.068136
20
-0.017768
30
0.0
11
-0.066895
21
-0.018907
31
0.0
0
LINE
8
0
6
CONTINUOUS
10
-0.068004
20
-0.016738
30
0.0
11
-0.068563
21
-0.017375
31
0.0
0
LINE
8
0
6
CONTINUOUS
10
-0.068563
20
-0.017375
30
0.0
11
-0.068136
21
-0.017768
31
0.0
0
LINE
8
0
6
CONTINUOUS
10
-0.050535
20
-0.032774
30
0.0
11
-0.047993
21
-0.030004
31
0.0
0
LINE
8
0
6
CONTINUOUS
10
-0.065264
20
-0.013753
30
0.0
11
-0.068004
21
-0.016738
31
0.0
0
LINE
8
0
6
CONTINUOUS
10
-0.017410
20
0.078610
30
0.0
11
-0.012544
21
0.049097
31
0.0
0
LINE
8
0
6
CONTINUOUS
10
0.000741
20
0.090945
30
0.0
11
-0.003767
21
0.090182
31
0.0
0
LINE
8
0
6
CONTINUOUS
10
0.014982
20
0.093378
30
0.0
11
0.010457
21
0.092601
31
0.0
0
LINE
8
0
6
CONTINUOUS
10
-0.007653
20
0.089527
30
0.0
11
-0.010636
21
0.089027
31
0.0
0
LINE
8
0
6
CONTINUOUS
10
0.010457
20
0.092601
30
0.0
11
0.005620
21
0.091774
31
0.0
0
LINE
8
0
6
CONTINUOUS
10
0.021844
20
0.094564
30
0.0
11
0.023715
21
0.094889
31
0.0
0
LINE
8
0
6
CONTINUOUS
10
0.005620
20
0.091774
30
0.0
11
0.000741
21
0.090945
31
0.0
0
LINE
8
0
6
CONTINUOUS
10
0.024351
20
0.095000
30
0.0
11
0.023715
21
0.094889
31
0.0
0
LINE
8
0
6
CONTINUOUS
10
0.024417
20
0.094619
30
0.0
11
0.024351
21
0.095000
31
0.0
0
LINE
8
0
6
CONTINUOUS
10
0.018865
20
0.094048
30
0.0
11
0.014982
21
0.093378
31
0.0
0
LINE
8
0
6
CONTINUOUS
10
-0.003767
20
0.090182
30
0.0
11
-0.007653
21
0.089527
31
0.0
0
LINE
8
0
6
CONTINUOUS
10
-0.010636
20
0.089027
30
0.0
11
-0.012512
21
0.088713
31
0.0
0
LINE
8
0
6
CONTINUOUS
10
0.021844
20
0.094564
30
0.0
11
0.018865
21
0.094048
31
0.0
0
LINE
8
0
6
CONTINUOUS
10
0.032861
20
0.046202
30
0.0
11
0.024417
21
0.094619
31
0.0
0
LINE
8
0
6
CONTINUOUS
10
-0.013152
20
0.088606
30
0.0
11
-0.013075
21
0.088142
31
0.0
0
LINE
8
0
6
CONTINUOUS
10
-0.012512
20
0.088713
30
0.0
11
-0.013152
21
0.088606
31
0.0
0
LINE
8
0
6
CONTINUOUS
10
-0.016767
20
0.079840
30
0.0
11
-0.017489
21
0.079088
31
0.0
0
LINE
8
0
6
CONTINUOUS
10
-0.017489
20
0.079088
30
0.0
11
-0.017410
21
0.078610
31
0.0
0
LINE
8
0
6
CONTINUOUS
10
-0.017209
20
0.079175
30
0.0
11
-0.017489
21
0.079088
31
0.0
0
LINE
8
0
6
CONTINUOUS
10
-0.012085
20
0.049097
30
0.0
11
-0.016976
21
0.078742
31
0.0
0
LINE
8
0
6
CONTINUOUS
10
-0.017053
20
0.079223
30
0.0
11
-0.016311
21
0.079606
31
0.0
0
LINE
8
0
6
CONTINUOUS
10
-0.016311
20
0.079606
30
0.0
11
-0.012039
21
0.082337
31
0.0
0
LINE
8
0
6
CONTINUOUS
10
-0.012039
20
0.082337
30
0.0
11
-0.014163
21
0.081878
31
0.0
0
LINE
8
0
6
CONTINUOUS
10
-0.012427
20
0.084959
30
0.0
11
-0.012476
21
0.084954
31
0.0
0
LINE
8
0
6
CONTINUOUS
10
-0.005777
20
0.048064
30
0.0
11
-0.011343
21
0.081530
31
0.0
0
LINE
8
0
6
CONTINUOUS
10
-0.016976
20
0.078742
30
0.0
11
-0.017053
21
0.079223
31
0.0
0
LINE
8
0
6
CONTINUOUS
10
-0.017209
20
0.079175
30
0.0
11
-0.017053
21
0.079223
31
0.0
0
LINE
8
0
6
CONTINUOUS
10
-0.017053
20
0.079223
30
0.0
11
-0.016506
21
0.079898
31
0.0
0
LINE
8
0
6
CONTINUOUS
10
-0.011343
20
0.081530
30
0.0
11
-0.011433
21
0.082072
31
0.0
0
LINE
8
0
6
CONTINUOUS
10
-0.011433
20
0.082072
30
0.0
11
-0.011523
21
0.082614
31
0.0
0
LINE
8
0
6
CONTINUOUS
10
-0.012566
20
0.084945
30
0.0
11
-0.013289
21
0.083571
31
0.0
0
LINE
8
0
6
CONTINUOUS
10
-0.012476
20
0.084954
30
0.0
11
-0.012566
21
0.084945
31
0.0
0
LINE
8
0
6
CONTINUOUS
10
-0.011523
20
0.082614
30
0.0
11
-0.011542
21
0.082728
31
0.0
0
LINE
8
0
6
CONTINUOUS
10
-0.011895
20
0.084862
30
0.0
11
-0.011919
21
0.085009
31
0.0
0
LINE
8
0
6
CONTINUOUS
10
-0.011919
20
0.085009
30
0.0
11
-0.012002
21
0.085001
31
0.0
0
LINE
8
0
6
CONTINUOUS
10
-0.012002
20
0.085001
30
0.0
11
-0.012364
21
0.084965
31
0.0
0
LINE
8
0
6
CONTINUOUS
10
-0.012364
20
0.084965
30
0.0
11
-0.012427
21
0.084959
31
0.0
0
LINE
8
0
6
CONTINUOUS
10
-0.014758
20
0.081675
30
0.0
11
-0.016767
21
0.079840
31
0.0
0
LINE
8
0
6
CONTINUOUS
10
-0.012026
20
0.083651
30
0.0
11
-0.011542
21
0.082728
31
0.0
0
LINE
8
0
6
CONTINUOUS
10
-0.011542
20
0.082728
30
0.0
11
-0.011718
21
0.083795
31
0.0
0
LINE
8
0
6
CONTINUOUS
10
-0.012016
20
0.084725
30
0.0
11
-0.011718
21
0.083795
31
0.0
0
LINE
8
0
6
CONTINUOUS
10
-0.011718
20
0.083795
30
0.0
11
-0.011895
21
0.084862
31
0.0
0
LINE
8
0
6
CONTINUOUS
10
-0.014163
20
0.081878
30
0.0
11
-0.012036
21
0.082577
31
0.0
0
LINE
8
0
6
CONTINUOUS
10
-0.013265
20
0.082746
30
0.0
11
-0.012036
21
0.082577
31
0.0
0
LINE
8
0
6
CONTINUOUS
10
-0.012036
20
0.082577
30
0.0
11
-0.012026
21
0.083651
31
0.0
0
LINE
8
0
6
CONTINUOUS
10
-0.013832
20
0.082524
30
0.0
11
-0.014758
21
0.081675
31
0.0
0
LINE
8
0
6
CONTINUOUS
10
-0.013289
20
0.083571
30
0.0
11
-0.013832
21
0.082524
31
0.0
0
LINE
8
0
6
CONTINUOUS
10
0.004342
20
0.041996
30
0.0
11
0.008924
21
0.042600
31
0.0
0
LINE
8
0
6
CONTINUOUS
10
0.023402
20
0.044530
30
0.0
11
0.018802
21
0.043913
31
0.0
0
LINE
8
0
6
CONTINUOUS
10
0.013884
20
0.043258
30
0.0
11
0.018802
21
0.043913
31
0.0
0
LINE
8
0
6
CONTINUOUS
10
0.000391
20
0.041478
30
0.0
11
-0.002642
21
0.041083
31
0.0
0
LINE
8
0
6
CONTINUOUS
10
0.032282
20
0.045730
30
0.0
11
0.030379
21
0.045472
31
0.0
0
LINE
8
0
6
CONTINUOUS
10
0.008924
20
0.042600
30
0.0
11
0.013884
21
0.043258
31
0.0
0
LINE
8
0
6
CONTINUOUS
10
0.032929
20
0.045818
30
0.0
11
0.032861
21
0.046202
31
0.0
0
LINE
8
0
6
CONTINUOUS
10
0.032282
20
0.045730
30
0.0
11
0.032929
21
0.045818
31
0.0
0
LINE
8
0
6
CONTINUOUS
10
0.023402
20
0.044530
30
0.0
11
0.027351
21
0.045062
31
0.0
0
LINE
8
0
6
CONTINUOUS
10
0.000391
20
0.041478
30
0.0
11
0.004342
21
0.041996
31
0.0
0
LINE
8
0
6
CONTINUOUS
10
-0.004548
20
0.040834
30
0.0
11
-0.002642
21
0.041083
31
0.0
0
LINE
8
0
6
CONTINUOUS
10
0.027351
20
0.045062
30
0.0
11
0.030379
21
0.045472
31
0.0
0
LINE
8
0
6
CONTINUOUS
10
-0.005199
20
0.040750
30
0.0
11
-0.004548
21
0.040834
31
0.0
0
LINE
8
0
6
CONTINUOUS
10
-0.005277
20
0.041218
30
0.0
11
-0.005199
21
0.040750
31
0.0
0
LINE
8
0
6
CONTINUOUS
10
-0.012464
20
0.048617
30
0.0
11
-0.011528
21
0.048105
31
0.0
0
LINE
8
0
6
CONTINUOUS
10
-0.012464
20
0.048617
30
0.0
11
-0.012168
21
0.048614
31
0.0
0
LINE
8
0
6
CONTINUOUS
10
-0.012544
20
0.049097
30
0.0
11
-0.012464
21
0.048617
31
0.0
0
LINE
8
0
6
CONTINUOUS
10
-0.011167
20
0.048462
30
0.0
11
-0.012002
21
0.048613
31
0.0
0
LINE
8
0
6
CONTINUOUS
10
-0.011167
20
0.048462
30
0.0
11
-0.006180
21
0.047089
31
0.0
0
LINE
8
0
6
CONTINUOUS
10
-0.006180
20
0.047089
30
0.0
11
-0.008367
21
0.046909
31
0.0
0
LINE
8
0
6
CONTINUOUS
10
-0.005744
20
0.044452
30
0.0
11
-0.005695
21
0.044462
31
0.0
0
LINE
8
0
6
CONTINUOUS
10
-0.012002
20
0.048613
30
0.0
11
-0.012085
21
0.049097
31
0.0
0
LINE
8
0
6
CONTINUOUS
10
-0.011259
20
0.048125
30
0.0
11
-0.012002
21
0.048613
31
0.0
0
LINE
8
0
6
CONTINUOUS
10
-0.012002
20
0.048613
30
0.0
11
-0.012168
21
0.048614
31
0.0
0
LINE
8
0
6
CONTINUOUS
10
-0.005686
20
0.047519
30
0.0
11
-0.005777
21
0.048064
31
0.0
0
LINE
8
0
6
CONTINUOUS
10
-0.005595
20
0.046973
30
0.0
11
-0.005686
21
0.047519
31
0.0
0
LINE
8
0
6
CONTINUOUS
10
-0.005834
20
0.044434
30
0.0
11
-0.005744
21
0.044452
31
0.0
0
LINE
8
0
6
CONTINUOUS
10
-0.006977
20
0.045541
30
0.0
11
-0.005834
21
0.044434
31
0.0
0
LINE
8
0
6
CONTINUOUS
10
-0.005576
20
0.046858
30
0.0
11
-0.005595
21
0.046973
31
0.0
0
LINE
8
0
6
CONTINUOUS
10
-0.005274
20
0.044546
30
0.0
11
-0.005192
21
0.044562
31
0.0
0
LINE
8
0
6
CONTINUOUS
10
-0.005192
20
0.044562
30
0.0
11
-0.005217
21
0.044711
31
0.0
0
LINE
8
0
6
CONTINUOUS
10
-0.005633
20
0.044474
30
0.0
11
-0.005274
21
0.044546
31
0.0
0
LINE
8
0
6
CONTINUOUS
10
-0.005695
20
0.044462
30
0.0
11
-0.005633
21
0.044474
31
0.0
0
LINE
8
0
6
CONTINUOUS
10
-0.011528
20
0.048105
30
0.0
11
-0.009005
21
0.046930
31
0.0
0
LINE
8
0
6
CONTINUOUS
10
-0.005396
20
0.045785
30
0.0
11
-0.005576
21
0.046858
31
0.0
0
LINE
8
0
6
CONTINUOUS
10
-0.005217
20
0.044711
30
0.0
11
-0.005396
21
0.045785
31
0.0
0
LINE
8
0
6
CONTINUOUS
10
-0.005378
20
0.044806
30
0.0
11
-0.005396
21
0.045785
31
0.0
0
LINE
8
0
6
CONTINUOUS
10
-0.005739
20
0.045833
30
0.0
11
-0.006100
21
0.046859
31
0.0
0
LINE
8
0
6
CONTINUOUS
10
-0.007223
20
0.046338
30
0.0
11
-0.006100
21
0.046859
31
0.0
0
LINE
8
0
6
CONTINUOUS
10
-0.006100
20
0.046859
30
0.0
11
-0.008367
21
0.046909
31
0.0
0
LINE
8
0
6
CONTINUOUS
10
-0.009005
20
0.046930
30
0.0
11
-0.007840
21
0.046386
31
0.0
0
LINE
8
0
6
CONTINUOUS
10
-0.007840
20
0.046386
30
0.0
11
-0.006977
21
0.045541
31
0.0
0
LINE
8
0
6
CONTINUOUS
10
-0.002020
20
0.041164
30
0.0
11
-0.001794
21
0.039821
31
0.0
0
LINE
8
0
6
CONTINUOUS
10
0.025107
20
0.044759
30
0.0
11
0.021816
21
0.044317
31
0.0
0
LINE
8
0
6
CONTINUOUS
10
0.059374
20
-0.040554
30
0.0
11
0.058976
21
-0.041110
31
0.0
0
LINE
8
0
6
CONTINUOUS
10
0.059581
20
-0.040826
30
0.0
11
0.059993
21
-0.040134
31
0.0
0
LINE
8
0
6
CONTINUOUS
10
0.065060
20
-0.038581
30
0.0
11
0.061454
21
-0.038216
31
0.0
0
LINE
8
0
6
CONTINUOUS
10
0.065060
20
-0.038581
30
0.0
11
0.061880
21
-0.038802
31
0.0
0
LINE
8
0
6
CONTINUOUS
10
0.062615
20
-0.038982
30
0.0
11
0.066450
21
-0.038841
31
0.0
0
LINE
8
0
6
CONTINUOUS
10
0.069009
20
-0.038503
30
0.0
11
0.066921
21
-0.038590
31
0.0
0
LINE
8
0
6
CONTINUOUS
10
0.061454
20
-0.038216
30
0.0
11
0.064872
21
-0.038503
31
0.0
0
LINE
8
0
6
CONTINUOUS
10
0.058976
20
-0.038378
30
0.0
11
0.058247
21
-0.038882
31
0.0
0
LINE
8
0
6
CONTINUOUS
10
0.059847
20
-0.040084
30
0.0
11
0.060407
21
-0.039803
31
0.0
0
LINE
8
0
6
CONTINUOUS
10
0.059204
20
-0.039295
30
0.0
11
0.058618
21
-0.039671
31
0.0
0
LINE
8
0
6
CONTINUOUS
10
0.066457
20
-0.036560
30
0.0
11
0.062887
21
-0.036112
31
0.0
0
LINE
8
0
6
CONTINUOUS
10
0.057803
20
-0.040826
30
0.0
11
0.058071
21
-0.040134
31
0.0
0
LINE
8
0
6
CONTINUOUS
10
0.057488
20
-0.039383
30
0.0
11
0.057064
21
-0.040267
31
0.0
0
LINE
8
0
6
CONTINUOUS
10
0.056389
20
-0.039879
30
0.0
11
0.055869
21
-0.040705
31
0.0
0
LINE
8
0
6
CONTINUOUS
10
0.057561
20
-0.041526
30
0.0
11
0.057803
21
-0.040826
31
0.0
0
LINE
8
0
6
CONTINUOUS
10
0.057064
20
-0.040267
30
0.0
11
0.056866
21
-0.041245
31
0.0
0
LINE
8
0
6
CONTINUOUS
10
0.058618
20
-0.039671
30
0.0
11
0.058071
21
-0.040134
31
0.0
0
LINE
8
0
6
CONTINUOUS
10
0.058976
20
-0.038378
30
0.0
11
0.061454
21
-0.038216
31
0.0
0
LINE
8
0
6
CONTINUOUS
10
0.058938
20
-0.037399
30
0.0
11
0.061348
21
-0.036908
31
0.0
0
LINE
8
0
6
CONTINUOUS
10
0.064882
20
-0.037051
30
0.0
11
0.061463
21
-0.036401
31
0.0
0
LINE
8
0
6
CONTINUOUS
10
0.061363
20
-0.036612
30
0.0
11
0.064882
21
-0.037051
31
0.0
0
LINE
8
0
6
CONTINUOUS
10
0.057992
20
-0.037750
30
0.0
11
0.059058
21
-0.037113
31
0.0
0
LINE
8
0
6
CONTINUOUS
10
0.059327
20
-0.036816
30
0.0
11
0.058116
21
-0.037499
31
0.0
0
LINE
8
0
6
CONTINUOUS
10
0.056981
20
-0.038586
30
0.0
11
0.057992
21
-0.037750
31
0.0
0
LINE
8
0
6
CONTINUOUS
10
0.058116
20
-0.037499
30
0.0
11
0.056997
21
-0.038403
31
0.0
0
LINE
8
0
6
CONTINUOUS
10
0.056219
20
-0.039674
30
0.0
11
0.056981
21
-0.038586
31
0.0
0
LINE
8
0
6
CONTINUOUS
10
0.056997
20
-0.038403
30
0.0
11
0.056144
21
-0.039512
31
0.0
0
LINE
8
0
6
CONTINUOUS
10
0.056144
20
-0.039512
30
0.0
11
0.055476
21
-0.040382
31
0.0
0
LINE
8
0
6
CONTINUOUS
10
0.059058
20
-0.037113
30
0.0
11
0.061363
21
-0.036612
31
0.0
0
LINE
8
0
6
CONTINUOUS
10
0.068142
20
-0.036560
30
0.0
11
0.066457
21
-0.036560
31
0.0
0
LINE
8
0
6
CONTINUOUS
10
0.068004
20
-0.038503
30
0.0
11
0.069009
21
-0.038503
31
0.0
0
LINE
8
0
6
CONTINUOUS
10
0.066682
20
-0.038503
30
0.0
11
0.067417
21
-0.038503
31
0.0
0
LINE
8
0
6
CONTINUOUS
10
0.066703
20
-0.037051
30
0.0
11
0.067549
21
-0.037051
31
0.0
0
LINE
8
0
6
CONTINUOUS
10
0.068695
20
-0.038855
30
0.0
11
0.066921
21
-0.038590
31
0.0
0
LINE
8
0
6
CONTINUOUS
10
0.066450
20
-0.038841
30
0.0
11
0.068695
21
-0.038855
31
0.0
0
LINE
8
0
6
CONTINUOUS
10
0.069050
20
-0.036560
30
0.0
11
0.068142
21
-0.036560
31
0.0
0
LINE
8
0
6
CONTINUOUS
10
0.066854
20
-0.036923
30
0.0
11
0.067783
21
-0.036923
31
0.0
0
LINE
8
0
6
CONTINUOUS
10
0.069050
20
-0.036560
30
0.0
11
0.067783
21
-0.036923
31
0.0
0
LINE
8
0
6
CONTINUOUS
10
0.066682
20
-0.038503
30
0.0
11
0.066659
21
-0.037487
31
0.0
0
LINE
8
0
6
CONTINUOUS
10
0.066659
20
-0.037487
30
0.0
11
0.066703
21
-0.037051
31
0.0
0
LINE
8
0
6
CONTINUOUS
10
0.064882
20
-0.037051
30
0.0
11
0.066703
21
-0.037051
31
0.0
0
LINE
8
0
6
CONTINUOUS
10
0.066682
20
-0.038503
30
0.0
11
0.064872
21
-0.038503
31
0.0
0
LINE
8
0
6
CONTINUOUS
10
0.067417
20
-0.038503
30
0.0
11
0.068004
21
-0.038503
31
0.0
0
LINE
8
0
6
CONTINUOUS
10
0.061880
20
-0.038802
30
0.0
11
0.059204
21
-0.039295
31
0.0
0
LINE
8
0
6
CONTINUOUS
10
0.067783
20
-0.036923
30
0.0
11
0.067549
21
-0.037051
31
0.0
0
LINE
8
0
6
CONTINUOUS
10
0.067549
20
-0.037051
30
0.0
11
0.067506
21
-0.037487
31
0.0
0
LINE
8
0
6
CONTINUOUS
10
0.060495
20
-0.036540
30
0.0
11
0.059327
21
-0.036816
31
0.0
0
LINE
8
0
6
CONTINUOUS
10
0.062887
20
-0.036112
30
0.0
11
0.060495
21
-0.036540
31
0.0
0
LINE
8
0
6
CONTINUOUS
10
0.059327
20
-0.036816
30
0.0
11
0.061463
21
-0.036401
31
0.0
0
LINE
8
0
6
CONTINUOUS
10
0.056866
20
-0.041245
30
0.0
11
0.049657
21
-0.075220
31
0.0
0
LINE
8
0
6
CONTINUOUS
10
0.057561
20
-0.041526
30
0.0
11
0.050214
21
-0.077354
31
0.0
0
LINE
8
0
6
CONTINUOUS
10
0.055476
20
-0.040382
30
0.0
11
0.049221
21
-0.068871
31
0.0
0
LINE
8
0
6
CONTINUOUS
10
0.068695
20
-0.038855
30
0.0
11
0.069371
21
-0.038590
31
0.0
0
LINE
8
0
6
CONTINUOUS
10
0.069009
20
-0.038503
30
0.0
11
0.068695
21
-0.038855
31
0.0
0
LINE
8
0
6
CONTINUOUS
10
0.069009
20
-0.038503
30
0.0
11
0.069371
21
-0.038590
31
0.0
0
LINE
8
0
6
CONTINUOUS
10
0.069371
20
-0.038590
30
0.0
11
0.069692
21
-0.038503
31
0.0
0
LINE
8
0
6
CONTINUOUS
10
0.058976
20
-0.041110
30
0.0
11
0.058612
21
-0.041706
31
0.0
0
LINE
8
0
6
CONTINUOUS
10
0.059215
20
-0.041526
30
0.0
11
0.059581
21
-0.040826
31
0.0
0
LINE
8
0
6
CONTINUOUS
10
0.059847
20
-0.040084
30
0.0
11
0.059374
21
-0.040554
31
0.0
0
LINE
8
0
6
CONTINUOUS
10
0.059993
20
-0.040134
30
0.0
11
0.060486
21
-0.039671
31
0.0
0
LINE
8
0
6
CONTINUOUS
10
0.069009
20
-0.038503
30
0.0
11
0.069692
21
-0.038503
31
0.0
0
LINE
8
0
6
CONTINUOUS
10
0.069781
20
-0.036923
30
0.0
11
0.069050
21
-0.036560
31
0.0
0
LINE
8
0
6
CONTINUOUS
10
0.069741
20
-0.038503
30
0.0
11
0.069893
21
-0.037487
31
0.0
0
LINE
8
0
6
CONTINUOUS
10
0.069692
20
-0.038503
30
0.0
11
0.069741
21
-0.038503
31
0.0
0
LINE
8
0
6
CONTINUOUS
10
0.060407
20
-0.039803
30
0.0
11
0.063593
21
-0.038802
31
0.0
0
LINE
8
0
6
CONTINUOUS
10
0.069893
20
-0.037487
30
0.0
11
0.069852
21
-0.037051
31
0.0
0
LINE
8
0
6
CONTINUOUS
10
0.069852
20
-0.037051
30
0.0
11
0.069781
21
-0.036923
31
0.0
0
LINE
8
0
6
CONTINUOUS
10
0.051477
20
-0.076682
30
0.0
11
0.059215
21
-0.041526
31
0.0
0
LINE
8
0
6
CONTINUOUS
10
0.058612
20
-0.041706
30
0.0
11
0.050974
21
-0.077439
31
0.0
0
LINE
8
0
6
CONTINUOUS
10
0.049188
20
-0.072777
30
0.0
11
0.055869
21
-0.040705
31
0.0
0
LINE
8
0
6
CONTINUOUS
10
0.009310
20
0.010069
30
0.0
11
0.009115
21
-0.011964
31
0.0
0
LINE
8
0
6
CONTINUOUS
10
0.035551
20
-0.095000
30
0.0
11
0.041505
21
-0.095000
31
0.0
0
LINE
8
0
6
CONTINUOUS
10
0.041505
20
-0.095000
30
0.0
11
0.047053
21
-0.095000
31
0.0
0
LINE
8
0
6
CONTINUOUS
10
0.058554
20
-0.095000
30
0.0
11
0.058387
21
-0.094032
31
0.0
0
LINE
8
0
6
CONTINUOUS
10
0.057770
20
-0.095000
30
0.0
11
0.058554
21
-0.095000
31
0.0
0
LINE
8
0
6
CONTINUOUS
10
0.047053
20
-0.095000
30
0.0
11
0.051817
21
-0.095000
31
0.0
0
LINE
8
0
6
CONTINUOUS
10
0.024050
20
-0.095000
30
0.0
11
0.029598
21
-0.095000
31
0.0
0
LINE
8
0
6
CONTINUOUS
10
0.055472
20
-0.095000
30
0.0
11
0.057770
21
-0.095000
31
0.0
0
LINE
8
0
6
CONTINUOUS
10
0.029598
20
-0.095000
30
0.0
11
0.035551
21
-0.095000
31
0.0
0
LINE
8
0
6
CONTINUOUS
10
0.012434
20
-0.094024
30
0.0
11
0.012549
21
-0.095000
31
0.0
0
LINE
8
0
6
CONTINUOUS
10
0.012549
20
-0.095000
30
0.0
11
0.013333
21
-0.095000
31
0.0
0
LINE
8
0
6
CONTINUOUS
10
0.051817
20
-0.095000
30
0.0
11
0.055472
21
-0.095000
31
0.0
0
LINE
8
0
6
CONTINUOUS
10
0.013333
20
-0.095000
30
0.0
11
0.015631
21
-0.095000
31
0.0
0
LINE
8
0
6
CONTINUOUS
10
0.019286
20
-0.095000
30
0.0
11
0.024050
21
-0.095000
31
0.0
0
LINE
8
0
6
CONTINUOUS
10
0.009115
20
-0.011964
30
0.0
11
0.008694
21
0.009790
31
0.0
0
LINE
8
0
6
CONTINUOUS
10
0.008505
20
-0.011730
30
0.0
11
0.008694
21
0.009790
31
0.0
0
LINE
8
0
6
CONTINUOUS
10
0.008073
20
0.009507
30
0.0
11
0.002819
21
0.028049
31
0.0
0
LINE
8
0
6
CONTINUOUS
10
-0.004159
20
0.032572
30
0.0
11
-0.004028
21
0.031825
31
0.0
0
LINE
8
0
6
CONTINUOUS
10
0.004020
20
-0.022870
30
0.0
11
0.004133
21
-0.023636
31
0.0
0
LINE
8
0
6
CONTINUOUS
10
0.009172
20
0.041247
30
0.0
11
0.004570
21
0.040645
31
0.0
0
LINE
8
0
6
CONTINUOUS
10
0.023643
20
0.043160
30
0.0
11
0.019045
21
0.042549
31
0.0
0
LINE
8
0
6
CONTINUOUS
10
0.000618
20
0.040131
30
0.0
11
-0.002416
21
0.039738
31
0.0
0
LINE
8
0
6
CONTINUOUS
10
0.030618
20
0.044095
30
0.0
11
0.027590
21
0.043688
31
0.0
0
LINE
8
0
6
CONTINUOUS
10
0.032522
20
0.044351
30
0.0
11
0.030618
21
0.044095
31
0.0
0
LINE
8
0
6
CONTINUOUS
10
-0.002416
20
0.039738
30
0.0
11
-0.004323
21
0.039492
31
0.0
0
LINE
8
0
6
CONTINUOUS
10
0.014109
20
0.041896
30
0.0
11
0.009172
21
0.041247
31
0.0
0
LINE
8
0
6
CONTINUOUS
10
0.019045
20
0.042549
30
0.0
11
0.014109
21
0.041896
31
0.0
0
LINE
8
0
6
CONTINUOUS
10
0.004570
20
0.040645
30
0.0
11
0.000618
21
0.040131
31
0.0
0
LINE
8
0
6
CONTINUOUS
10
0.033171
20
0.044439
30
0.0
11
0.032522
21
0.044351
31
0.0
0
LINE
8
0
6
CONTINUOUS
10
0.033358
20
0.043457
30
0.0
11
0.033171
21
0.044439
31
0.0
0
LINE
8
0
6
CONTINUOUS
10
0.027590
20
0.043688
30
0.0
11
0.023643
21
0.043160
31
0.0
0
LINE
8
0
6
CONTINUOUS
10
-0.004323
20
0.039492
30
0.0
11
-0.004974
21
0.039408
31
0.0
0
LINE
8
0
6
CONTINUOUS
10
-0.004974
20
0.039408
30
0.0
11
-0.004814
21
0.038450
31
0.0
0
LINE
8
0
6
CONTINUOUS
10
-0.048847
20
-0.029201
30
0.0
11
-0.053005
21
-0.025288
31
0.0
0
LINE
8
0
6
CONTINUOUS
10
-0.057984
20
-0.020602
30
0.0
11
-0.053005
21
-0.025288
31
0.0
0
LINE
8
0
6
CONTINUOUS
10
-0.048847
20
-0.029201
30
0.0
11
-0.046692
21
-0.031228
31
0.0
0
LINE
8
0
6
CONTINUOUS
10
-0.047823
20
-0.028817
30
0.0
11
-0.048847
21
-0.029201
31
0.0
0
LINE
8
0
6
CONTINUOUS
10
-0.046692
20
-0.031228
30
0.0
11
-0.045956
21
-0.031920
31
0.0
0
LINE
8
0
6
CONTINUOUS
10
-0.045956
20
-0.031920
30
0.0
11
-0.044946
21
-0.031508
31
0.0
0
LINE
8
0
6
CONTINUOUS
10
-0.057984
20
-0.020602
30
0.0
11
-0.057003
21
-0.020179
31
0.0
0
LINE
8
0
6
CONTINUOUS
10
-0.062887
20
-0.015989
30
0.0
11
-0.057984
21
-0.020602
31
0.0
0
LINE
8
0
6
CONTINUOUS
10
-0.069893
20
-0.009397
30
0.0
11
-0.069026
21
-0.010212
31
0.0
0
LINE
8
0
6
CONTINUOUS
10
-0.068928
20
-0.008966
30
0.0
11
-0.069893
21
-0.009397
31
0.0
0
LINE
8
0
6
CONTINUOUS
10
-0.066579
20
-0.012515
30
0.0
11
-0.069026
21
-0.010212
31
0.0
0
LINE
8
0
6
CONTINUOUS
10
-0.062887
20
-0.015989
30
0.0
11
-0.066579
21
-0.012515
31
0.0
0
LINE
8
0
6
CONTINUOUS
10
-0.044946
20
-0.031508
30
0.0
11
-0.004470
21
-0.014629
31
0.0
0
LINE
8
0
6
CONTINUOUS
10
0.042747
20
-0.008120
30
0.0
11
0.038694
21
0.014146
31
0.0
0
LINE
8
0
6
CONTINUOUS
10
-0.004814
20
0.038450
30
0.0
11
-0.004159
21
0.032572
31
0.0
0
LINE
8
0
6
CONTINUOUS
10
0.004133
20
-0.023636
30
0.0
11
0.012434
21
-0.094024
31
0.0
0
LINE
8
0
6
CONTINUOUS
10
0.008073
20
0.009507
30
0.0
11
0.006705
21
-0.006456
31
0.0
0
LINE
8
0
6
CONTINUOUS
10
0.006154
20
0.008603
30
0.0
11
0.008073
21
0.009507
31
0.0
0
LINE
8
0
6
CONTINUOUS
10
0.036026
20
0.028801
30
0.0
11
0.033358
21
0.043457
31
0.0
0
LINE
8
0
6
CONTINUOUS
10
0.002296
20
0.022061
30
0.0
11
0.002384
21
0.027535
31
0.0
0
LINE
8
0
6
CONTINUOUS
10
-0.006035
20
0.021428
30
0.0
11
-0.009131
21
0.018242
31
0.0
0
LINE
8
0
6
CONTINUOUS
10
-0.006035
20
0.021428
30
0.0
11
-0.005279
21
0.020917
31
0.0
0
LINE
8
0
6
CONTINUOUS
10
-0.004172
20
0.026406
30
0.0
11
-0.006035
21
0.021428
31
0.0
0
LINE
8
0
6
CONTINUOUS
10
-0.004028
20
0.031825
30
0.0
11
-0.004172
21
0.026406
31
0.0
0
LINE
8
0
6
CONTINUOUS
10
0.000488
20
0.017020
30
0.0
11
-0.002571
21
0.013780
31
0.0
0
LINE
8
0
6
CONTINUOUS
10
0.002265
20
-0.017602
30
0.0
11
0.004020
21
-0.022870
31
0.0
0
LINE
8
0
6
CONTINUOUS
10
0.002265
20
-0.017602
30
0.0
11
0.002866
21
-0.016815
31
0.0
0
LINE
8
0
6
CONTINUOUS
10
-0.000839
20
-0.014593
30
0.0
11
0.002265
21
-0.017602
31
0.0
0
LINE
8
0
6
CONTINUOUS
10
-0.000839
20
-0.014593
30
0.0
11
-0.000243
21
-0.013789
31
0.0
0
LINE
8
0
6
CONTINUOUS
10
-0.004470
20
-0.014629
30
0.0
11
-0.000839
21
-0.014593
31
0.0
0
LINE
8
0
6
CONTINUOUS
10
0.002866
20
-0.016815
30
0.0
11
0.004619
21
-0.014500
31
0.0
0
LINE
8
0
6
CONTINUOUS
10
-0.000243
20
-0.013789
30
0.0
11
0.001495
21
-0.011432
31
0.0
0
LINE
8
0
6
CONTINUOUS
10
0.003856
20
0.007526
30
0.0
11
0.001552
21
0.006451
31
0.0
0
LINE
8
0
6
CONTINUOUS
10
0.006154
20
0.008603
30
0.0
11
0.003856
21
0.007526
31
0.0
0
LINE
8
0
6
CONTINUOUS
10
0.001495
20
-0.011432
30
0.0
11
0.004619
21
-0.014500
31
0.0
0
LINE
8
0
6
CONTINUOUS
10
-0.002145
20
-0.011400
30
0.0
11
0.001495
21
-0.011432
31
0.0
0
LINE
8
0
6
CONTINUOUS
10
-0.009131
20
0.018242
30
0.0
11
-0.068928
21
-0.008966
31
0.0
0
LINE
8
0
6
CONTINUOUS
10
-0.057003
20
-0.020179
30
0.0
11
0.001552
21
0.006451
31
0.0
0
LINE
8
0
6
CONTINUOUS
10
0.038694
20
0.014146
30
0.0
11
0.036026
21
0.028801
31
0.0
0
LINE
8
0
6
CONTINUOUS
10
0.058387
20
-0.094032
30
0.0
11
0.053530
21
-0.067354
31
0.0
0
LINE
8
0
6
CONTINUOUS
10
0.051728
20
-0.057454
30
0.0
11
0.042747
21
-0.008120
31
0.0
0
LINE
8
0
6
CONTINUOUS
10
0.015631
20
-0.095000
30
0.0
11
0.019286
21
-0.095000
31
0.0
0
LINE
8
0
6
CONTINUOUS
10
-0.045678
20
-0.030824
30
0.0
11
-0.003877
21
-0.013807
31
0.0
0
LINE
8
0
6
CONTINUOUS
10
-0.002145
20
-0.011400
30
0.0
11
-0.047823
21
-0.028817
31
0.0
0
LINE
8
0
6
CONTINUOUS
10
0.049060
20
-0.070342
30
0.0
11
0.049221
21
-0.068871
31
0.0
0
LINE
8
0
6
CONTINUOUS
10
0.049050
20
-0.070545
30
0.0
11
0.049060
21
-0.070342
31
0.0
0
LINE
8
0
6
CONTINUOUS
10
0.049188
20
-0.072777
30
0.0
11
0.049184
21
-0.072654
31
0.0
0
LINE
8
0
6
CONTINUOUS
10
0.049184
20
-0.072654
30
0.0
11
0.049050
21
-0.070545
31
0.0
0
LINE
8
0
6
CONTINUOUS
10
0.050303
20
-0.076872
30
0.0
11
0.049657
21
-0.075220
31
0.0
0
ENDSEC
0
EOF
