999
Erzeugt mit innoplus bad 
0
SECTION
2
HEADER
9
$ACADVER
1
AC1009
9
$DWGCODEPAGE
3
ISO8859-1
0
ENDSEC
0
SECTION
2
TABLES
0
TABLE
2
LAYER
70
1
0
LAYER
2
0
70
0
62
7
6
CONTINUOUS
0
ENDTAB
0
ENDSEC
0
SECTION
2
ENTITIES
0
LINE
8
0
6
CONTINUOUS
10
-0.009267
20
-0.018907
30
0.0
11
-0.005960
21
-0.017768
31
0.0
0
LINE
8
0
6
CONTINUOUS
10
-0.011891
20
-0.020681
30
0.0
11
-0.009267
21
-0.018907
31
0.0
0
LINE
8
0
6
CONTINUOUS
10
-0.013577
20
-0.022916
30
0.0
11
-0.011891
21
-0.020681
31
0.0
0
LINE
8
0
6
CONTINUOUS
10
-0.014157
20
-0.024756
30
0.0
11
-0.014157
21
-0.025393
31
0.0
0
LINE
8
0
6
CONTINUOUS
10
-0.014157
20
-0.025393
30
0.0
11
-0.013577
21
-0.022916
31
0.0
0
LINE
8
0
6
CONTINUOUS
10
-0.014157
20
-0.025393
30
0.0
11
-0.013577
21
-0.027871
31
0.0
0
LINE
8
0
6
CONTINUOUS
10
-0.013577
20
-0.027871
30
0.0
11
-0.011891
21
-0.030106
31
0.0
0
LINE
8
0
6
CONTINUOUS
10
-0.011891
20
-0.030106
30
0.0
11
-0.009267
21
-0.031880
31
0.0
0
LINE
8
0
6
CONTINUOUS
10
-0.009267
20
-0.031880
30
0.0
11
-0.005960
21
-0.033019
31
0.0
0
LINE
8
0
6
CONTINUOUS
10
-0.005960
20
-0.033019
30
0.0
11
-0.002294
21
-0.033411
31
0.0
0
LINE
8
0
6
CONTINUOUS
10
-0.002294
20
-0.033411
30
0.0
11
0.001372
21
-0.033019
31
0.0
0
LINE
8
0
6
CONTINUOUS
10
0.001372
20
-0.033019
30
0.0
11
0.004679
21
-0.031880
31
0.0
0
LINE
8
0
6
CONTINUOUS
10
0.004679
20
-0.031880
30
0.0
11
0.007304
21
-0.030106
31
0.0
0
LINE
8
0
6
CONTINUOUS
10
0.007304
20
-0.030106
30
0.0
11
0.008989
21
-0.027871
31
0.0
0
LINE
8
0
6
CONTINUOUS
10
0.008989
20
-0.027871
30
0.0
11
0.009569
21
-0.025393
31
0.0
0
LINE
8
0
6
CONTINUOUS
10
0.009569
20
-0.025393
30
0.0
11
0.009569
21
-0.024756
31
0.0
0
LINE
8
0
6
CONTINUOUS
10
0.008989
20
-0.022916
30
0.0
11
0.009569
21
-0.025393
31
0.0
0
LINE
8
0
6
CONTINUOUS
10
0.007304
20
-0.020681
30
0.0
11
0.008989
21
-0.022916
31
0.0
0
LINE
8
0
6
CONTINUOUS
10
0.004679
20
-0.018907
30
0.0
11
0.007304
21
-0.020681
31
0.0
0
LINE
8
0
6
CONTINUOUS
10
0.001372
20
-0.017768
30
0.0
11
0.004679
21
-0.018907
31
0.0
0
LINE
8
0
6
CONTINUOUS
10
-0.002294
20
-0.017375
30
0.0
11
0.001372
21
-0.017768
31
0.0
0
LINE
8
0
6
CONTINUOUS
10
-0.005960
20
-0.017768
30
0.0
11
-0.002294
21
-0.017375
31
0.0
0
LINE
8
0
6
CONTINUOUS
10
0.009569
20
-0.024756
30
0.0
11
0.009569
21
-0.021879
31
0.0
0
LINE
8
0
6
CONTINUOUS
10
-0.014157
20
-0.021879
30
0.0
11
-0.014157
21
-0.024756
31
0.0
0
LINE
8
0
6
CONTINUOUS
10
-0.007598
20
-0.020461
30
0.0
11
-0.005082
21
-0.019595
31
0.0
0
LINE
8
0
6
CONTINUOUS
10
-0.009594
20
-0.021810
30
0.0
11
-0.007598
21
-0.020461
31
0.0
0
LINE
8
0
6
CONTINUOUS
10
-0.010875
20
-0.023510
30
0.0
11
-0.009594
21
-0.021810
31
0.0
0
LINE
8
0
6
CONTINUOUS
10
-0.011316
20
-0.025393
30
0.0
11
-0.010875
21
-0.023510
31
0.0
0
LINE
8
0
6
CONTINUOUS
10
0.006287
20
-0.023510
30
0.0
11
0.006728
21
-0.025393
31
0.0
0
LINE
8
0
6
CONTINUOUS
10
0.005006
20
-0.021810
30
0.0
11
0.006287
21
-0.023510
31
0.0
0
LINE
8
0
6
CONTINUOUS
10
0.003010
20
-0.020461
30
0.0
11
0.005006
21
-0.021810
31
0.0
0
LINE
8
0
6
CONTINUOUS
10
0.000495
20
-0.019595
30
0.0
11
0.003010
21
-0.020461
31
0.0
0
LINE
8
0
6
CONTINUOUS
10
-0.002294
20
-0.019297
30
0.0
11
0.000495
21
-0.019595
31
0.0
0
LINE
8
0
6
CONTINUOUS
10
-0.005082
20
-0.019595
30
0.0
11
-0.002294
21
-0.019297
31
0.0
0
LINE
8
0
6
CONTINUOUS
10
-0.007598
20
-0.029944
30
0.0
11
-0.009594
21
-0.028595
31
0.0
0
LINE
8
0
6
CONTINUOUS
10
-0.009594
20
-0.028977
30
0.0
11
-0.007598
21
-0.030326
31
0.0
0
LINE
8
0
6
CONTINUOUS
10
0.003010
20
-0.029944
30
0.0
11
0.000495
21
-0.030810
31
0.0
0
LINE
8
0
6
CONTINUOUS
10
0.000495
20
-0.031192
30
0.0
11
0.003010
21
-0.030326
31
0.0
0
LINE
8
0
6
CONTINUOUS
10
0.005006
20
-0.028595
30
0.0
11
0.003010
21
-0.029944
31
0.0
0
LINE
8
0
6
CONTINUOUS
10
0.003010
20
-0.030326
30
0.0
11
0.005006
21
-0.028977
31
0.0
0
LINE
8
0
6
CONTINUOUS
10
-0.005082
20
-0.030810
30
0.0
11
-0.007598
21
-0.029944
31
0.0
0
LINE
8
0
6
CONTINUOUS
10
-0.007598
20
-0.030326
30
0.0
11
-0.005082
21
-0.031192
31
0.0
0
LINE
8
0
6
CONTINUOUS
10
0.006287
20
-0.026895
30
0.0
11
0.005006
21
-0.028595
31
0.0
0
LINE
8
0
6
CONTINUOUS
10
0.005006
20
-0.028977
30
0.0
11
0.006287
21
-0.027277
31
0.0
0
LINE
8
0
6
CONTINUOUS
10
-0.002294
20
-0.031109
30
0.0
11
-0.005082
21
-0.030810
31
0.0
0
LINE
8
0
6
CONTINUOUS
10
-0.005082
20
-0.031192
30
0.0
11
-0.002294
21
-0.031490
31
0.0
0
LINE
8
0
6
CONTINUOUS
10
-0.010875
20
-0.026895
30
0.0
11
-0.011316
21
-0.025012
31
0.0
0
LINE
8
0
6
CONTINUOUS
10
-0.011316
20
-0.025393
30
0.0
11
-0.010875
21
-0.027277
31
0.0
0
LINE
8
0
6
CONTINUOUS
10
0.006728
20
-0.025012
30
0.0
11
0.006287
21
-0.026895
31
0.0
0
LINE
8
0
6
CONTINUOUS
10
0.006287
20
-0.027277
30
0.0
11
0.006728
21
-0.025393
31
0.0
0
LINE
8
0
6
CONTINUOUS
10
0.000495
20
-0.030810
30
0.0
11
-0.002294
21
-0.031109
31
0.0
0
LINE
8
0
6
CONTINUOUS
10
-0.002294
20
-0.031490
30
0.0
11
0.000495
21
-0.031192
31
0.0
0
LINE
8
0
6
CONTINUOUS
10
-0.009594
20
-0.028595
30
0.0
11
-0.010875
21
-0.026895
31
0.0
0
LINE
8
0
6
CONTINUOUS
10
-0.010875
20
-0.027277
30
0.0
11
-0.009594
21
-0.028977
31
0.0
0
LINE
8
0
6
CONTINUOUS
10
-0.018748
20
0.090182
30
0.0
11
-0.020647
21
0.090945
31
0.0
0
LINE
8
0
6
CONTINUOUS
10
-0.020647
20
0.092601
30
0.0
11
-0.021294
21
0.091774
31
0.0
0
LINE
8
0
6
CONTINUOUS
10
-0.002294
20
0.095000
30
0.0
11
-0.007211
21
0.094889
31
0.0
0
LINE
8
0
6
CONTINUOUS
10
-0.018748
20
0.093378
30
0.0
11
-0.020647
21
0.092601
31
0.0
0
LINE
8
0
6
CONTINUOUS
10
-0.011794
20
0.094564
30
0.0
11
-0.015729
21
0.094049
31
0.0
0
LINE
8
0
6
CONTINUOUS
10
-0.015729
20
0.094049
30
0.0
11
-0.018748
21
0.093378
31
0.0
0
LINE
8
0
6
CONTINUOUS
10
-0.015729
20
0.089527
30
0.0
11
-0.011794
21
0.089027
31
0.0
0
LINE
8
0
6
CONTINUOUS
10
-0.007211
20
0.094889
30
0.0
11
-0.011794
21
0.094564
31
0.0
0
LINE
8
0
6
CONTINUOUS
10
-0.021294
20
0.091774
30
0.0
11
-0.021294
21
0.091398
31
0.0
0
LINE
8
0
6
CONTINUOUS
10
-0.020647
20
0.090945
30
0.0
11
-0.021294
21
0.091774
31
0.0
0
LINE
8
0
6
CONTINUOUS
10
-0.015729
20
0.089527
30
0.0
11
-0.018748
21
0.090182
31
0.0
0
LINE
8
0
6
CONTINUOUS
10
-0.007211
20
0.088713
30
0.0
11
-0.011794
21
0.089027
31
0.0
0
LINE
8
0
6
CONTINUOUS
10
-0.021294
20
0.091398
30
0.0
11
-0.021294
21
0.043636
31
0.0
0
LINE
8
0
6
CONTINUOUS
10
-0.002294
20
0.088606
30
0.0
11
-0.007211
21
0.088713
31
0.0
0
LINE
8
0
6
CONTINUOUS
10
-0.002294
20
0.079088
30
0.0
11
-0.002991
21
0.079175
31
0.0
0
LINE
8
0
6
CONTINUOUS
10
-0.003356
20
0.078742
30
0.0
11
-0.003356
21
0.049097
31
0.0
0
LINE
8
0
6
CONTINUOUS
10
-0.003871
20
0.079606
30
0.0
11
-0.003357
21
0.079223
31
0.0
0
LINE
8
0
6
CONTINUOUS
10
-0.003871
20
0.079606
30
0.0
11
-0.006895
21
0.082337
31
0.0
0
LINE
8
0
6
CONTINUOUS
10
-0.006895
20
0.082337
30
0.0
11
-0.003843
21
0.081878
31
0.0
0
LINE
8
0
6
CONTINUOUS
10
-0.002984
20
0.084954
30
0.0
11
-0.003356
21
0.084959
31
0.0
0
LINE
8
0
6
CONTINUOUS
10
-0.007211
20
0.081530
30
0.0
11
-0.007211
21
0.048064
31
0.0
0
LINE
8
0
6
CONTINUOUS
10
-0.003357
20
0.079223
30
0.0
11
-0.003356
21
0.078742
31
0.0
0
LINE
8
0
6
CONTINUOUS
10
-0.003367
20
0.079898
30
0.0
11
-0.003357
21
0.079223
31
0.0
0
LINE
8
0
6
CONTINUOUS
10
-0.003357
20
0.079223
30
0.0
11
-0.002991
21
0.079175
31
0.0
0
LINE
8
0
6
CONTINUOUS
10
-0.007211
20
0.082072
30
0.0
11
-0.007211
21
0.081530
31
0.0
0
LINE
8
0
6
CONTINUOUS
10
-0.007211
20
0.082614
30
0.0
11
-0.007211
21
0.082072
31
0.0
0
LINE
8
0
6
CONTINUOUS
10
-0.002294
20
0.084945
30
0.0
11
-0.002984
21
0.084954
31
0.0
0
LINE
8
0
6
CONTINUOUS
10
-0.007211
20
0.082728
30
0.0
11
-0.007211
21
0.082614
31
0.0
0
LINE
8
0
6
CONTINUOUS
10
-0.006584
20
0.085001
30
0.0
11
-0.007211
21
0.085009
31
0.0
0
LINE
8
0
6
CONTINUOUS
10
-0.007211
20
0.085009
30
0.0
11
-0.007211
21
0.084862
31
0.0
0
LINE
8
0
6
CONTINUOUS
10
-0.003834
20
0.084965
30
0.0
11
-0.006584
21
0.085001
31
0.0
0
LINE
8
0
6
CONTINUOUS
10
-0.003356
20
0.084959
30
0.0
11
-0.003834
21
0.084965
31
0.0
0
LINE
8
0
6
CONTINUOUS
10
-0.007211
20
0.083795
30
0.0
11
-0.007211
21
0.082728
31
0.0
0
LINE
8
0
6
CONTINUOUS
10
-0.006742
20
0.083651
30
0.0
11
-0.007211
21
0.082728
31
0.0
0
LINE
8
0
6
CONTINUOUS
10
-0.007211
20
0.084862
30
0.0
11
-0.007211
21
0.083795
31
0.0
0
LINE
8
0
6
CONTINUOUS
10
-0.006617
20
0.084725
30
0.0
11
-0.007211
21
0.083795
31
0.0
0
LINE
8
0
6
CONTINUOUS
10
-0.006742
20
0.083651
30
0.0
11
-0.006867
21
0.082577
31
0.0
0
LINE
8
0
6
CONTINUOUS
10
-0.003841
20
0.082746
30
0.0
11
-0.006867
21
0.082577
31
0.0
0
LINE
8
0
6
CONTINUOUS
10
-0.006867
20
0.082577
30
0.0
11
-0.003843
21
0.081878
31
0.0
0
LINE
8
0
6
CONTINUOUS
10
-0.020647
20
0.042600
30
0.0
11
-0.018748
21
0.041996
31
0.0
0
LINE
8
0
6
CONTINUOUS
10
-0.015729
20
0.041478
30
0.0
11
-0.011794
21
0.041083
31
0.0
0
LINE
8
0
6
CONTINUOUS
10
-0.021294
20
0.043258
30
0.0
11
-0.020647
21
0.042600
31
0.0
0
LINE
8
0
6
CONTINUOUS
10
-0.021294
20
0.043636
30
0.0
11
-0.021294
21
0.043258
31
0.0
0
LINE
8
0
6
CONTINUOUS
10
-0.018748
20
0.041996
30
0.0
11
-0.015729
21
0.041478
31
0.0
0
LINE
8
0
6
CONTINUOUS
10
-0.011794
20
0.041083
30
0.0
11
-0.007211
21
0.040834
31
0.0
0
LINE
8
0
6
CONTINUOUS
10
-0.007211
20
0.040834
30
0.0
11
-0.002294
21
0.040750
31
0.0
0
LINE
8
0
6
CONTINUOUS
10
-0.002991
20
0.048614
30
0.0
11
-0.002294
21
0.048617
31
0.0
0
LINE
8
0
6
CONTINUOUS
10
-0.003357
20
0.048613
30
0.0
11
-0.003871
21
0.048462
31
0.0
0
LINE
8
0
6
CONTINUOUS
10
-0.003871
20
0.048462
30
0.0
11
-0.006895
21
0.047089
31
0.0
0
LINE
8
0
6
CONTINUOUS
10
-0.006895
20
0.047089
30
0.0
11
-0.003843
21
0.046909
31
0.0
0
LINE
8
0
6
CONTINUOUS
10
-0.003356
20
0.044462
30
0.0
11
-0.002984
21
0.044452
31
0.0
0
LINE
8
0
6
CONTINUOUS
10
-0.003356
20
0.049097
30
0.0
11
-0.003357
21
0.048613
31
0.0
0
LINE
8
0
6
CONTINUOUS
10
-0.002991
20
0.048614
30
0.0
11
-0.003357
21
0.048613
31
0.0
0
LINE
8
0
6
CONTINUOUS
10
-0.003357
20
0.048613
30
0.0
11
-0.003367
21
0.048125
31
0.0
0
LINE
8
0
6
CONTINUOUS
10
-0.007211
20
0.048064
30
0.0
11
-0.007211
21
0.047519
31
0.0
0
LINE
8
0
6
CONTINUOUS
10
-0.007211
20
0.047519
30
0.0
11
-0.007211
21
0.046973
31
0.0
0
LINE
8
0
6
CONTINUOUS
10
-0.002984
20
0.044452
30
0.0
11
-0.002294
21
0.044434
31
0.0
0
LINE
8
0
6
CONTINUOUS
10
-0.007211
20
0.046973
30
0.0
11
-0.007211
21
0.046858
31
0.0
0
LINE
8
0
6
CONTINUOUS
10
-0.007211
20
0.044711
30
0.0
11
-0.007211
21
0.044562
31
0.0
0
LINE
8
0
6
CONTINUOUS
10
-0.007211
20
0.044562
30
0.0
11
-0.006584
21
0.044546
31
0.0
0
LINE
8
0
6
CONTINUOUS
10
-0.006584
20
0.044546
30
0.0
11
-0.003834
21
0.044474
31
0.0
0
LINE
8
0
6
CONTINUOUS
10
-0.003834
20
0.044474
30
0.0
11
-0.003356
21
0.044462
31
0.0
0
LINE
8
0
6
CONTINUOUS
10
-0.007211
20
0.046858
30
0.0
11
-0.007211
21
0.045785
31
0.0
0
LINE
8
0
6
CONTINUOUS
10
-0.006617
20
0.044806
30
0.0
11
-0.007211
21
0.045785
31
0.0
0
LINE
8
0
6
CONTINUOUS
10
-0.007211
20
0.045785
30
0.0
11
-0.007211
21
0.044711
31
0.0
0
LINE
8
0
6
CONTINUOUS
10
-0.003843
20
0.046909
30
0.0
11
-0.006867
21
0.046859
31
0.0
0
LINE
8
0
6
CONTINUOUS
10
-0.003841
20
0.046338
30
0.0
11
-0.006867
21
0.046859
31
0.0
0
LINE
8
0
6
CONTINUOUS
10
-0.006867
20
0.046859
30
0.0
11
-0.006742
21
0.045833
31
0.0
0
LINE
8
0
6
CONTINUOUS
10
0.016059
20
0.090945
30
0.0
11
0.014161
21
0.090182
31
0.0
0
LINE
8
0
6
CONTINUOUS
10
0.016706
20
0.091774
30
0.0
11
0.016059
21
0.092601
31
0.0
0
LINE
8
0
6
CONTINUOUS
10
0.002624
20
0.094889
30
0.0
11
-0.002294
21
0.095000
31
0.0
0
LINE
8
0
6
CONTINUOUS
10
0.016059
20
0.092601
30
0.0
11
0.014161
21
0.093378
31
0.0
0
LINE
8
0
6
CONTINUOUS
10
0.011141
20
0.094048
30
0.0
11
0.007206
21
0.094564
31
0.0
0
LINE
8
0
6
CONTINUOUS
10
0.014161
20
0.093378
30
0.0
11
0.011141
21
0.094048
31
0.0
0
LINE
8
0
6
CONTINUOUS
10
0.007206
20
0.089027
30
0.0
11
0.011141
21
0.089527
31
0.0
0
LINE
8
0
6
CONTINUOUS
10
0.007206
20
0.094564
30
0.0
11
0.002624
21
0.094889
31
0.0
0
LINE
8
0
6
CONTINUOUS
10
0.016706
20
0.091774
30
0.0
11
0.016059
21
0.090945
31
0.0
0
LINE
8
0
6
CONTINUOUS
10
0.016706
20
0.091398
30
0.0
11
0.016706
21
0.091774
31
0.0
0
LINE
8
0
6
CONTINUOUS
10
0.014161
20
0.090182
30
0.0
11
0.011141
21
0.089527
31
0.0
0
LINE
8
0
6
CONTINUOUS
10
0.007206
20
0.089027
30
0.0
11
0.002624
21
0.088713
31
0.0
0
LINE
8
0
6
CONTINUOUS
10
0.016706
20
0.043636
30
0.0
11
0.016706
21
0.091398
31
0.0
0
LINE
8
0
6
CONTINUOUS
10
0.002624
20
0.088713
30
0.0
11
-0.002294
21
0.088606
31
0.0
0
LINE
8
0
6
CONTINUOUS
10
-0.002294
20
0.079840
30
0.0
11
-0.002294
21
0.079088
31
0.0
0
LINE
8
0
6
CONTINUOUS
10
-0.002294
20
0.079088
30
0.0
11
-0.002294
21
0.078610
31
0.0
0
LINE
8
0
6
CONTINUOUS
10
-0.001597
20
0.079175
30
0.0
11
-0.002294
21
0.079088
31
0.0
0
LINE
8
0
6
CONTINUOUS
10
-0.001232
20
0.049097
30
0.0
11
-0.001232
21
0.078742
31
0.0
0
LINE
8
0
6
CONTINUOUS
10
-0.001231
20
0.079223
30
0.0
11
-0.000716
21
0.079606
31
0.0
0
LINE
8
0
6
CONTINUOUS
10
-0.000716
20
0.079606
30
0.0
11
0.002307
21
0.082337
31
0.0
0
LINE
8
0
6
CONTINUOUS
10
0.002307
20
0.082337
30
0.0
11
-0.000744
21
0.081878
31
0.0
0
LINE
8
0
6
CONTINUOUS
10
-0.001232
20
0.084959
30
0.0
11
-0.001604
21
0.084954
31
0.0
0
LINE
8
0
6
CONTINUOUS
10
0.002624
20
0.048064
30
0.0
11
0.002624
21
0.081530
31
0.0
0
LINE
8
0
6
CONTINUOUS
10
-0.001232
20
0.078742
30
0.0
11
-0.001231
21
0.079223
31
0.0
0
LINE
8
0
6
CONTINUOUS
10
-0.001597
20
0.079175
30
0.0
11
-0.001231
21
0.079223
31
0.0
0
LINE
8
0
6
CONTINUOUS
10
-0.001231
20
0.079223
30
0.0
11
-0.001221
21
0.079898
31
0.0
0
LINE
8
0
6
CONTINUOUS
10
0.002624
20
0.081530
30
0.0
11
0.002624
21
0.082072
31
0.0
0
LINE
8
0
6
CONTINUOUS
10
0.002624
20
0.082072
30
0.0
11
0.002624
21
0.082614
31
0.0
0
LINE
8
0
6
CONTINUOUS
10
-0.001604
20
0.084954
30
0.0
11
-0.002294
21
0.084945
31
0.0
0
LINE
8
0
6
CONTINUOUS
10
0.002624
20
0.082614
30
0.0
11
0.002624
21
0.082728
31
0.0
0
LINE
8
0
6
CONTINUOUS
10
0.002624
20
0.084862
30
0.0
11
0.002624
21
0.085009
31
0.0
0
LINE
8
0
6
CONTINUOUS
10
0.002624
20
0.085009
30
0.0
11
0.001996
21
0.085001
31
0.0
0
LINE
8
0
6
CONTINUOUS
10
0.001996
20
0.085001
30
0.0
11
-0.000754
21
0.084965
31
0.0
0
LINE
8
0
6
CONTINUOUS
10
-0.000754
20
0.084965
30
0.0
11
-0.001232
21
0.084959
31
0.0
0
LINE
8
0
6
CONTINUOUS
10
0.002155
20
0.083651
30
0.0
11
0.002624
21
0.082728
31
0.0
0
LINE
8
0
6
CONTINUOUS
10
0.002624
20
0.082728
30
0.0
11
0.002624
21
0.083795
31
0.0
0
LINE
8
0
6
CONTINUOUS
10
0.002030
20
0.084725
30
0.0
11
0.002624
21
0.083795
31
0.0
0
LINE
8
0
6
CONTINUOUS
10
0.002624
20
0.083795
30
0.0
11
0.002624
21
0.084862
31
0.0
0
LINE
8
0
6
CONTINUOUS
10
-0.000744
20
0.081878
30
0.0
11
0.002280
21
0.082577
31
0.0
0
LINE
8
0
6
CONTINUOUS
10
-0.000746
20
0.082746
30
0.0
11
0.002280
21
0.082577
31
0.0
0
LINE
8
0
6
CONTINUOUS
10
0.002280
20
0.082577
30
0.0
11
0.002155
21
0.083651
31
0.0
0
LINE
8
0
6
CONTINUOUS
10
0.014161
20
0.041996
30
0.0
11
0.016059
21
0.042600
31
0.0
0
LINE
8
0
6
CONTINUOUS
10
0.007206
20
0.041083
30
0.0
11
0.011141
21
0.041478
31
0.0
0
LINE
8
0
6
CONTINUOUS
10
0.016706
20
0.043258
30
0.0
11
0.016706
21
0.043636
31
0.0
0
LINE
8
0
6
CONTINUOUS
10
0.016059
20
0.042600
30
0.0
11
0.016706
21
0.043258
31
0.0
0
LINE
8
0
6
CONTINUOUS
10
0.011141
20
0.041478
30
0.0
11
0.014161
21
0.041996
31
0.0
0
LINE
8
0
6
CONTINUOUS
10
0.002624
20
0.040834
30
0.0
11
0.007206
21
0.041083
31
0.0
0
LINE
8
0
6
CONTINUOUS
10
-0.002294
20
0.040750
30
0.0
11
0.002624
21
0.040834
31
0.0
0
LINE
8
0
6
CONTINUOUS
10
-0.002294
20
0.048617
30
0.0
11
-0.002294
21
0.048105
31
0.0
0
LINE
8
0
6
CONTINUOUS
10
-0.002294
20
0.048617
30
0.0
11
-0.001597
21
0.048614
31
0.0
0
LINE
8
0
6
CONTINUOUS
10
-0.002294
20
0.049097
30
0.0
11
-0.002294
21
0.048617
31
0.0
0
LINE
8
0
6
CONTINUOUS
10
-0.000716
20
0.048462
30
0.0
11
-0.001231
21
0.048613
31
0.0
0
LINE
8
0
6
CONTINUOUS
10
-0.000716
20
0.048462
30
0.0
11
0.002307
21
0.047089
31
0.0
0
LINE
8
0
6
CONTINUOUS
10
0.002307
20
0.047089
30
0.0
11
-0.000744
21
0.046909
31
0.0
0
LINE
8
0
6
CONTINUOUS
10
-0.001604
20
0.044452
30
0.0
11
-0.001232
21
0.044462
31
0.0
0
LINE
8
0
6
CONTINUOUS
10
-0.001231
20
0.048613
30
0.0
11
-0.001232
21
0.049097
31
0.0
0
LINE
8
0
6
CONTINUOUS
10
-0.001221
20
0.048125
30
0.0
11
-0.001231
21
0.048613
31
0.0
0
LINE
8
0
6
CONTINUOUS
10
-0.001231
20
0.048613
30
0.0
11
-0.001597
21
0.048614
31
0.0
0
LINE
8
0
6
CONTINUOUS
10
0.002624
20
0.047519
30
0.0
11
0.002624
21
0.048064
31
0.0
0
LINE
8
0
6
CONTINUOUS
10
0.002624
20
0.046973
30
0.0
11
0.002624
21
0.047519
31
0.0
0
LINE
8
0
6
CONTINUOUS
10
-0.002294
20
0.044434
30
0.0
11
-0.001604
21
0.044452
31
0.0
0
LINE
8
0
6
CONTINUOUS
10
0.002624
20
0.046858
30
0.0
11
0.002624
21
0.046973
31
0.0
0
LINE
8
0
6
CONTINUOUS
10
0.001996
20
0.044546
30
0.0
11
0.002624
21
0.044562
31
0.0
0
LINE
8
0
6
CONTINUOUS
10
0.002624
20
0.044562
30
0.0
11
0.002624
21
0.044711
31
0.0
0
LINE
8
0
6
CONTINUOUS
10
-0.000754
20
0.044474
30
0.0
11
0.001996
21
0.044546
31
0.0
0
LINE
8
0
6
CONTINUOUS
10
-0.001232
20
0.044462
30
0.0
11
-0.000754
21
0.044474
31
0.0
0
LINE
8
0
6
CONTINUOUS
10
0.002624
20
0.045785
30
0.0
11
0.002624
21
0.046858
31
0.0
0
LINE
8
0
6
CONTINUOUS
10
0.002624
20
0.044711
30
0.0
11
0.002624
21
0.045785
31
0.0
0
LINE
8
0
6
CONTINUOUS
10
0.002030
20
0.044806
30
0.0
11
0.002624
21
0.045785
31
0.0
0
LINE
8
0
6
CONTINUOUS
10
0.002155
20
0.045833
30
0.0
11
0.002280
21
0.046859
31
0.0
0
LINE
8
0
6
CONTINUOUS
10
-0.000746
20
0.046338
30
0.0
11
0.002280
21
0.046859
31
0.0
0
LINE
8
0
6
CONTINUOUS
10
0.002280
20
0.046859
30
0.0
11
-0.000744
21
0.046909
31
0.0
0
LINE
8
0
6
CONTINUOUS
10
-0.002294
20
0.049097
30
0.0
11
-0.002294
21
0.078610
31
0.0
0
LINE
8
0
6
CONTINUOUS
10
0.023937
20
-0.038581
30
0.0
11
0.020911
21
-0.038216
31
0.0
0
LINE
8
0
6
CONTINUOUS
10
0.023937
20
-0.038581
30
0.0
11
0.020599
21
-0.038802
31
0.0
0
LINE
8
0
6
CONTINUOUS
10
0.019288
20
-0.038982
30
0.0
11
0.021968
21
-0.038841
31
0.0
0
LINE
8
0
6
CONTINUOUS
10
0.020911
20
-0.038216
30
0.0
11
0.024159
21
-0.038503
31
0.0
0
LINE
8
0
6
CONTINUOUS
10
0.019167
20
-0.038378
30
0.0
11
0.019047
21
-0.038490
31
0.0
0
LINE
8
0
6
CONTINUOUS
10
0.021973
20
-0.036560
30
0.0
11
0.019478
21
-0.036112
31
0.0
0
LINE
8
0
6
CONTINUOUS
10
0.019167
20
-0.038378
30
0.0
11
0.020911
21
-0.038216
31
0.0
0
LINE
8
0
6
CONTINUOUS
10
0.019108
20
-0.037399
30
0.0
11
0.021171
21
-0.036908
31
0.0
0
LINE
8
0
6
CONTINUOUS
10
0.024250
20
-0.037051
30
0.0
11
0.021009
21
-0.036401
31
0.0
0
LINE
8
0
6
CONTINUOUS
10
0.021143
20
-0.036612
30
0.0
11
0.024250
21
-0.037051
31
0.0
0
LINE
8
0
6
CONTINUOUS
10
0.019009
20
-0.037171
30
0.0
11
0.019082
21
-0.037113
31
0.0
0
LINE
8
0
6
CONTINUOUS
10
0.019082
20
-0.037113
30
0.0
11
0.021143
21
-0.036612
31
0.0
0
LINE
8
0
6
CONTINUOUS
10
0.023151
20
-0.036560
30
0.0
11
0.021973
21
-0.036560
31
0.0
0
LINE
8
0
6
CONTINUOUS
10
0.023537
20
-0.038855
30
0.0
11
0.024906
21
-0.038590
31
0.0
0
LINE
8
0
6
CONTINUOUS
10
0.021968
20
-0.038841
30
0.0
11
0.023537
21
-0.038855
31
0.0
0
LINE
8
0
6
CONTINUOUS
10
0.023785
20
-0.036560
30
0.0
11
0.023151
21
-0.036560
31
0.0
0
LINE
8
0
6
CONTINUOUS
10
0.025028
20
-0.036923
30
0.0
11
0.023785
21
-0.036560
31
0.0
0
LINE
8
0
6
CONTINUOUS
10
0.025139
20
-0.038503
30
0.0
11
0.025294
21
-0.037487
31
0.0
0
LINE
8
0
6
CONTINUOUS
10
0.025294
20
-0.037487
30
0.0
11
0.025234
21
-0.037051
31
0.0
0
LINE
8
0
6
CONTINUOUS
10
0.025234
20
-0.037051
30
0.0
11
0.025016
21
-0.036923
31
0.0
0
LINE
8
0
6
CONTINUOUS
10
0.024250
20
-0.037051
30
0.0
11
0.025234
21
-0.037051
31
0.0
0
LINE
8
0
6
CONTINUOUS
10
0.025139
20
-0.038503
30
0.0
11
0.024159
21
-0.038503
31
0.0
0
LINE
8
0
6
CONTINUOUS
10
0.024906
20
-0.038590
30
0.0
11
0.025139
21
-0.038503
31
0.0
0
LINE
8
0
6
CONTINUOUS
10
0.019072
20
-0.039337
30
0.0
11
0.020599
21
-0.038802
31
0.0
0
LINE
8
0
6
CONTINUOUS
10
0.020599
20
-0.038802
30
0.0
11
0.019069
21
-0.039244
31
0.0
0
LINE
8
0
6
CONTINUOUS
10
0.018997
20
-0.036786
30
0.0
11
0.021009
21
-0.036401
31
0.0
0
LINE
8
0
6
CONTINUOUS
10
0.019478
20
-0.036112
30
0.0
11
0.018980
21
-0.036189
31
0.0
0
LINE
8
0
6
CONTINUOUS
10
-0.024510
20
-0.095000
30
0.0
11
-0.022212
21
-0.095000
31
0.0
0
LINE
8
0
6
CONTINUOUS
10
-0.025262
20
-0.094029
30
0.0
11
-0.025294
21
-0.095000
31
0.0
0
LINE
8
0
6
CONTINUOUS
10
-0.025294
20
-0.095000
30
0.0
11
-0.024510
21
-0.095000
31
0.0
0
LINE
8
0
6
CONTINUOUS
10
-0.008247
20
-0.095000
30
0.0
11
-0.002294
21
-0.095000
31
0.0
0
LINE
8
0
6
CONTINUOUS
10
-0.013794
20
-0.095000
30
0.0
11
-0.008247
21
-0.095000
31
0.0
0
LINE
8
0
6
CONTINUOUS
10
-0.022212
20
-0.095000
30
0.0
11
-0.018557
21
-0.095000
31
0.0
0
LINE
8
0
6
CONTINUOUS
10
0.017625
20
-0.095000
30
0.0
11
0.019922
21
-0.095000
31
0.0
0
LINE
8
0
6
CONTINUOUS
10
0.019922
20
-0.095000
30
0.0
11
0.020706
21
-0.095000
31
0.0
0
LINE
8
0
6
CONTINUOUS
10
0.020706
20
-0.095000
30
0.0
11
0.020674
21
-0.094029
31
0.0
0
LINE
8
0
6
CONTINUOUS
10
-0.002294
20
-0.095000
30
0.0
11
0.003659
21
-0.095000
31
0.0
0
LINE
8
0
6
CONTINUOUS
10
0.003659
20
-0.095000
30
0.0
11
0.009206
21
-0.095000
31
0.0
0
LINE
8
0
6
CONTINUOUS
10
0.013970
20
-0.095000
30
0.0
11
0.017625
21
-0.095000
31
0.0
0
LINE
8
0
6
CONTINUOUS
10
-0.018557
20
-0.095000
30
0.0
11
-0.013794
21
-0.095000
31
0.0
0
LINE
8
0
6
CONTINUOUS
10
0.014364
20
0.009507
30
0.0
11
0.011670
21
0.028049
31
0.0
0
LINE
8
0
6
CONTINUOUS
10
0.014161
20
0.040645
30
0.0
11
0.016059
21
0.041247
31
0.0
0
LINE
8
0
6
CONTINUOUS
10
0.007206
20
0.039738
30
0.0
11
0.011141
21
0.040131
31
0.0
0
LINE
8
0
6
CONTINUOUS
10
0.002624
20
0.039492
30
0.0
11
0.007206
21
0.039738
31
0.0
0
LINE
8
0
6
CONTINUOUS
10
0.016706
20
0.041896
30
0.0
11
0.016059
21
0.041247
31
0.0
0
LINE
8
0
6
CONTINUOUS
10
0.016721
20
0.040925
30
0.0
11
0.016706
21
0.041896
31
0.0
0
LINE
8
0
6
CONTINUOUS
10
0.016706
20
0.041896
30
0.0
11
0.016059
21
0.042549
31
0.0
0
LINE
8
0
6
CONTINUOUS
10
0.011141
20
0.040131
30
0.0
11
0.014161
21
0.040645
31
0.0
0
LINE
8
0
6
CONTINUOUS
10
-0.002294
20
0.039408
30
0.0
11
0.002624
21
0.039492
31
0.0
0
LINE
8
0
6
CONTINUOUS
10
0.007965
20
-0.029201
30
0.0
11
0.011405
21
-0.025288
31
0.0
0
LINE
8
0
6
CONTINUOUS
10
0.011405
20
-0.025288
30
0.0
11
0.012908
21
-0.020602
31
0.0
0
LINE
8
0
6
CONTINUOUS
10
0.012908
20
-0.020602
30
0.0
11
0.012932
21
-0.020179
31
0.0
0
LINE
8
0
6
CONTINUOUS
10
0.011439
20
-0.015989
30
0.0
11
0.012908
21
-0.020602
31
0.0
0
LINE
8
0
6
CONTINUOUS
10
0.003326
20
-0.010212
30
0.0
11
-0.002294
21
-0.009397
31
0.0
0
LINE
8
0
6
CONTINUOUS
10
0.008117
20
-0.012515
30
0.0
11
0.003326
21
-0.010212
31
0.0
0
LINE
8
0
6
CONTINUOUS
10
0.011439
20
-0.015989
30
0.0
11
0.008117
21
-0.012515
31
0.0
0
LINE
8
0
6
CONTINUOUS
10
0.017152
20
0.026215
30
0.0
11
0.016721
21
0.040925
31
0.0
0
LINE
8
0
6
CONTINUOUS
10
-0.021740
20
0.026215
30
0.0
11
-0.022171
21
0.011504
31
0.0
0
LINE
8
0
6
CONTINUOUS
10
-0.019049
20
0.009727
30
0.0
11
-0.019876
21
-0.011358
31
0.0
0
LINE
8
0
6
CONTINUOUS
10
0.014373
20
0.008603
30
0.0
11
0.014364
21
0.009507
31
0.0
0
LINE
8
0
6
CONTINUOUS
10
0.011341
20
0.022061
30
0.0
11
0.011238
21
0.027535
31
0.0
0
LINE
8
0
6
CONTINUOUS
10
-0.002294
20
0.021428
30
0.0
11
0.002725
21
0.020917
31
0.0
0
LINE
8
0
6
CONTINUOUS
10
0.014403
20
0.006451
30
0.0
11
0.014387
21
0.007526
31
0.0
0
LINE
8
0
6
CONTINUOUS
10
0.011438
20
0.017020
30
0.0
11
0.011502
21
0.013780
31
0.0
0
LINE
8
0
6
CONTINUOUS
10
0.014387
20
0.007526
30
0.0
11
0.014373
21
0.008603
31
0.0
0
LINE
8
0
6
CONTINUOUS
10
0.018219
20
-0.010218
30
0.0
11
0.017583
21
0.011504
31
0.0
0
LINE
8
0
6
CONTINUOUS
10
0.012932
20
-0.020179
30
0.0
11
0.014403
21
0.006451
31
0.0
0
LINE
8
0
6
CONTINUOUS
10
-0.022171
20
0.011504
30
0.0
11
-0.022807
21
-0.010218
31
0.0
0
LINE
8
0
6
CONTINUOUS
10
0.017583
20
0.011504
30
0.0
11
0.017152
21
0.026215
31
0.0
0
LINE
8
0
6
CONTINUOUS
10
-0.018954
20
0.009366
30
0.0
11
-0.016257
21
0.028049
31
0.0
0
LINE
8
0
6
CONTINUOUS
10
-0.020646
20
0.041247
30
0.0
11
-0.018748
21
0.040645
31
0.0
0
LINE
8
0
6
CONTINUOUS
10
-0.015729
20
0.040131
30
0.0
11
-0.011794
21
0.039738
31
0.0
0
LINE
8
0
6
CONTINUOUS
10
-0.011794
20
0.039738
30
0.0
11
-0.007211
21
0.039492
31
0.0
0
LINE
8
0
6
CONTINUOUS
10
-0.021294
20
0.041896
30
0.0
11
-0.021309
21
0.040925
31
0.0
0
LINE
8
0
6
CONTINUOUS
10
-0.020646
20
0.041247
30
0.0
11
-0.021294
21
0.041896
31
0.0
0
LINE
8
0
6
CONTINUOUS
10
-0.020646
20
0.042549
30
0.0
11
-0.021294
21
0.041896
31
0.0
0
LINE
8
0
6
CONTINUOUS
10
-0.018748
20
0.040645
30
0.0
11
-0.015729
21
0.040131
31
0.0
0
LINE
8
0
6
CONTINUOUS
10
-0.007211
20
0.039492
30
0.0
11
-0.002294
21
0.039408
31
0.0
0
LINE
8
0
6
CONTINUOUS
10
-0.015993
20
-0.025288
30
0.0
11
-0.012553
21
-0.029201
31
0.0
0
LINE
8
0
6
CONTINUOUS
10
-0.017496
20
-0.020602
30
0.0
11
-0.015993
21
-0.025288
31
0.0
0
LINE
8
0
6
CONTINUOUS
10
-0.017496
20
-0.020602
30
0.0
11
-0.016026
21
-0.015989
31
0.0
0
LINE
8
0
6
CONTINUOUS
10
-0.017519
20
-0.020179
30
0.0
11
-0.017496
21
-0.020602
31
0.0
0
LINE
8
0
6
CONTINUOUS
10
-0.002294
20
-0.009397
30
0.0
11
-0.007914
21
-0.010212
31
0.0
0
LINE
8
0
6
CONTINUOUS
10
-0.007914
20
-0.010212
30
0.0
11
-0.012705
21
-0.012515
31
0.0
0
LINE
8
0
6
CONTINUOUS
10
-0.012705
20
-0.012515
30
0.0
11
-0.016026
21
-0.015989
31
0.0
0
LINE
8
0
6
CONTINUOUS
10
-0.021309
20
0.040925
30
0.0
11
-0.021740
21
0.026215
31
0.0
0
LINE
8
0
6
CONTINUOUS
10
-0.022807
20
-0.010218
30
0.0
11
-0.025262
21
-0.094029
31
0.0
0
LINE
8
0
6
CONTINUOUS
10
0.009206
20
-0.095000
30
0.0
11
0.013970
21
-0.095000
31
0.0
0
LINE
8
0
6
CONTINUOUS
10
-0.018954
20
0.009366
30
0.0
11
-0.018961
21
0.008603
31
0.0
0
LINE
8
0
6
CONTINUOUS
10
-0.018954
20
0.009366
30
0.0
11
-0.015929
21
0.022061
31
0.0
0
LINE
8
0
6
CONTINUOUS
10
-0.007313
20
0.020917
30
0.0
11
-0.002294
21
0.021428
31
0.0
0
LINE
8
0
6
CONTINUOUS
10
-0.016090
20
0.013780
30
0.0
11
-0.016026
21
0.017020
31
0.0
0
LINE
8
0
6
CONTINUOUS
10
-0.018975
20
0.007526
30
0.0
11
-0.018991
21
0.006451
31
0.0
0
LINE
8
0
6
CONTINUOUS
10
-0.018961
20
0.008603
30
0.0
11
-0.018975
21
0.007526
31
0.0
0
LINE
8
0
6
CONTINUOUS
10
-0.018991
20
0.006451
30
0.0
11
-0.017519
21
-0.020179
31
0.0
0
LINE
8
0
6
CONTINUOUS
10
0.020674
20
-0.094029
30
0.0
11
0.018219
21
-0.010218
31
0.0
0
LINE
8
0
6
CONTINUOUS
10
0.013002
20
0.041354
30
0.0
11
0.013540
21
0.041897
31
0.0
0
LINE
8
0
6
CONTINUOUS
10
0.001372
20
-0.014151
30
0.0
11
0.004679
21
-0.015305
31
0.0
0
LINE
8
0
6
CONTINUOUS
10
0.008903
20
0.040424
30
0.0
11
0.010550
21
0.040705
31
0.0
0
LINE
8
0
6
CONTINUOUS
10
-0.011891
20
-0.017102
30
0.0
11
-0.010423
21
-0.016097
31
0.0
0
LINE
8
0
6
CONTINUOUS
10
-0.002294
20
-0.013753
30
0.0
11
0.001372
21
-0.014151
31
0.0
0
LINE
8
0
6
CONTINUOUS
10
-0.005960
20
-0.014151
30
0.0
11
-0.002294
21
-0.013753
31
0.0
0
LINE
8
0
6
CONTINUOUS
10
-0.009267
20
-0.015305
30
0.0
11
-0.005960
21
-0.014151
31
0.0
0
LINE
8
0
6
CONTINUOUS
10
0.011420
20
0.040854
30
0.0
11
0.012766
21
0.041279
31
0.0
0
LINE
8
0
6
CONTINUOUS
10
-0.013856
20
-0.020574
30
0.0
11
-0.014157
21
-0.021879
31
0.0
0
LINE
8
0
6
CONTINUOUS
10
0.005624
20
0.040096
30
0.0
11
0.006747
21
0.040208
31
0.0
0
LINE
8
0
6
CONTINUOUS
10
0.005836
20
-0.016097
30
0.0
11
0.007304
21
-0.017102
31
0.0
0
LINE
8
0
6
CONTINUOUS
10
0.009268
20
-0.020574
30
0.0
11
0.009569
21
-0.021879
31
0.0
0
ENDSEC
0
EOF
