999
Erzeugt mit innoplus bad 
0
SECTION
2
HEADER
9
$ACADVER
1
AC1009
9
$DWGCODEPAGE
3
ISO8859-1
0
ENDSEC
0
SECTION
2
TABLES
0
TABLE
2
LAYER
70
1
0
LAYER
2
0
70
0
62
7
6
CONTINUOUS
0
ENDTAB
0
ENDSEC
0
SECTION
2
ENTITIES
0
LINE
8
0
6
CONTINUOUS
10
0.006290
20
-0.020246
30
0.0
11
0.010179
21
-0.021206
31
0.0
0
LINE
8
0
6
CONTINUOUS
10
0.010179
20
0.021467
30
0.0
11
0.006290
21
0.020508
31
0.0
0
LINE
8
0
6
CONTINUOUS
10
0.014069
20
-0.021828
30
0.0
11
0.014500
21
-0.021833
31
0.0
0
LINE
8
0
6
CONTINUOUS
10
0.010179
20
-0.021206
30
0.0
11
0.014069
21
-0.021828
31
0.0
0
LINE
8
0
6
CONTINUOUS
10
0.014500
20
0.022094
30
0.0
11
0.014069
21
0.022089
31
0.0
0
LINE
8
0
6
CONTINUOUS
10
0.014069
20
0.022089
30
0.0
11
0.010179
21
0.021467
31
0.0
0
LINE
8
0
6
CONTINUOUS
10
0.029500
20
-0.074231
30
0.0
11
0.029500
21
-0.073109
31
0.0
0
LINE
8
0
6
CONTINUOUS
10
0.029500
20
-0.039977
30
0.0
11
0.029500
21
-0.028852
31
0.0
0
LINE
8
0
6
CONTINUOUS
10
0.029500
20
-0.055881
30
0.0
11
0.029500
21
-0.051810
31
0.0
0
LINE
8
0
6
CONTINUOUS
10
0.029500
20
-0.063509
30
0.0
11
0.029500
21
-0.059834
31
0.0
0
LINE
8
0
6
CONTINUOUS
10
0.029500
20
-0.028852
30
0.0
11
0.029500
21
-0.016159
31
0.0
0
LINE
8
0
6
CONTINUOUS
10
0.029500
20
-0.016159
30
0.0
11
0.029500
21
0.000250
31
0.0
0
LINE
8
0
6
CONTINUOUS
10
0.029500
20
-0.059834
30
0.0
11
0.029500
21
-0.055881
31
0.0
0
LINE
8
0
6
CONTINUOUS
10
0.029500
20
-0.076613
30
0.0
11
0.029500
21
-0.075939
31
0.0
0
LINE
8
0
6
CONTINUOUS
10
0.029500
20
-0.071573
30
0.0
11
0.029500
21
-0.069473
31
0.0
0
LINE
8
0
6
CONTINUOUS
10
0.029500
20
-0.069473
30
0.0
11
0.029500
21
-0.066801
31
0.0
0
LINE
8
0
6
CONTINUOUS
10
0.029500
20
-0.075939
30
0.0
11
0.029500
21
-0.074990
31
0.0
0
LINE
8
0
6
CONTINUOUS
10
0.029500
20
-0.074990
30
0.0
11
0.029500
21
-0.074231
31
0.0
0
LINE
8
0
6
CONTINUOUS
10
0.029500
20
-0.051810
30
0.0
11
0.029500
21
-0.047653
31
0.0
0
LINE
8
0
6
CONTINUOUS
10
0.029500
20
-0.047653
30
0.0
11
0.029500
21
-0.039977
31
0.0
0
LINE
8
0
6
CONTINUOUS
10
0.029500
20
-0.077052
30
0.0
11
0.029500
21
-0.076613
31
0.0
0
LINE
8
0
6
CONTINUOUS
10
0.029500
20
-0.073109
30
0.0
11
0.029500
21
-0.071573
31
0.0
0
LINE
8
0
6
CONTINUOUS
10
0.029500
20
-0.066801
30
0.0
11
0.029500
21
-0.063509
31
0.0
0
LINE
8
0
6
CONTINUOUS
10
0.029500
20
-0.077250
30
0.0
11
0.029500
21
-0.077052
31
0.0
0
LINE
8
0
6
CONTINUOUS
10
0.029124
20
-0.077250
30
0.0
11
0.029500
21
-0.077250
31
0.0
0
LINE
8
0
6
CONTINUOUS
10
0.029500
20
0.073609
30
0.0
11
0.029500
21
0.074731
31
0.0
0
LINE
8
0
6
CONTINUOUS
10
0.029500
20
0.029352
30
0.0
11
0.029500
21
0.040477
31
0.0
0
LINE
8
0
6
CONTINUOUS
10
0.029500
20
0.052310
30
0.0
11
0.029500
21
0.056381
31
0.0
0
LINE
8
0
6
CONTINUOUS
10
0.029500
20
0.060334
30
0.0
11
0.029500
21
0.064009
31
0.0
0
LINE
8
0
6
CONTINUOUS
10
0.029500
20
0.016659
30
0.0
11
0.029500
21
0.029352
31
0.0
0
LINE
8
0
6
CONTINUOUS
10
0.029500
20
0.000250
30
0.0
11
0.029500
21
0.016659
31
0.0
0
LINE
8
0
6
CONTINUOUS
10
0.029500
20
0.056381
30
0.0
11
0.029500
21
0.060334
31
0.0
0
LINE
8
0
6
CONTINUOUS
10
0.029500
20
0.076439
30
0.0
11
0.029500
21
0.077113
31
0.0
0
LINE
8
0
6
CONTINUOUS
10
0.029500
20
0.069973
30
0.0
11
0.029500
21
0.072073
31
0.0
0
LINE
8
0
6
CONTINUOUS
10
0.029500
20
0.067301
30
0.0
11
0.029500
21
0.069973
31
0.0
0
LINE
8
0
6
CONTINUOUS
10
0.029500
20
0.075490
30
0.0
11
0.029500
21
0.076439
31
0.0
0
LINE
8
0
6
CONTINUOUS
10
0.029500
20
0.074731
30
0.0
11
0.029500
21
0.075490
31
0.0
0
LINE
8
0
6
CONTINUOUS
10
0.029500
20
0.048153
30
0.0
11
0.029500
21
0.052310
31
0.0
0
LINE
8
0
6
CONTINUOUS
10
0.029500
20
0.040477
30
0.0
11
0.029500
21
0.048153
31
0.0
0
LINE
8
0
6
CONTINUOUS
10
0.029500
20
0.077113
30
0.0
11
0.029500
21
0.077552
31
0.0
0
LINE
8
0
6
CONTINUOUS
10
0.029500
20
0.072073
30
0.0
11
0.029500
21
0.073609
31
0.0
0
LINE
8
0
6
CONTINUOUS
10
0.029500
20
0.064009
30
0.0
11
0.029500
21
0.067301
31
0.0
0
LINE
8
0
6
CONTINUOUS
10
0.029500
20
0.077750
30
0.0
11
0.029124
21
0.077750
31
0.0
0
LINE
8
0
6
CONTINUOUS
10
0.029500
20
0.077552
30
0.0
11
0.029500
21
0.077750
31
0.0
0
LINE
8
0
6
CONTINUOUS
10
0.015500
20
-0.077250
30
0.0
11
0.015876
21
-0.077250
31
0.0
0
LINE
8
0
6
CONTINUOUS
10
0.015876
20
-0.077250
30
0.0
11
0.029124
21
-0.077250
31
0.0
0
LINE
8
0
6
CONTINUOUS
10
0.015500
20
-0.071573
30
0.0
11
0.015500
21
-0.069473
31
0.0
0
LINE
8
0
6
CONTINUOUS
10
0.015500
20
-0.066801
30
0.0
11
0.015500
21
-0.063509
31
0.0
0
LINE
8
0
6
CONTINUOUS
10
0.014500
20
-0.059195
30
0.0
11
0.014500
21
-0.062844
31
0.0
0
LINE
8
0
6
CONTINUOUS
10
0.015500
20
-0.059834
30
0.0
11
0.015500
21
-0.055881
31
0.0
0
LINE
8
0
6
CONTINUOUS
10
0.015500
20
-0.028852
30
0.0
11
0.015500
21
-0.016159
31
0.0
0
LINE
8
0
6
CONTINUOUS
10
0.014800
20
-0.059620
30
0.0
11
0.014800
21
-0.055683
31
0.0
0
LINE
8
0
6
CONTINUOUS
10
0.014500
20
-0.055304
30
0.0
11
0.014500
21
-0.059195
31
0.0
0
LINE
8
0
6
CONTINUOUS
10
0.014500
20
-0.051285
30
0.0
11
0.014500
21
-0.055304
31
0.0
0
LINE
8
0
6
CONTINUOUS
10
0.014500
20
-0.047217
30
0.0
11
0.014500
21
-0.051285
31
0.0
0
LINE
8
0
6
CONTINUOUS
10
0.014500
20
-0.028404
30
0.0
11
0.014500
21
-0.039572
31
0.0
0
LINE
8
0
6
CONTINUOUS
10
0.014800
20
-0.028712
30
0.0
11
0.014800
21
-0.016103
31
0.0
0
LINE
8
0
6
CONTINUOUS
10
0.014500
20
-0.015963
30
0.0
11
0.014500
21
-0.028404
31
0.0
0
LINE
8
0
6
CONTINUOUS
10
0.014500
20
-0.066085
30
0.0
11
0.014500
21
-0.068673
31
0.0
0
LINE
8
0
6
CONTINUOUS
10
0.014800
20
-0.059620
30
0.0
11
0.014800
21
-0.063275
31
0.0
0
LINE
8
0
6
CONTINUOUS
10
0.015500
20
-0.063509
30
0.0
11
0.015500
21
-0.059834
31
0.0
0
LINE
8
0
6
CONTINUOUS
10
0.014500
20
-0.072220
30
0.0
11
0.014500
21
-0.073302
31
0.0
0
LINE
8
0
6
CONTINUOUS
10
0.014500
20
-0.073302
30
0.0
11
0.014500
21
-0.074150
31
0.0
0
LINE
8
0
6
CONTINUOUS
10
0.015500
20
-0.016159
30
0.0
11
0.015500
21
0.000250
31
0.0
0
LINE
8
0
6
CONTINUOUS
10
0.014800
20
-0.066544
30
0.0
11
0.014800
21
-0.069244
31
0.0
0
LINE
8
0
6
CONTINUOUS
10
0.015500
20
-0.069473
30
0.0
11
0.015500
21
-0.066801
31
0.0
0
LINE
8
0
6
CONTINUOUS
10
0.015500
20
-0.073109
30
0.0
11
0.015500
21
-0.071573
31
0.0
0
LINE
8
0
6
CONTINUOUS
10
0.014800
20
-0.072812
30
0.0
11
0.014800
21
-0.073918
31
0.0
0
LINE
8
0
6
CONTINUOUS
10
0.015500
20
-0.074231
30
0.0
11
0.015500
21
-0.073109
31
0.0
0
LINE
8
0
6
CONTINUOUS
10
0.015500
20
-0.076613
30
0.0
11
0.015500
21
-0.075939
31
0.0
0
LINE
8
0
6
CONTINUOUS
10
0.015500
20
-0.077052
30
0.0
11
0.015500
21
-0.076613
31
0.0
0
LINE
8
0
6
CONTINUOUS
10
0.014500
20
-0.076250
30
0.0
11
0.014800
21
-0.076950
31
0.0
0
LINE
8
0
6
CONTINUOUS
10
0.014500
20
-0.076073
30
0.0
11
0.014500
21
-0.076250
31
0.0
0
LINE
8
0
6
CONTINUOUS
10
0.014500
20
0.000250
30
0.0
11
0.014500
21
-0.015963
31
0.0
0
LINE
8
0
6
CONTINUOUS
10
0.014800
20
-0.016103
30
0.0
11
0.014800
21
0.000250
31
0.0
0
LINE
8
0
6
CONTINUOUS
10
0.014800
20
-0.071284
30
0.0
11
0.014800
21
-0.069244
31
0.0
0
LINE
8
0
6
CONTINUOUS
10
0.014500
20
-0.068673
30
0.0
11
0.014500
21
-0.070727
31
0.0
0
LINE
8
0
6
CONTINUOUS
10
0.015500
20
-0.055881
30
0.0
11
0.015500
21
-0.051810
31
0.0
0
LINE
8
0
6
CONTINUOUS
10
0.014800
20
-0.051630
30
0.0
11
0.014800
21
-0.055683
31
0.0
0
LINE
8
0
6
CONTINUOUS
10
0.015500
20
-0.051810
30
0.0
11
0.015500
21
-0.047653
31
0.0
0
LINE
8
0
6
CONTINUOUS
10
0.014800
20
-0.047493
30
0.0
11
0.014800
21
-0.051630
31
0.0
0
LINE
8
0
6
CONTINUOUS
10
0.015500
20
-0.047653
30
0.0
11
0.015500
21
-0.039977
31
0.0
0
LINE
8
0
6
CONTINUOUS
10
0.015500
20
-0.039977
30
0.0
11
0.015500
21
-0.028852
31
0.0
0
LINE
8
0
6
CONTINUOUS
10
0.014800
20
-0.028712
30
0.0
11
0.014800
21
-0.039775
31
0.0
0
LINE
8
0
6
CONTINUOUS
10
0.014800
20
-0.066544
30
0.0
11
0.014800
21
-0.063275
31
0.0
0
LINE
8
0
6
CONTINUOUS
10
0.014500
20
-0.062844
30
0.0
11
0.014500
21
-0.066085
31
0.0
0
LINE
8
0
6
CONTINUOUS
10
0.014800
20
-0.047493
30
0.0
11
0.014800
21
-0.039775
31
0.0
0
LINE
8
0
6
CONTINUOUS
10
0.014500
20
-0.039572
30
0.0
11
0.014500
21
-0.047217
31
0.0
0
LINE
8
0
6
CONTINUOUS
10
0.014500
20
-0.070727
30
0.0
11
0.014500
21
-0.072220
31
0.0
0
LINE
8
0
6
CONTINUOUS
10
0.014800
20
-0.072812
30
0.0
11
0.014800
21
-0.071284
31
0.0
0
LINE
8
0
6
CONTINUOUS
10
0.014500
20
-0.074150
30
0.0
11
0.014500
21
-0.075048
31
0.0
0
LINE
8
0
6
CONTINUOUS
10
0.014500
20
-0.075048
30
0.0
11
0.014500
21
-0.075690
31
0.0
0
LINE
8
0
6
CONTINUOUS
10
0.014800
20
-0.076305
30
0.0
11
0.014800
21
-0.075574
31
0.0
0
LINE
8
0
6
CONTINUOUS
10
0.014500
20
-0.075690
30
0.0
11
0.014500
21
-0.076073
31
0.0
0
LINE
8
0
6
CONTINUOUS
10
0.014800
20
-0.076717
30
0.0
11
0.014800
21
-0.076305
31
0.0
0
LINE
8
0
6
CONTINUOUS
10
0.014800
20
-0.073918
30
0.0
11
0.014800
21
-0.074666
31
0.0
0
LINE
8
0
6
CONTINUOUS
10
0.015500
20
-0.074990
30
0.0
11
0.015500
21
-0.074231
31
0.0
0
LINE
8
0
6
CONTINUOUS
10
0.014800
20
-0.074666
30
0.0
11
0.014800
21
-0.075574
31
0.0
0
LINE
8
0
6
CONTINUOUS
10
0.015500
20
-0.075939
30
0.0
11
0.015500
21
-0.074990
31
0.0
0
LINE
8
0
6
CONTINUOUS
10
0.015500
20
-0.077250
30
0.0
11
0.015500
21
-0.077052
31
0.0
0
LINE
8
0
6
CONTINUOUS
10
0.014800
20
-0.076950
30
0.0
11
0.015500
21
-0.077250
31
0.0
0
LINE
8
0
6
CONTINUOUS
10
0.014800
20
-0.076717
30
0.0
11
0.014800
21
-0.076950
31
0.0
0
LINE
8
0
6
CONTINUOUS
10
0.015876
20
0.077750
30
0.0
11
0.015500
21
0.077750
31
0.0
0
LINE
8
0
6
CONTINUOUS
10
0.029124
20
0.077750
30
0.0
11
0.015876
21
0.077750
31
0.0
0
LINE
8
0
6
CONTINUOUS
10
0.015500
20
0.069973
30
0.0
11
0.015500
21
0.072073
31
0.0
0
LINE
8
0
6
CONTINUOUS
10
0.015500
20
0.064009
30
0.0
11
0.015500
21
0.067301
31
0.0
0
LINE
8
0
6
CONTINUOUS
10
0.014500
20
0.063344
30
0.0
11
0.014500
21
0.059695
31
0.0
0
LINE
8
0
6
CONTINUOUS
10
0.015500
20
0.056381
30
0.0
11
0.015500
21
0.060334
31
0.0
0
LINE
8
0
6
CONTINUOUS
10
0.015500
20
0.016659
30
0.0
11
0.015500
21
0.029352
31
0.0
0
LINE
8
0
6
CONTINUOUS
10
0.014500
20
0.059695
30
0.0
11
0.014500
21
0.055804
31
0.0
0
LINE
8
0
6
CONTINUOUS
10
0.014800
20
0.056183
30
0.0
11
0.014800
21
0.060120
31
0.0
0
LINE
8
0
6
CONTINUOUS
10
0.014500
20
0.055804
30
0.0
11
0.014500
21
0.051785
31
0.0
0
LINE
8
0
6
CONTINUOUS
10
0.014500
20
0.051785
30
0.0
11
0.014500
21
0.047717
31
0.0
0
LINE
8
0
6
CONTINUOUS
10
0.014500
20
0.040072
30
0.0
11
0.014500
21
0.028904
31
0.0
0
LINE
8
0
6
CONTINUOUS
10
0.014500
20
0.028904
30
0.0
11
0.014500
21
0.016463
31
0.0
0
LINE
8
0
6
CONTINUOUS
10
0.014800
20
0.016603
30
0.0
11
0.014800
21
0.029212
31
0.0
0
LINE
8
0
6
CONTINUOUS
10
0.014500
20
0.069173
30
0.0
11
0.014500
21
0.066584
31
0.0
0
LINE
8
0
6
CONTINUOUS
10
0.015500
20
0.060334
30
0.0
11
0.015500
21
0.064009
31
0.0
0
LINE
8
0
6
CONTINUOUS
10
0.014800
20
0.063775
30
0.0
11
0.014800
21
0.060120
31
0.0
0
LINE
8
0
6
CONTINUOUS
10
0.014500
20
0.073802
30
0.0
11
0.014500
21
0.072720
31
0.0
0
LINE
8
0
6
CONTINUOUS
10
0.014500
20
0.074650
30
0.0
11
0.014500
21
0.073802
31
0.0
0
LINE
8
0
6
CONTINUOUS
10
0.015500
20
0.000250
30
0.0
11
0.015500
21
0.016659
31
0.0
0
LINE
8
0
6
CONTINUOUS
10
0.015500
20
0.067301
30
0.0
11
0.015500
21
0.069973
31
0.0
0
LINE
8
0
6
CONTINUOUS
10
0.014800
20
0.069744
30
0.0
11
0.014800
21
0.067044
31
0.0
0
LINE
8
0
6
CONTINUOUS
10
0.015500
20
0.072073
30
0.0
11
0.015500
21
0.073609
31
0.0
0
LINE
8
0
6
CONTINUOUS
10
0.015500
20
0.073609
30
0.0
11
0.015500
21
0.074731
31
0.0
0
LINE
8
0
6
CONTINUOUS
10
0.014800
20
0.074418
30
0.0
11
0.014800
21
0.073312
31
0.0
0
LINE
8
0
6
CONTINUOUS
10
0.015500
20
0.076439
30
0.0
11
0.015500
21
0.077113
31
0.0
0
LINE
8
0
6
CONTINUOUS
10
0.015500
20
0.077113
30
0.0
11
0.015500
21
0.077552
31
0.0
0
LINE
8
0
6
CONTINUOUS
10
0.014500
20
0.076750
30
0.0
11
0.014500
21
0.076573
31
0.0
0
LINE
8
0
6
CONTINUOUS
10
0.014800
20
0.077450
30
0.0
11
0.014500
21
0.076750
31
0.0
0
LINE
8
0
6
CONTINUOUS
10
0.014800
20
0.000250
30
0.0
11
0.014800
21
0.016603
31
0.0
0
LINE
8
0
6
CONTINUOUS
10
0.014500
20
0.016463
30
0.0
11
0.014500
21
0.000250
31
0.0
0
LINE
8
0
6
CONTINUOUS
10
0.014500
20
0.071226
30
0.0
11
0.014500
21
0.069173
31
0.0
0
LINE
8
0
6
CONTINUOUS
10
0.014800
20
0.069744
30
0.0
11
0.014800
21
0.071784
31
0.0
0
LINE
8
0
6
CONTINUOUS
10
0.014800
20
0.056183
30
0.0
11
0.014800
21
0.052130
31
0.0
0
LINE
8
0
6
CONTINUOUS
10
0.015500
20
0.052310
30
0.0
11
0.015500
21
0.056381
31
0.0
0
LINE
8
0
6
CONTINUOUS
10
0.014800
20
0.052130
30
0.0
11
0.014800
21
0.047993
31
0.0
0
LINE
8
0
6
CONTINUOUS
10
0.015500
20
0.048153
30
0.0
11
0.015500
21
0.052310
31
0.0
0
LINE
8
0
6
CONTINUOUS
10
0.015500
20
0.040477
30
0.0
11
0.015500
21
0.048153
31
0.0
0
LINE
8
0
6
CONTINUOUS
10
0.014800
20
0.040275
30
0.0
11
0.014800
21
0.029212
31
0.0
0
LINE
8
0
6
CONTINUOUS
10
0.015500
20
0.029352
30
0.0
11
0.015500
21
0.040477
31
0.0
0
LINE
8
0
6
CONTINUOUS
10
0.014500
20
0.066584
30
0.0
11
0.014500
21
0.063344
31
0.0
0
LINE
8
0
6
CONTINUOUS
10
0.014800
20
0.063775
30
0.0
11
0.014800
21
0.067044
31
0.0
0
LINE
8
0
6
CONTINUOUS
10
0.014500
20
0.047717
30
0.0
11
0.014500
21
0.040072
31
0.0
0
LINE
8
0
6
CONTINUOUS
10
0.014800
20
0.040275
30
0.0
11
0.014800
21
0.047993
31
0.0
0
LINE
8
0
6
CONTINUOUS
10
0.014800
20
0.071784
30
0.0
11
0.014800
21
0.073312
31
0.0
0
LINE
8
0
6
CONTINUOUS
10
0.014500
20
0.072720
30
0.0
11
0.014500
21
0.071226
31
0.0
0
LINE
8
0
6
CONTINUOUS
10
0.014500
20
0.075548
30
0.0
11
0.014500
21
0.074650
31
0.0
0
LINE
8
0
6
CONTINUOUS
10
0.014800
20
0.076074
30
0.0
11
0.014800
21
0.076805
31
0.0
0
LINE
8
0
6
CONTINUOUS
10
0.014500
20
0.076190
30
0.0
11
0.014500
21
0.075548
31
0.0
0
LINE
8
0
6
CONTINUOUS
10
0.014800
20
0.076805
30
0.0
11
0.014800
21
0.077217
31
0.0
0
LINE
8
0
6
CONTINUOUS
10
0.014500
20
0.076573
30
0.0
11
0.014500
21
0.076190
31
0.0
0
LINE
8
0
6
CONTINUOUS
10
0.015500
20
0.074731
30
0.0
11
0.015500
21
0.075490
31
0.0
0
LINE
8
0
6
CONTINUOUS
10
0.014800
20
0.075166
30
0.0
11
0.014800
21
0.074418
31
0.0
0
LINE
8
0
6
CONTINUOUS
10
0.015500
20
0.075490
30
0.0
11
0.015500
21
0.076439
31
0.0
0
LINE
8
0
6
CONTINUOUS
10
0.014800
20
0.076074
30
0.0
11
0.014800
21
0.075166
31
0.0
0
LINE
8
0
6
CONTINUOUS
10
0.014800
20
0.077450
30
0.0
11
0.014800
21
0.077217
31
0.0
0
LINE
8
0
6
CONTINUOUS
10
0.015500
20
0.077750
30
0.0
11
0.014800
21
0.077450
31
0.0
0
LINE
8
0
6
CONTINUOUS
10
0.015500
20
0.077552
30
0.0
11
0.015500
21
0.077750
31
0.0
0
LINE
8
0
6
CONTINUOUS
10
0.006504
20
0.000202
30
0.0
11
0.006504
21
0.005895
31
0.0
0
LINE
8
0
6
CONTINUOUS
10
0.006504
20
0.015797
30
0.0
11
0.006504
21
0.019307
31
0.0
0
LINE
8
0
6
CONTINUOUS
10
0.006504
20
0.011223
30
0.0
11
0.006504
21
0.015797
31
0.0
0
LINE
8
0
6
CONTINUOUS
10
0.006504
20
0.005895
30
0.0
11
0.006504
21
0.011223
31
0.0
0
LINE
8
0
6
CONTINUOUS
10
0.006504
20
0.019307
30
0.0
11
0.006504
21
0.021511
31
0.0
0
LINE
8
0
6
CONTINUOUS
10
0.006504
20
0.022261
30
0.0
11
0.005953
21
0.022261
31
0.0
0
LINE
8
0
6
CONTINUOUS
10
0.006504
20
0.021511
30
0.0
11
0.006504
21
0.022261
31
0.0
0
LINE
8
0
6
CONTINUOUS
10
0.006504
20
-0.005520
30
0.0
11
0.006504
21
0.000202
31
0.0
0
LINE
8
0
6
CONTINUOUS
10
0.006504
20
-0.010842
30
0.0
11
0.006504
21
-0.005520
31
0.0
0
LINE
8
0
6
CONTINUOUS
10
0.006504
20
-0.015413
30
0.0
11
0.006504
21
-0.010842
31
0.0
0
LINE
8
0
6
CONTINUOUS
10
0.006504
20
-0.018920
30
0.0
11
0.006504
21
-0.015413
31
0.0
0
LINE
8
0
6
CONTINUOUS
10
0.006504
20
-0.021125
30
0.0
11
0.006504
21
-0.018920
31
0.0
0
LINE
8
0
6
CONTINUOUS
10
0.006504
20
-0.021877
30
0.0
11
0.006504
21
-0.021125
31
0.0
0
LINE
8
0
6
CONTINUOUS
10
0.005953
20
-0.021877
30
0.0
11
0.006504
21
-0.021877
31
0.0
0
LINE
8
0
6
CONTINUOUS
10
-0.006430
20
-0.021877
30
0.0
11
0.005953
21
-0.021877
31
0.0
0
LINE
8
0
6
CONTINUOUS
10
-0.029500
20
-0.015507
30
0.0
11
-0.029500
21
-0.031206
31
0.0
0
LINE
8
0
6
CONTINUOUS
10
-0.029500
20
-0.069568
30
0.0
11
-0.029500
21
-0.073709
31
0.0
0
LINE
8
0
6
CONTINUOUS
10
-0.029500
20
-0.031206
30
0.0
11
-0.029500
21
-0.043639
31
0.0
0
LINE
8
0
6
CONTINUOUS
10
-0.029500
20
-0.043639
30
0.0
11
-0.029500
21
-0.069568
31
0.0
0
LINE
8
0
6
CONTINUOUS
10
-0.029500
20
0.000192
30
0.0
11
-0.029500
21
-0.015507
31
0.0
0
LINE
8
0
6
CONTINUOUS
10
-0.029500
20
-0.073709
30
0.0
11
-0.029500
21
-0.076675
31
0.0
0
LINE
8
0
6
CONTINUOUS
10
-0.028949
20
-0.073709
30
0.0
11
-0.029500
21
-0.073709
31
0.0
0
LINE
8
0
6
CONTINUOUS
10
-0.029500
20
-0.077750
30
0.0
11
-0.028949
21
-0.077750
31
0.0
0
LINE
8
0
6
CONTINUOUS
10
-0.029500
20
-0.076675
30
0.0
11
-0.029500
21
-0.077750
31
0.0
0
LINE
8
0
6
CONTINUOUS
10
-0.028949
20
-0.076675
30
0.0
11
-0.029500
21
-0.076675
31
0.0
0
LINE
8
0
6
CONTINUOUS
10
-0.029500
20
0.005904
30
0.0
11
-0.029500
21
0.000192
31
0.0
0
LINE
8
0
6
CONTINUOUS
10
-0.029500
20
0.011227
30
0.0
11
-0.029500
21
0.005904
31
0.0
0
LINE
8
0
6
CONTINUOUS
10
-0.029500
20
0.015797
30
0.0
11
-0.029500
21
0.011227
31
0.0
0
LINE
8
0
6
CONTINUOUS
10
-0.029500
20
0.019304
30
0.0
11
-0.029500
21
0.015797
31
0.0
0
LINE
8
0
6
CONTINUOUS
10
-0.029500
20
0.021509
30
0.0
11
-0.029500
21
0.019304
31
0.0
0
LINE
8
0
6
CONTINUOUS
10
-0.029500
20
0.022261
30
0.0
11
-0.029500
21
0.021509
31
0.0
0
LINE
8
0
6
CONTINUOUS
10
-0.028949
20
0.022261
30
0.0
11
-0.029500
21
0.022261
31
0.0
0
LINE
8
0
6
CONTINUOUS
10
-0.024356
20
0.022261
30
0.0
11
-0.028949
21
0.022261
31
0.0
0
LINE
8
0
6
CONTINUOUS
10
-0.028949
20
-0.077750
30
0.0
11
-0.027681
21
-0.077750
31
0.0
0
LINE
8
0
6
CONTINUOUS
10
-0.026384
20
-0.073200
30
0.0
11
-0.028949
21
-0.073709
31
0.0
0
LINE
8
0
6
CONTINUOUS
10
-0.017203
20
-0.026357
30
0.0
11
-0.014406
21
-0.023923
31
0.0
0
LINE
8
0
6
CONTINUOUS
10
-0.016272
20
0.022261
30
0.0
11
-0.018925
21
0.022261
31
0.0
0
LINE
8
0
6
CONTINUOUS
10
-0.026384
20
-0.073200
30
0.0
11
-0.027172
21
-0.076183
31
0.0
0
LINE
8
0
6
CONTINUOUS
10
-0.026212
20
-0.075376
30
0.0
11
-0.025214
21
-0.072525
31
0.0
0
LINE
8
0
6
CONTINUOUS
10
-0.022649
20
-0.027646
30
0.0
11
-0.022453
21
-0.013619
31
0.0
0
LINE
8
0
6
CONTINUOUS
10
-0.010965
20
0.022261
30
0.0
11
-0.013618
21
0.022261
31
0.0
0
LINE
8
0
6
CONTINUOUS
10
-0.013618
20
0.022261
30
0.0
11
-0.016272
21
0.022261
31
0.0
0
LINE
8
0
6
CONTINUOUS
10
-0.018925
20
0.022261
30
0.0
11
-0.020914
21
0.022261
31
0.0
0
LINE
8
0
6
CONTINUOUS
10
-0.020914
20
0.022261
30
0.0
11
-0.022190
21
0.022261
31
0.0
0
LINE
8
0
6
CONTINUOUS
10
-0.022190
20
0.022261
30
0.0
11
-0.024356
21
0.022261
31
0.0
0
LINE
8
0
6
CONTINUOUS
10
-0.025572
20
-0.065717
30
0.0
11
-0.026384
21
-0.073200
31
0.0
0
LINE
8
0
6
CONTINUOUS
10
-0.027681
20
-0.077750
30
0.0
11
-0.026407
21
-0.076284
31
0.0
0
LINE
8
0
6
CONTINUOUS
10
-0.026407
20
-0.076284
30
0.0
11
-0.024907
21
-0.073321
31
0.0
0
LINE
8
0
6
CONTINUOUS
10
-0.024907
20
-0.073321
30
0.0
11
-0.023617
21
-0.068239
31
0.0
0
LINE
8
0
6
CONTINUOUS
10
-0.024980
20
-0.045613
30
0.0
11
-0.022649
21
-0.027646
31
0.0
0
LINE
8
0
6
CONTINUOUS
10
-0.020806
20
-0.042588
30
0.0
11
-0.018925
21
-0.029673
31
0.0
0
LINE
8
0
6
CONTINUOUS
10
-0.020868
20
-0.030431
30
0.0
11
-0.018925
21
-0.014754
31
0.0
0
LINE
8
0
6
CONTINUOUS
10
-0.020821
20
-0.020974
30
0.0
11
-0.018925
21
-0.007557
31
0.0
0
LINE
8
0
6
CONTINUOUS
10
-0.018925
20
-0.029673
30
0.0
11
-0.017203
21
-0.026357
31
0.0
0
LINE
8
0
6
CONTINUOUS
10
-0.014406
20
-0.023923
30
0.0
11
-0.010965
21
-0.022474
31
0.0
0
LINE
8
0
6
CONTINUOUS
10
-0.017177
20
-0.025419
30
0.0
11
-0.017095
21
-0.022677
31
0.0
0
LINE
8
0
6
CONTINUOUS
10
-0.018925
20
-0.025675
30
0.0
11
-0.018925
21
-0.028656
31
0.0
0
LINE
8
0
6
CONTINUOUS
10
-0.017095
20
-0.022677
30
0.0
11
-0.016940
21
-0.018342
31
0.0
0
LINE
8
0
6
CONTINUOUS
10
-0.018925
20
-0.020933
30
0.0
11
-0.018925
21
-0.025675
31
0.0
0
LINE
8
0
6
CONTINUOUS
10
-0.016940
20
-0.018342
30
0.0
11
-0.016699
21
-0.012769
31
0.0
0
LINE
8
0
6
CONTINUOUS
10
-0.018925
20
-0.014754
30
0.0
11
-0.018925
21
-0.020933
31
0.0
0
LINE
8
0
6
CONTINUOUS
10
-0.018925
20
-0.007557
30
0.0
11
-0.018925
21
-0.014754
31
0.0
0
LINE
8
0
6
CONTINUOUS
10
-0.010965
20
-0.022474
30
0.0
11
-0.006430
21
-0.021877
31
0.0
0
LINE
8
0
6
CONTINUOUS
10
-0.020868
20
-0.030431
30
0.0
11
-0.020821
21
-0.020974
31
0.0
0
LINE
8
0
6
CONTINUOUS
10
-0.022832
20
-0.044454
30
0.0
11
-0.020821
21
-0.020974
31
0.0
0
LINE
8
0
6
CONTINUOUS
10
-0.022431
20
-0.058823
30
0.0
11
-0.020806
21
-0.042588
31
0.0
0
LINE
8
0
6
CONTINUOUS
10
-0.023617
20
-0.068314
30
0.0
11
-0.022431
21
-0.058823
31
0.0
0
LINE
8
0
6
CONTINUOUS
10
-0.024980
20
-0.045613
30
0.0
11
-0.025572
21
-0.065717
31
0.0
0
LINE
8
0
6
CONTINUOUS
10
-0.024063
20
-0.064451
30
0.0
11
-0.022832
21
-0.044454
31
0.0
0
LINE
8
0
6
CONTINUOUS
10
-0.027172
20
-0.076183
30
0.0
11
-0.027681
21
-0.077750
31
0.0
0
LINE
8
0
6
CONTINUOUS
10
-0.027681
20
-0.077750
30
0.0
11
-0.026375
21
-0.076154
31
0.0
0
LINE
8
0
6
CONTINUOUS
10
-0.006430
20
0.022261
30
0.0
11
-0.010965
21
0.022261
31
0.0
0
LINE
8
0
6
CONTINUOUS
10
0.005953
20
0.022261
30
0.0
11
-0.006430
21
0.022261
31
0.0
0
ENDSEC
0
EOF
