999
Erzeugt mit innoplus bad 
0
SECTION
2
HEADER
9
$ACADVER
1
AC1009
9
$DWGCODEPAGE
3
ISO8859-1
0
ENDSEC
0
SECTION
2
TABLES
0
TABLE
2
LAYER
70
1
0
LAYER
2
0
70
0
62
7
6
CONTINUOUS
0
ENDTAB
0
ENDSEC
0
SECTION
2
ENTITIES
0
LINE
8
0
6
CONTINUOUS
10
0.013506
20
-0.074016
30
0.0
11
0.015306
21
-0.074728
31
0.0
0
LINE
8
0
6
CONTINUOUS
10
0.004406
20
-0.081512
30
0.0
11
0.004106
21
-0.079526
31
0.0
0
LINE
8
0
6
CONTINUOUS
10
0.011606
20
-0.083787
30
0.0
11
0.009706
21
-0.083761
31
0.0
0
LINE
8
0
6
CONTINUOUS
10
0.007906
20
-0.074728
30
0.0
11
0.009706
21
-0.074016
31
0.0
0
LINE
8
0
6
CONTINUOUS
10
0.016906
20
-0.075777
30
0.0
11
0.018106
21
-0.076977
31
0.0
0
LINE
8
0
6
CONTINUOUS
10
0.011606
20
-0.073787
30
0.0
11
0.013506
21
-0.074016
31
0.0
0
LINE
8
0
6
CONTINUOUS
10
0.005106
20
-0.082637
30
0.0
11
0.004406
21
-0.081512
31
0.0
0
LINE
8
0
6
CONTINUOUS
10
0.004106
20
-0.079526
30
0.0
11
0.004406
21
-0.078176
31
0.0
0
LINE
8
0
6
CONTINUOUS
10
0.004106
20
-0.023788
30
0.0
11
0.004106
21
-0.079526
31
0.0
0
LINE
8
0
6
CONTINUOUS
10
0.009706
20
-0.074016
30
0.0
11
0.011606
21
-0.073787
31
0.0
0
LINE
8
0
6
CONTINUOUS
10
0.009706
20
-0.083761
30
0.0
11
0.007906
21
-0.083686
31
0.0
0
LINE
8
0
6
CONTINUOUS
10
0.007906
20
-0.083686
30
0.0
11
0.006306
21
-0.083311
31
0.0
0
LINE
8
0
6
CONTINUOUS
10
0.018806
20
-0.078176
30
0.0
11
0.019106
21
-0.079526
31
0.0
0
LINE
8
0
6
CONTINUOUS
10
0.006306
20
-0.075777
30
0.0
11
0.007906
21
-0.074728
31
0.0
0
LINE
8
0
6
CONTINUOUS
10
0.018806
20
-0.081512
30
0.0
11
0.018106
21
-0.082637
31
0.0
0
LINE
8
0
6
CONTINUOUS
10
0.019106
20
-0.079526
30
0.0
11
0.018806
21
-0.081512
31
0.0
0
LINE
8
0
6
CONTINUOUS
10
0.019106
20
-0.023788
30
0.0
11
0.019106
21
-0.079526
31
0.0
0
LINE
8
0
6
CONTINUOUS
10
0.006306
20
-0.083311
30
0.0
11
0.005106
21
-0.082637
31
0.0
0
LINE
8
0
6
CONTINUOUS
10
0.005106
20
-0.076977
30
0.0
11
0.006306
21
-0.075777
31
0.0
0
LINE
8
0
6
CONTINUOUS
10
0.004406
20
-0.078176
30
0.0
11
0.005106
21
-0.076977
31
0.0
0
LINE
8
0
6
CONTINUOUS
10
0.015306
20
-0.083686
30
0.0
11
0.013506
21
-0.083761
31
0.0
0
LINE
8
0
6
CONTINUOUS
10
0.018106
20
-0.076977
30
0.0
11
0.018806
21
-0.078176
31
0.0
0
LINE
8
0
6
CONTINUOUS
10
0.015306
20
-0.074728
30
0.0
11
0.016906
21
-0.075777
31
0.0
0
LINE
8
0
6
CONTINUOUS
10
0.013506
20
-0.083761
30
0.0
11
0.011606
21
-0.083787
31
0.0
0
LINE
8
0
6
CONTINUOUS
10
0.016906
20
-0.083311
30
0.0
11
0.015306
21
-0.083686
31
0.0
0
LINE
8
0
6
CONTINUOUS
10
0.018106
20
-0.082637
30
0.0
11
0.016906
21
-0.083311
31
0.0
0
LINE
8
0
6
CONTINUOUS
10
0.006406
20
-0.023788
30
0.0
11
0.004206
21
-0.023788
31
0.0
0
LINE
8
0
6
CONTINUOUS
10
0.004206
20
-0.023788
30
0.0
11
0.002506
21
-0.023788
31
0.0
0
LINE
8
0
6
CONTINUOUS
10
0.001506
20
-0.023788
30
0.0
11
0.001106
21
-0.023788
31
0.0
0
LINE
8
0
6
CONTINUOUS
10
0.002506
20
-0.023788
30
0.0
11
0.001506
21
-0.023788
31
0.0
0
LINE
8
0
6
CONTINUOUS
10
0.011606
20
-0.023788
30
0.0
11
0.008906
21
-0.023788
31
0.0
0
LINE
8
0
6
CONTINUOUS
10
0.008906
20
-0.023788
30
0.0
11
0.006406
21
-0.023788
31
0.0
0
LINE
8
0
6
CONTINUOUS
10
0.019006
20
-0.023788
30
0.0
11
0.020706
21
-0.023788
31
0.0
0
LINE
8
0
6
CONTINUOUS
10
0.001106
20
-0.023788
30
0.0
11
0.001086
21
-0.023205
31
0.0
0
LINE
8
0
6
CONTINUOUS
10
0.011606
20
-0.023788
30
0.0
11
0.014306
21
-0.023788
31
0.0
0
LINE
8
0
6
CONTINUOUS
10
0.016806
20
-0.023788
30
0.0
11
0.019006
21
-0.023788
31
0.0
0
LINE
8
0
6
CONTINUOUS
10
0.022106
20
-0.023788
30
0.0
11
0.022125
21
-0.023205
31
0.0
0
LINE
8
0
6
CONTINUOUS
10
0.021706
20
-0.023788
30
0.0
11
0.022106
21
-0.023788
31
0.0
0
LINE
8
0
6
CONTINUOUS
10
0.014306
20
-0.023788
30
0.0
11
0.016806
21
-0.023788
31
0.0
0
LINE
8
0
6
CONTINUOUS
10
0.020706
20
-0.023788
30
0.0
11
0.021706
21
-0.023788
31
0.0
0
LINE
8
0
6
CONTINUOUS
10
0.022706
20
0.006212
30
0.0
11
0.023106
21
0.006212
31
0.0
0
LINE
8
0
6
CONTINUOUS
10
0.017306
20
0.006212
30
0.0
11
0.019706
21
0.006212
31
0.0
0
LINE
8
0
6
CONTINUOUS
10
0.021606
20
0.006212
30
0.0
11
0.022706
21
0.006212
31
0.0
0
LINE
8
0
6
CONTINUOUS
10
0.019706
20
0.006212
30
0.0
11
0.021606
21
0.006212
31
0.0
0
LINE
8
0
6
CONTINUOUS
10
0.011606
20
0.006212
30
0.0
11
0.014606
21
0.006212
31
0.0
0
LINE
8
0
6
CONTINUOUS
10
0.014606
20
0.006212
30
0.0
11
0.017306
21
0.006212
31
0.0
0
LINE
8
0
6
CONTINUOUS
10
0.000506
20
0.006212
30
0.0
11
0.000106
21
0.006212
31
0.0
0
LINE
8
0
6
CONTINUOUS
10
0.001086
20
-0.023205
30
0.0
11
0.000121
21
0.005765
31
0.0
0
LINE
8
0
6
CONTINUOUS
10
0.022125
20
-0.023205
30
0.0
11
0.023091
21
0.005765
31
0.0
0
LINE
8
0
6
CONTINUOUS
10
0.008606
20
0.006212
30
0.0
11
0.005906
21
0.006212
31
0.0
0
LINE
8
0
6
CONTINUOUS
10
0.011606
20
0.006212
30
0.0
11
0.008606
21
0.006212
31
0.0
0
LINE
8
0
6
CONTINUOUS
10
0.000506
20
0.006212
30
0.0
11
0.000106
21
0.006212
31
0.0
0
LINE
8
0
6
CONTINUOUS
10
0.000106
20
0.006212
30
0.0
11
0.000121
21
0.005765
31
0.0
0
LINE
8
0
6
CONTINUOUS
10
0.022706
20
0.006212
30
0.0
11
0.023106
21
0.006212
31
0.0
0
LINE
8
0
6
CONTINUOUS
10
0.023106
20
0.006212
30
0.0
11
0.023091
21
0.005765
31
0.0
0
LINE
8
0
6
CONTINUOUS
10
0.005906
20
0.006212
30
0.0
11
0.003506
21
0.006212
31
0.0
0
LINE
8
0
6
CONTINUOUS
10
0.001606
20
0.006212
30
0.0
11
0.000506
21
0.006212
31
0.0
0
LINE
8
0
6
CONTINUOUS
10
0.003506
20
0.006212
30
0.0
11
0.001606
21
0.006212
31
0.0
0
LINE
8
0
6
CONTINUOUS
10
0.014386
20
0.065287
30
0.0
11
0.010772
21
0.065287
31
0.0
0
LINE
8
0
6
CONTINUOUS
10
0.010772
20
0.031287
30
0.0
11
0.014386
21
0.031287
31
0.0
0
LINE
8
0
6
CONTINUOUS
10
0.008946
20
0.007388
30
0.0
11
0.011589
21
0.007388
31
0.0
0
LINE
8
0
6
CONTINUOUS
10
0.023416
20
0.019868
30
0.0
11
0.023416
21
0.021874
31
0.0
0
LINE
8
0
6
CONTINUOUS
10
0.022807
20
0.018713
30
0.0
11
0.023416
21
0.021874
31
0.0
0
LINE
8
0
6
CONTINUOUS
10
0.023416
20
0.017204
30
0.0
11
0.023416
21
0.018204
31
0.0
0
LINE
8
0
6
CONTINUOUS
10
-0.001872
20
0.019868
30
0.0
11
-0.001872
21
0.018204
31
0.0
0
LINE
8
0
6
CONTINUOUS
10
0.022807
20
0.018713
30
0.0
11
0.021614
21
0.021874
31
0.0
0
LINE
8
0
6
CONTINUOUS
10
-0.001872
20
0.024360
30
0.0
11
-0.001872
21
0.021874
31
0.0
0
LINE
8
0
6
CONTINUOUS
10
0.023416
20
0.021874
30
0.0
11
0.023416
21
0.024360
31
0.0
0
LINE
8
0
6
CONTINUOUS
10
-0.001872
20
0.021874
30
0.0
11
-0.001872
21
0.019868
31
0.0
0
LINE
8
0
6
CONTINUOUS
10
-0.000071
20
0.021874
30
0.0
11
-0.001872
21
0.019868
31
0.0
0
LINE
8
0
6
CONTINUOUS
10
-0.001872
20
0.019868
30
0.0
11
-0.000676
21
0.018217
31
0.0
0
LINE
8
0
6
CONTINUOUS
10
0.003200
20
0.011613
30
0.0
11
-0.000676
21
0.018217
31
0.0
0
LINE
8
0
6
CONTINUOUS
10
0.008525
20
0.011613
30
0.0
11
0.011589
21
0.011613
31
0.0
0
LINE
8
0
6
CONTINUOUS
10
0.023463
20
0.011613
30
0.0
11
0.023450
21
0.015780
31
0.0
0
LINE
8
0
6
CONTINUOUS
10
-0.001580
20
0.015780
30
0.0
11
-0.000286
21
0.011613
31
0.0
0
LINE
8
0
6
CONTINUOUS
10
-0.000071
20
0.021874
30
0.0
11
0.007510
21
0.021811
31
0.0
0
LINE
8
0
6
CONTINUOUS
10
-0.001872
20
0.026910
30
0.0
11
-0.001872
21
0.024360
31
0.0
0
LINE
8
0
6
CONTINUOUS
10
0.010772
20
0.065287
30
0.0
11
0.007158
21
0.065287
31
0.0
0
LINE
8
0
6
CONTINUOUS
10
0.021614
20
0.065287
30
0.0
11
0.014386
21
0.065287
31
0.0
0
LINE
8
0
6
CONTINUOUS
10
0.007158
20
0.031287
30
0.0
11
0.010772
21
0.031287
31
0.0
0
LINE
8
0
6
CONTINUOUS
10
0.014386
20
0.031287
30
0.0
11
0.021614
21
0.031287
31
0.0
0
LINE
8
0
6
CONTINUOUS
10
0.023416
20
0.024360
30
0.0
11
0.023416
21
0.026910
31
0.0
0
LINE
8
0
6
CONTINUOUS
10
0.003393
20
0.007388
30
0.0
11
0.005970
21
0.007388
31
0.0
0
LINE
8
0
6
CONTINUOUS
10
0.005661
20
0.011613
30
0.0
11
0.003200
21
0.011613
31
0.0
0
LINE
8
0
6
CONTINUOUS
10
0.014655
20
0.007388
30
0.0
11
0.017515
21
0.007388
31
0.0
0
LINE
8
0
6
CONTINUOUS
10
-0.001872
20
0.018204
30
0.0
11
-0.001872
21
0.017204
31
0.0
0
LINE
8
0
6
CONTINUOUS
10
0.023416
20
0.018204
30
0.0
11
0.023416
21
0.019868
31
0.0
0
LINE
8
0
6
CONTINUOUS
10
0.023416
20
0.026910
30
0.0
11
0.023416
21
0.028999
31
0.0
0
LINE
8
0
6
CONTINUOUS
10
0.023416
20
0.028999
30
0.0
11
0.023416
21
0.030533
31
0.0
0
LINE
8
0
6
CONTINUOUS
10
0.023416
20
0.030533
30
0.0
11
0.023416
21
0.031287
31
0.0
0
LINE
8
0
6
CONTINUOUS
10
0.001285
20
0.011613
30
0.0
11
-0.001009
21
0.016885
31
0.0
0
LINE
8
0
6
CONTINUOUS
10
0.022807
20
0.018713
30
0.0
11
0.021904
21
0.011613
31
0.0
0
LINE
8
0
6
CONTINUOUS
10
-0.001872
20
0.028999
30
0.0
11
-0.001872
21
0.026910
31
0.0
0
LINE
8
0
6
CONTINUOUS
10
-0.001872
20
0.030533
30
0.0
11
-0.001872
21
0.028999
31
0.0
0
LINE
8
0
6
CONTINUOUS
10
-0.001872
20
0.031287
30
0.0
11
-0.001872
21
0.030533
31
0.0
0
LINE
8
0
6
CONTINUOUS
10
-0.001872
20
0.043401
30
0.0
11
-0.001872
21
0.038531
31
0.0
0
LINE
8
0
6
CONTINUOUS
10
0.023416
20
0.038531
30
0.0
11
0.023416
21
0.043401
31
0.0
0
LINE
8
0
6
CONTINUOUS
10
-0.001872
20
0.031287
30
0.0
11
-0.000071
21
0.031287
31
0.0
0
LINE
8
0
6
CONTINUOUS
10
-0.001872
20
0.032162
30
0.0
11
-0.001872
21
0.031287
31
0.0
0
LINE
8
0
6
CONTINUOUS
10
-0.001872
20
0.062135
30
0.0
11
-0.001872
21
0.058483
31
0.0
0
LINE
8
0
6
CONTINUOUS
10
-0.001872
20
0.065287
30
0.0
11
-0.001872
21
0.064479
31
0.0
0
LINE
8
0
6
CONTINUOUS
10
-0.000071
20
0.065287
30
0.0
11
-0.001872
21
0.065287
31
0.0
0
LINE
8
0
6
CONTINUOUS
10
-0.001872
20
0.048742
30
0.0
11
-0.001872
21
0.043401
31
0.0
0
LINE
8
0
6
CONTINUOUS
10
-0.001872
20
0.034661
30
0.0
11
-0.001872
21
0.032162
31
0.0
0
LINE
8
0
6
CONTINUOUS
10
-0.001872
20
0.064479
30
0.0
11
-0.001872
21
0.062135
31
0.0
0
LINE
8
0
6
CONTINUOUS
10
-0.001872
20
0.058483
30
0.0
11
-0.001872
21
0.053862
31
0.0
0
LINE
8
0
6
CONTINUOUS
10
-0.001872
20
0.053862
30
0.0
11
-0.001872
21
0.048742
31
0.0
0
LINE
8
0
6
CONTINUOUS
10
-0.001872
20
0.038531
30
0.0
11
-0.001872
21
0.034661
31
0.0
0
LINE
8
0
6
CONTINUOUS
10
0.023416
20
0.031287
30
0.0
11
0.023416
21
0.032162
31
0.0
0
LINE
8
0
6
CONTINUOUS
10
0.021614
20
0.031287
30
0.0
11
0.023416
21
0.031287
31
0.0
0
LINE
8
0
6
CONTINUOUS
10
0.023416
20
0.058483
30
0.0
11
0.023416
21
0.062135
31
0.0
0
LINE
8
0
6
CONTINUOUS
10
0.023416
20
0.065287
30
0.0
11
0.021614
21
0.065287
31
0.0
0
LINE
8
0
6
CONTINUOUS
10
0.023416
20
0.064479
30
0.0
11
0.023416
21
0.065287
31
0.0
0
LINE
8
0
6
CONTINUOUS
10
0.023416
20
0.043401
30
0.0
11
0.023416
21
0.048742
31
0.0
0
LINE
8
0
6
CONTINUOUS
10
0.023416
20
0.032162
30
0.0
11
0.023416
21
0.034661
31
0.0
0
LINE
8
0
6
CONTINUOUS
10
0.023416
20
0.062135
30
0.0
11
0.023416
21
0.064479
31
0.0
0
LINE
8
0
6
CONTINUOUS
10
0.023416
20
0.053862
30
0.0
11
0.023416
21
0.058483
31
0.0
0
LINE
8
0
6
CONTINUOUS
10
0.023416
20
0.048742
30
0.0
11
0.023416
21
0.053862
31
0.0
0
LINE
8
0
6
CONTINUOUS
10
0.023416
20
0.034661
30
0.0
11
0.023416
21
0.038531
31
0.0
0
LINE
8
0
6
CONTINUOUS
10
0.007158
20
0.065287
30
0.0
11
-0.000071
21
0.065287
31
0.0
0
LINE
8
0
6
CONTINUOUS
10
-0.000071
20
0.031287
30
0.0
11
0.007158
21
0.031287
31
0.0
0
LINE
8
0
6
CONTINUOUS
10
0.019973
20
0.007388
30
0.0
11
0.021904
21
0.007388
31
0.0
0
LINE
8
0
6
CONTINUOUS
10
0.021904
20
0.011613
30
0.0
11
0.019973
21
0.011613
31
0.0
0
LINE
8
0
6
CONTINUOUS
10
0.000286
20
0.007388
30
0.0
11
0.001364
21
0.007388
31
0.0
0
LINE
8
0
6
CONTINUOUS
10
0.023450
20
0.015780
30
0.0
11
0.023416
21
0.017204
31
0.0
0
LINE
8
0
6
CONTINUOUS
10
-0.001872
20
0.016821
30
0.0
11
-0.001580
21
0.015780
31
0.0
0
LINE
8
0
6
CONTINUOUS
10
-0.001872
20
0.017204
30
0.0
11
-0.001872
21
0.016821
31
0.0
0
LINE
8
0
6
CONTINUOUS
10
0.005970
20
0.007388
30
0.0
11
0.008946
21
0.007388
31
0.0
0
LINE
8
0
6
CONTINUOUS
10
0.001364
20
0.007388
30
0.0
11
0.003393
21
0.007388
31
0.0
0
LINE
8
0
6
CONTINUOUS
10
0.017515
20
0.007388
30
0.0
11
0.019973
21
0.007388
31
0.0
0
LINE
8
0
6
CONTINUOUS
10
0.023463
20
0.007388
30
0.0
11
0.023463
21
0.007859
31
0.0
0
LINE
8
0
6
CONTINUOUS
10
0.022912
20
0.007388
30
0.0
11
0.023463
21
0.007388
31
0.0
0
LINE
8
0
6
CONTINUOUS
10
0.011589
20
0.007388
30
0.0
11
0.014655
21
0.007388
31
0.0
0
LINE
8
0
6
CONTINUOUS
10
-0.000286
20
0.007859
30
0.0
11
-0.000286
21
0.007388
31
0.0
0
LINE
8
0
6
CONTINUOUS
10
-0.000286
20
0.007388
30
0.0
11
0.000286
21
0.007388
31
0.0
0
LINE
8
0
6
CONTINUOUS
10
0.021904
20
0.007388
30
0.0
11
0.022912
21
0.007388
31
0.0
0
LINE
8
0
6
CONTINUOUS
10
0.008525
20
0.011613
30
0.0
11
0.005661
21
0.011613
31
0.0
0
LINE
8
0
6
CONTINUOUS
10
0.003200
20
0.011613
30
0.0
11
0.001285
21
0.011613
31
0.0
0
LINE
8
0
6
CONTINUOUS
10
0.019973
20
0.011613
30
0.0
11
0.017515
21
0.011613
31
0.0
0
LINE
8
0
6
CONTINUOUS
10
0.023463
20
0.007859
30
0.0
11
0.023463
21
0.011613
31
0.0
0
LINE
8
0
6
CONTINUOUS
10
-0.000286
20
0.011613
30
0.0
11
-0.000286
21
0.007859
31
0.0
0
LINE
8
0
6
CONTINUOUS
10
-0.030685
20
0.021280
30
0.0
11
-0.027108
21
0.020904
31
0.0
0
LINE
8
0
6
CONTINUOUS
10
-0.027108
20
0.061911
30
0.0
11
-0.030685
21
0.061535
31
0.0
0
LINE
8
0
6
CONTINUOUS
10
-0.027108
20
0.020904
30
0.0
11
-0.001872
21
0.020904
31
0.0
0
LINE
8
0
6
CONTINUOUS
10
-0.001872
20
0.061911
30
0.0
11
-0.027108
21
0.061911
31
0.0
0
LINE
8
0
6
CONTINUOUS
10
-0.030912
20
0.041017
30
0.0
11
-0.030912
21
0.046711
31
0.0
0
LINE
8
0
6
CONTINUOUS
10
-0.030912
20
0.056613
30
0.0
11
-0.030912
21
0.060122
31
0.0
0
LINE
8
0
6
CONTINUOUS
10
-0.030912
20
0.052038
30
0.0
11
-0.030912
21
0.056613
31
0.0
0
LINE
8
0
6
CONTINUOUS
10
-0.030912
20
0.046711
30
0.0
11
-0.030912
21
0.052038
31
0.0
0
LINE
8
0
6
CONTINUOUS
10
-0.030912
20
0.060122
30
0.0
11
-0.030912
21
0.062326
31
0.0
0
LINE
8
0
6
CONTINUOUS
10
-0.030912
20
0.063076
30
0.0
11
-0.031462
21
0.063076
31
0.0
0
LINE
8
0
6
CONTINUOUS
10
-0.030912
20
0.062326
30
0.0
11
-0.030912
21
0.063076
31
0.0
0
LINE
8
0
6
CONTINUOUS
10
-0.030912
20
0.035295
30
0.0
11
-0.030912
21
0.041017
31
0.0
0
LINE
8
0
6
CONTINUOUS
10
-0.030912
20
0.029973
30
0.0
11
-0.030912
21
0.035295
31
0.0
0
LINE
8
0
6
CONTINUOUS
10
-0.030912
20
0.025402
30
0.0
11
-0.030912
21
0.029973
31
0.0
0
LINE
8
0
6
CONTINUOUS
10
-0.030912
20
0.021895
30
0.0
11
-0.030912
21
0.025402
31
0.0
0
LINE
8
0
6
CONTINUOUS
10
-0.030912
20
0.019690
30
0.0
11
-0.030912
21
0.021895
31
0.0
0
LINE
8
0
6
CONTINUOUS
10
-0.030912
20
0.018938
30
0.0
11
-0.030912
21
0.019690
31
0.0
0
LINE
8
0
6
CONTINUOUS
10
-0.031462
20
0.018938
30
0.0
11
-0.030912
21
0.018938
31
0.0
0
LINE
8
0
6
CONTINUOUS
10
-0.043846
20
0.018938
30
0.0
11
-0.031462
21
0.018938
31
0.0
0
LINE
8
0
6
CONTINUOUS
10
-0.066916
20
0.025308
30
0.0
11
-0.066916
21
0.009609
31
0.0
0
LINE
8
0
6
CONTINUOUS
10
-0.066916
20
-0.028753
30
0.0
11
-0.066916
21
-0.032894
31
0.0
0
LINE
8
0
6
CONTINUOUS
10
-0.066916
20
0.009609
30
0.0
11
-0.066916
21
-0.002824
31
0.0
0
LINE
8
0
6
CONTINUOUS
10
-0.066916
20
-0.002824
30
0.0
11
-0.066916
21
-0.028753
31
0.0
0
LINE
8
0
6
CONTINUOUS
10
-0.066916
20
0.041007
30
0.0
11
-0.066916
21
0.025308
31
0.0
0
LINE
8
0
6
CONTINUOUS
10
-0.066916
20
-0.032894
30
0.0
11
-0.066916
21
-0.035860
31
0.0
0
LINE
8
0
6
CONTINUOUS
10
-0.066365
20
-0.032894
30
0.0
11
-0.066916
21
-0.032894
31
0.0
0
LINE
8
0
6
CONTINUOUS
10
-0.066916
20
-0.036935
30
0.0
11
-0.066365
21
-0.036935
31
0.0
0
LINE
8
0
6
CONTINUOUS
10
-0.066916
20
-0.035860
30
0.0
11
-0.066916
21
-0.036935
31
0.0
0
LINE
8
0
6
CONTINUOUS
10
-0.066365
20
-0.035860
30
0.0
11
-0.066916
21
-0.035860
31
0.0
0
LINE
8
0
6
CONTINUOUS
10
-0.066916
20
0.046719
30
0.0
11
-0.066916
21
0.041007
31
0.0
0
LINE
8
0
6
CONTINUOUS
10
-0.066916
20
0.052042
30
0.0
11
-0.066916
21
0.046719
31
0.0
0
LINE
8
0
6
CONTINUOUS
10
-0.066916
20
0.056612
30
0.0
11
-0.066916
21
0.052042
31
0.0
0
LINE
8
0
6
CONTINUOUS
10
-0.066916
20
0.060120
30
0.0
11
-0.066916
21
0.056612
31
0.0
0
LINE
8
0
6
CONTINUOUS
10
-0.066916
20
0.062324
30
0.0
11
-0.066916
21
0.060120
31
0.0
0
LINE
8
0
6
CONTINUOUS
10
-0.066916
20
0.063076
30
0.0
11
-0.066916
21
0.062324
31
0.0
0
LINE
8
0
6
CONTINUOUS
10
-0.066365
20
0.063076
30
0.0
11
-0.066916
21
0.063076
31
0.0
0
LINE
8
0
6
CONTINUOUS
10
-0.061772
20
0.063076
30
0.0
11
-0.066365
21
0.063076
31
0.0
0
LINE
8
0
6
CONTINUOUS
10
-0.066365
20
-0.036935
30
0.0
11
-0.065097
21
-0.036935
31
0.0
0
LINE
8
0
6
CONTINUOUS
10
-0.063799
20
-0.032385
30
0.0
11
-0.066365
21
-0.032894
31
0.0
0
LINE
8
0
6
CONTINUOUS
10
-0.054619
20
0.014458
30
0.0
11
-0.051822
21
0.016892
31
0.0
0
LINE
8
0
6
CONTINUOUS
10
-0.053687
20
0.063076
30
0.0
11
-0.056340
21
0.063076
31
0.0
0
LINE
8
0
6
CONTINUOUS
10
-0.063799
20
-0.032385
30
0.0
11
-0.064588
21
-0.035368
31
0.0
0
LINE
8
0
6
CONTINUOUS
10
-0.063628
20
-0.034560
30
0.0
11
-0.062630
21
-0.031710
31
0.0
0
LINE
8
0
6
CONTINUOUS
10
-0.060065
20
0.013170
30
0.0
11
-0.059869
21
0.027196
31
0.0
0
LINE
8
0
6
CONTINUOUS
10
-0.048381
20
0.063076
30
0.0
11
-0.051034
21
0.063076
31
0.0
0
LINE
8
0
6
CONTINUOUS
10
-0.051034
20
0.063076
30
0.0
11
-0.053687
21
0.063076
31
0.0
0
LINE
8
0
6
CONTINUOUS
10
-0.056340
20
0.063076
30
0.0
11
-0.058330
21
0.063076
31
0.0
0
LINE
8
0
6
CONTINUOUS
10
-0.058330
20
0.063076
30
0.0
11
-0.059606
21
0.063076
31
0.0
0
LINE
8
0
6
CONTINUOUS
10
-0.059606
20
0.063076
30
0.0
11
-0.061772
21
0.063076
31
0.0
0
LINE
8
0
6
CONTINUOUS
10
-0.062987
20
-0.024902
30
0.0
11
-0.063799
21
-0.032385
31
0.0
0
LINE
8
0
6
CONTINUOUS
10
-0.065097
20
-0.036935
30
0.0
11
-0.063823
21
-0.035469
31
0.0
0
LINE
8
0
6
CONTINUOUS
10
-0.063823
20
-0.035469
30
0.0
11
-0.062323
21
-0.032506
31
0.0
0
LINE
8
0
6
CONTINUOUS
10
-0.062323
20
-0.032506
30
0.0
11
-0.061033
21
-0.027424
31
0.0
0
LINE
8
0
6
CONTINUOUS
10
-0.062396
20
-0.004798
30
0.0
11
-0.060065
21
0.013170
31
0.0
0
LINE
8
0
6
CONTINUOUS
10
-0.058222
20
-0.001773
30
0.0
11
-0.056340
21
0.011142
31
0.0
0
LINE
8
0
6
CONTINUOUS
10
-0.058284
20
0.010384
30
0.0
11
-0.056340
21
0.026062
31
0.0
0
LINE
8
0
6
CONTINUOUS
10
-0.058237
20
0.019842
30
0.0
11
-0.056340
21
0.033258
31
0.0
0
LINE
8
0
6
CONTINUOUS
10
-0.056340
20
0.011142
30
0.0
11
-0.054619
21
0.014458
31
0.0
0
LINE
8
0
6
CONTINUOUS
10
-0.051822
20
0.016892
30
0.0
11
-0.048381
21
0.018341
31
0.0
0
LINE
8
0
6
CONTINUOUS
10
-0.054593
20
0.015396
30
0.0
11
-0.054510
21
0.018138
31
0.0
0
LINE
8
0
6
CONTINUOUS
10
-0.056340
20
0.015140
30
0.0
11
-0.056340
21
0.012159
31
0.0
0
LINE
8
0
6
CONTINUOUS
10
-0.054510
20
0.018138
30
0.0
11
-0.054355
21
0.022473
31
0.0
0
LINE
8
0
6
CONTINUOUS
10
-0.056340
20
0.019882
30
0.0
11
-0.056340
21
0.015140
31
0.0
0
LINE
8
0
6
CONTINUOUS
10
-0.054355
20
0.022473
30
0.0
11
-0.054115
21
0.028046
31
0.0
0
LINE
8
0
6
CONTINUOUS
10
-0.056340
20
0.026062
30
0.0
11
-0.056340
21
0.019882
31
0.0
0
LINE
8
0
6
CONTINUOUS
10
-0.056340
20
0.033258
30
0.0
11
-0.056340
21
0.026062
31
0.0
0
LINE
8
0
6
CONTINUOUS
10
-0.048381
20
0.018341
30
0.0
11
-0.043846
21
0.018938
31
0.0
0
LINE
8
0
6
CONTINUOUS
10
-0.058284
20
0.010384
30
0.0
11
-0.058237
21
0.019842
31
0.0
0
LINE
8
0
6
CONTINUOUS
10
-0.060248
20
-0.003638
30
0.0
11
-0.058237
21
0.019842
31
0.0
0
LINE
8
0
6
CONTINUOUS
10
-0.059846
20
-0.018008
30
0.0
11
-0.058222
21
-0.001773
31
0.0
0
LINE
8
0
6
CONTINUOUS
10
-0.061033
20
-0.027499
30
0.0
11
-0.059846
21
-0.018008
31
0.0
0
LINE
8
0
6
CONTINUOUS
10
-0.062396
20
-0.004798
30
0.0
11
-0.062987
21
-0.024902
31
0.0
0
LINE
8
0
6
CONTINUOUS
10
-0.061479
20
-0.023636
30
0.0
11
-0.060248
21
-0.003638
31
0.0
0
LINE
8
0
6
CONTINUOUS
10
-0.064588
20
-0.035368
30
0.0
11
-0.065097
21
-0.036935
31
0.0
0
LINE
8
0
6
CONTINUOUS
10
-0.065097
20
-0.036935
30
0.0
11
-0.063791
21
-0.035339
31
0.0
0
LINE
8
0
6
CONTINUOUS
10
-0.043846
20
0.063076
30
0.0
11
-0.048381
21
0.063076
31
0.0
0
LINE
8
0
6
CONTINUOUS
10
-0.031462
20
0.063076
30
0.0
11
-0.043846
21
0.063076
31
0.0
0
LINE
8
0
6
CONTINUOUS
10
0.023416
20
0.038436
30
0.0
11
0.024420
21
0.038436
31
0.0
0
LINE
8
0
6
CONTINUOUS
10
0.024420
20
0.058139
30
0.0
11
0.023416
21
0.058139
31
0.0
0
LINE
8
0
6
CONTINUOUS
10
0.024420
20
0.062677
30
0.0
11
0.024420
21
0.056483
31
0.0
0
LINE
8
0
6
CONTINUOUS
10
0.026981
20
0.062677
30
0.0
11
0.024420
21
0.062677
31
0.0
0
LINE
8
0
6
CONTINUOUS
10
0.024420
20
0.054150
30
0.0
11
0.024420
21
0.041760
31
0.0
0
LINE
8
0
6
CONTINUOUS
10
0.024420
20
0.033233
30
0.0
11
0.026981
21
0.033233
31
0.0
0
LINE
8
0
6
CONTINUOUS
10
0.024420
20
0.039427
30
0.0
11
0.024420
21
0.033233
31
0.0
0
LINE
8
0
6
CONTINUOUS
10
0.024420
20
0.039427
30
0.0
11
0.026951
21
0.033733
31
0.0
0
LINE
8
0
6
CONTINUOUS
10
0.024420
20
0.041760
30
0.0
11
0.024420
21
0.039427
31
0.0
0
LINE
8
0
6
CONTINUOUS
10
0.026981
20
0.047522
30
0.0
11
0.024420
21
0.041760
31
0.0
0
LINE
8
0
6
CONTINUOUS
10
0.024420
20
0.054150
30
0.0
11
0.026951
21
0.048455
31
0.0
0
LINE
8
0
6
CONTINUOUS
10
0.026951
20
0.062177
30
0.0
11
0.024420
21
0.056483
31
0.0
0
LINE
8
0
6
CONTINUOUS
10
0.024420
20
0.056483
30
0.0
11
0.024420
21
0.054150
31
0.0
0
LINE
8
0
6
CONTINUOUS
10
0.039805
20
0.047522
30
0.0
11
0.042366
21
0.041760
31
0.0
0
LINE
8
0
6
CONTINUOUS
10
0.042366
20
0.054150
30
0.0
11
0.039835
21
0.048455
31
0.0
0
LINE
8
0
6
CONTINUOUS
10
0.042366
20
0.062677
30
0.0
11
0.039805
21
0.062677
31
0.0
0
LINE
8
0
6
CONTINUOUS
10
0.039835
20
0.062177
30
0.0
11
0.042366
21
0.056483
31
0.0
0
LINE
8
0
6
CONTINUOUS
10
0.042366
20
0.039427
30
0.0
11
0.039835
21
0.033733
31
0.0
0
LINE
8
0
6
CONTINUOUS
10
0.039805
20
0.033233
30
0.0
11
0.042350
21
0.033233
31
0.0
0
LINE
8
0
6
CONTINUOUS
10
0.039805
20
0.033233
30
0.0
11
0.039835
21
0.033733
31
0.0
0
LINE
8
0
6
CONTINUOUS
10
0.026981
20
0.033233
30
0.0
11
0.039805
21
0.033233
31
0.0
0
LINE
8
0
6
CONTINUOUS
10
0.026951
20
0.033733
30
0.0
11
0.026981
21
0.033233
31
0.0
0
LINE
8
0
6
CONTINUOUS
10
0.039835
20
0.033733
30
0.0
11
0.026951
21
0.033733
31
0.0
0
LINE
8
0
6
CONTINUOUS
10
0.039805
20
0.047522
30
0.0
11
0.039835
21
0.048455
31
0.0
0
LINE
8
0
6
CONTINUOUS
10
0.026981
20
0.047522
30
0.0
11
0.039805
21
0.047522
31
0.0
0
LINE
8
0
6
CONTINUOUS
10
0.026951
20
0.048455
30
0.0
11
0.026981
21
0.047522
31
0.0
0
LINE
8
0
6
CONTINUOUS
10
0.039835
20
0.048455
30
0.0
11
0.026951
21
0.048455
31
0.0
0
LINE
8
0
6
CONTINUOUS
10
0.039805
20
0.062677
30
0.0
11
0.026981
21
0.062677
31
0.0
0
LINE
8
0
6
CONTINUOUS
10
0.039835
20
0.062177
30
0.0
11
0.039805
21
0.062677
31
0.0
0
LINE
8
0
6
CONTINUOUS
10
0.026951
20
0.062177
30
0.0
11
0.039835
21
0.062177
31
0.0
0
LINE
8
0
6
CONTINUOUS
10
0.026981
20
0.062677
30
0.0
11
0.026951
21
0.062177
31
0.0
0
LINE
8
0
6
CONTINUOUS
10
0.042029
20
0.035037
30
0.0
11
0.042029
21
0.033950
31
0.0
0
LINE
8
0
6
CONTINUOUS
10
0.042029
20
0.033950
30
0.0
11
0.042029
21
0.033895
31
0.0
0
LINE
8
0
6
CONTINUOUS
10
0.042029
20
0.036789
30
0.0
11
0.042029
21
0.035037
31
0.0
0
LINE
8
0
6
CONTINUOUS
10
0.042029
20
0.039118
30
0.0
11
0.042029
21
0.038685
31
0.0
0
LINE
8
0
6
CONTINUOUS
10
0.042029
20
0.038659
30
0.0
11
0.042029
21
0.036789
31
0.0
0
LINE
8
0
6
CONTINUOUS
10
0.042029
20
0.041907
30
0.0
11
0.042029
21
0.039118
31
0.0
0
LINE
8
0
6
CONTINUOUS
10
0.042029
20
0.045015
30
0.0
11
0.042029
21
0.041907
31
0.0
0
LINE
8
0
6
CONTINUOUS
10
0.042029
20
0.048287
30
0.0
11
0.042029
21
0.045015
31
0.0
0
LINE
8
0
6
CONTINUOUS
10
0.042029
20
0.051560
30
0.0
11
0.042029
21
0.048287
31
0.0
0
LINE
8
0
6
CONTINUOUS
10
0.042029
20
0.054668
30
0.0
11
0.042029
21
0.051560
31
0.0
0
LINE
8
0
6
CONTINUOUS
10
0.042029
20
0.057457
30
0.0
11
0.042029
21
0.054668
31
0.0
0
LINE
8
0
6
CONTINUOUS
10
0.042029
20
0.059786
30
0.0
11
0.042029
21
0.057457
31
0.0
0
LINE
8
0
6
CONTINUOUS
10
0.042029
20
0.061538
30
0.0
11
0.042029
21
0.059786
31
0.0
0
LINE
8
0
6
CONTINUOUS
10
0.042029
20
0.062625
30
0.0
11
0.042029
21
0.061538
31
0.0
0
LINE
8
0
6
CONTINUOUS
10
0.042029
20
0.062994
30
0.0
11
0.042029
21
0.062625
31
0.0
0
LINE
8
0
6
CONTINUOUS
10
0.042254
20
0.063237
30
0.0
11
0.042029
21
0.062994
31
0.0
0
LINE
8
0
6
CONTINUOUS
10
0.042350
20
0.033233
30
0.0
11
0.060225
21
0.013646
31
0.0
0
LINE
8
0
6
CONTINUOUS
10
0.060225
20
0.082929
30
0.0
11
0.042254
21
0.063237
31
0.0
0
LINE
8
0
6
CONTINUOUS
10
0.060539
20
0.013292
30
0.0
11
0.061050
21
0.012937
31
0.0
0
LINE
8
0
6
CONTINUOUS
10
0.061050
20
0.012937
30
0.0
11
0.061647
21
0.012788
31
0.0
0
LINE
8
0
6
CONTINUOUS
10
0.061050
20
0.083638
30
0.0
11
0.060539
21
0.083283
31
0.0
0
LINE
8
0
6
CONTINUOUS
10
0.061647
20
0.083787
30
0.0
11
0.061050
21
0.083638
31
0.0
0
LINE
8
0
6
CONTINUOUS
10
0.066916
20
0.013678
30
0.0
11
0.066916
21
0.016303
31
0.0
0
LINE
8
0
6
CONTINUOUS
10
0.066492
20
0.012788
30
0.0
11
0.066916
21
0.012788
31
0.0
0
LINE
8
0
6
CONTINUOUS
10
0.066916
20
0.012788
30
0.0
11
0.066916
21
0.013678
31
0.0
0
LINE
8
0
6
CONTINUOUS
10
0.066916
20
0.016303
30
0.0
11
0.066916
21
0.020532
31
0.0
0
LINE
8
0
6
CONTINUOUS
10
0.066916
20
0.020532
30
0.0
11
0.066916
21
0.026154
31
0.0
0
LINE
8
0
6
CONTINUOUS
10
0.066916
20
0.026154
30
0.0
11
0.066916
21
0.032885
31
0.0
0
LINE
8
0
6
CONTINUOUS
10
0.066916
20
0.032885
30
0.0
11
0.066916
21
0.040388
31
0.0
0
LINE
8
0
6
CONTINUOUS
10
0.066916
20
0.040388
30
0.0
11
0.066916
21
0.048287
31
0.0
0
LINE
8
0
6
CONTINUOUS
10
0.066916
20
0.048287
30
0.0
11
0.066916
21
0.056187
31
0.0
0
LINE
8
0
6
CONTINUOUS
10
0.066916
20
0.056187
30
0.0
11
0.066916
21
0.063690
31
0.0
0
LINE
8
0
6
CONTINUOUS
10
0.066916
20
0.063690
30
0.0
11
0.066916
21
0.070421
31
0.0
0
LINE
8
0
6
CONTINUOUS
10
0.066916
20
0.070421
30
0.0
11
0.066916
21
0.076043
31
0.0
0
LINE
8
0
6
CONTINUOUS
10
0.066916
20
0.076043
30
0.0
11
0.066916
21
0.080272
31
0.0
0
LINE
8
0
6
CONTINUOUS
10
0.066916
20
0.080272
30
0.0
11
0.066916
21
0.082897
31
0.0
0
LINE
8
0
6
CONTINUOUS
10
0.066916
20
0.083787
30
0.0
11
0.066492
21
0.083787
31
0.0
0
LINE
8
0
6
CONTINUOUS
10
0.066916
20
0.082897
30
0.0
11
0.066916
21
0.083787
31
0.0
0
LINE
8
0
6
CONTINUOUS
10
0.062025
20
0.012788
30
0.0
11
0.066492
21
0.012788
31
0.0
0
LINE
8
0
6
CONTINUOUS
10
0.066492
20
0.083787
30
0.0
11
0.062025
21
0.083787
31
0.0
0
LINE
8
0
6
CONTINUOUS
10
0.062025
20
0.083787
30
0.0
11
0.061647
21
0.083787
31
0.0
0
LINE
8
0
6
CONTINUOUS
10
0.060225
20
0.013646
30
0.0
11
0.060539
21
0.013292
31
0.0
0
LINE
8
0
6
CONTINUOUS
10
0.060539
20
0.083283
30
0.0
11
0.060225
21
0.082929
31
0.0
0
LINE
8
0
6
CONTINUOUS
10
0.061647
20
0.012788
30
0.0
11
0.062025
21
0.012788
31
0.0
0
LINE
8
0
6
CONTINUOUS
10
0.042096
20
0.033781
30
0.0
11
0.042029
21
0.033895
31
0.0
0
ENDSEC
0
EOF
