999
Erzeugt mit innoplus bad 
0
SECTION
2
HEADER
9
$ACADVER
1
AC1009
9
$DWGCODEPAGE
3
ISO8859-1
0
ENDSEC
0
SECTION
2
TABLES
0
TABLE
2
LAYER
70
1
0
LAYER
2
0
70
0
62
7
6
CONTINUOUS
0
ENDTAB
0
ENDSEC
0
SECTION
2
ENTITIES
0
LINE
8
0
6
CONTINUOUS
10
-0.001959
20
-0.081512
30
0.0
11
-0.000008
21
-0.079526
31
0.0
0
LINE
8
0
6
CONTINUOUS
10
-0.007536
20
-0.083787
30
0.0
11
-0.007173
21
-0.083761
31
0.0
0
LINE
8
0
6
CONTINUOUS
10
0.006482
20
-0.074728
30
0.0
11
0.007195
21
-0.074016
31
0.0
0
LINE
8
0
6
CONTINUOUS
10
-0.003759
20
-0.082637
30
0.0
11
-0.001959
21
-0.081512
31
0.0
0
LINE
8
0
6
CONTINUOUS
10
-0.000008
20
-0.079526
30
0.0
11
0.001755
21
-0.078176
31
0.0
0
LINE
8
0
6
CONTINUOUS
10
0.007195
20
-0.074016
30
0.0
11
0.007464
21
-0.073787
31
0.0
0
LINE
8
0
6
CONTINUOUS
10
0.007464
20
-0.073787
30
0.0
11
0.007464
21
-0.036935
31
0.0
0
LINE
8
0
6
CONTINUOUS
10
-0.007173
20
-0.083761
30
0.0
11
-0.006498
21
-0.083686
31
0.0
0
LINE
8
0
6
CONTINUOUS
10
-0.006498
20
-0.083686
30
0.0
11
-0.005260
21
-0.083311
31
0.0
0
LINE
8
0
6
CONTINUOUS
10
0.005394
20
-0.075777
30
0.0
11
0.006482
21
-0.074728
31
0.0
0
LINE
8
0
6
CONTINUOUS
10
-0.005260
20
-0.083311
30
0.0
11
-0.003759
21
-0.082637
31
0.0
0
LINE
8
0
6
CONTINUOUS
10
0.003593
20
-0.076977
30
0.0
11
0.005394
21
-0.075777
31
0.0
0
LINE
8
0
6
CONTINUOUS
10
0.001755
20
-0.078176
30
0.0
11
0.003593
21
-0.076977
31
0.0
0
LINE
8
0
6
CONTINUOUS
10
-0.007536
20
-0.083787
30
0.0
11
-0.007536
21
-0.036918
31
0.0
0
LINE
8
0
6
CONTINUOUS
10
0.020987
20
0.027810
30
0.0
11
0.022845
21
0.028999
31
0.0
0
LINE
8
0
6
CONTINUOUS
10
0.022845
20
0.028999
30
0.0
11
0.026109
21
0.030533
31
0.0
0
LINE
8
0
6
CONTINUOUS
10
0.026109
20
0.030533
30
0.0
11
0.029372
21
0.031287
31
0.0
0
LINE
8
0
6
CONTINUOUS
10
0.007301
20
0.065287
30
0.0
11
0.003712
21
0.065287
31
0.0
0
LINE
8
0
6
CONTINUOUS
10
0.010637
20
0.065287
30
0.0
11
0.007301
21
0.065287
31
0.0
0
LINE
8
0
6
CONTINUOUS
10
0.013781
20
0.065287
30
0.0
11
0.010637
21
0.065287
31
0.0
0
LINE
8
0
6
CONTINUOUS
10
0.016555
20
0.065287
30
0.0
11
0.013781
21
0.065287
31
0.0
0
LINE
8
0
6
CONTINUOUS
10
0.019582
20
0.065287
30
0.0
11
0.016555
21
0.065287
31
0.0
0
LINE
8
0
6
CONTINUOUS
10
0.022845
20
0.065287
30
0.0
11
0.019582
21
0.065287
31
0.0
0
LINE
8
0
6
CONTINUOUS
10
0.026109
20
0.065287
30
0.0
11
0.022845
21
0.065287
31
0.0
0
LINE
8
0
6
CONTINUOUS
10
0.029372
20
0.065287
30
0.0
11
0.026109
21
0.065287
31
0.0
0
LINE
8
0
6
CONTINUOUS
10
0.003712
20
0.065287
30
0.0
11
-0.000000
21
0.065287
31
0.0
0
LINE
8
0
6
CONTINUOUS
10
0.076500
20
0.031287
30
0.0
11
0.081855
21
0.032162
31
0.0
0
LINE
8
0
6
CONTINUOUS
10
0.081677
20
0.064479
30
0.0
11
0.076500
21
0.065287
31
0.0
0
LINE
8
0
6
CONTINUOUS
10
0.076500
20
0.065287
30
0.0
11
0.029372
21
0.065287
31
0.0
0
LINE
8
0
6
CONTINUOUS
10
0.090422
20
0.038531
30
0.0
11
0.092710
21
0.043401
31
0.0
0
LINE
8
0
6
CONTINUOUS
10
0.090099
20
0.058483
30
0.0
11
0.086356
21
0.062135
31
0.0
0
LINE
8
0
6
CONTINUOUS
10
0.092710
20
0.043401
30
0.0
11
0.093499
21
0.048742
31
0.0
0
LINE
8
0
6
CONTINUOUS
10
0.081855
20
0.032162
30
0.0
11
0.086648
21
0.034661
31
0.0
0
LINE
8
0
6
CONTINUOUS
10
0.086356
20
0.062135
30
0.0
11
0.081677
21
0.064479
31
0.0
0
LINE
8
0
6
CONTINUOUS
10
0.092484
20
0.053862
30
0.0
11
0.090099
21
0.058483
31
0.0
0
LINE
8
0
6
CONTINUOUS
10
0.093499
20
0.048742
30
0.0
11
0.092484
21
0.053862
31
0.0
0
LINE
8
0
6
CONTINUOUS
10
0.086648
20
0.034661
30
0.0
11
0.090422
21
0.038531
31
0.0
0
LINE
8
0
6
CONTINUOUS
10
0.029372
20
0.031287
30
0.0
11
0.076500
21
0.031287
31
0.0
0
LINE
8
0
6
CONTINUOUS
10
-0.022845
20
0.028999
30
0.0
11
-0.020987
21
0.027810
31
0.0
0
LINE
8
0
6
CONTINUOUS
10
-0.026109
20
0.030533
30
0.0
11
-0.022845
21
0.028999
31
0.0
0
LINE
8
0
6
CONTINUOUS
10
-0.029372
20
0.031287
30
0.0
11
-0.026109
21
0.030533
31
0.0
0
LINE
8
0
6
CONTINUOUS
10
-0.003712
20
0.065287
30
0.0
11
-0.007301
21
0.065287
31
0.0
0
LINE
8
0
6
CONTINUOUS
10
-0.007301
20
0.065287
30
0.0
11
-0.010637
21
0.065287
31
0.0
0
LINE
8
0
6
CONTINUOUS
10
-0.010637
20
0.065287
30
0.0
11
-0.013782
21
0.065287
31
0.0
0
LINE
8
0
6
CONTINUOUS
10
-0.013782
20
0.065287
30
0.0
11
-0.016555
21
0.065287
31
0.0
0
LINE
8
0
6
CONTINUOUS
10
-0.016555
20
0.065287
30
0.0
11
-0.019582
21
0.065287
31
0.0
0
LINE
8
0
6
CONTINUOUS
10
-0.019582
20
0.065287
30
0.0
11
-0.022845
21
0.065287
31
0.0
0
LINE
8
0
6
CONTINUOUS
10
-0.022845
20
0.065287
30
0.0
11
-0.026109
21
0.065287
31
0.0
0
LINE
8
0
6
CONTINUOUS
10
-0.026109
20
0.065287
30
0.0
11
-0.029372
21
0.065287
31
0.0
0
LINE
8
0
6
CONTINUOUS
10
-0.000000
20
0.065287
30
0.0
11
-0.003712
21
0.065287
31
0.0
0
LINE
8
0
6
CONTINUOUS
10
-0.081855
20
0.032162
30
0.0
11
-0.076500
21
0.031287
31
0.0
0
LINE
8
0
6
CONTINUOUS
10
-0.076500
20
0.065287
30
0.0
11
-0.081677
21
0.064479
31
0.0
0
LINE
8
0
6
CONTINUOUS
10
-0.029372
20
0.065287
30
0.0
11
-0.076500
21
0.065287
31
0.0
0
LINE
8
0
6
CONTINUOUS
10
-0.092710
20
0.043401
30
0.0
11
-0.090422
21
0.038531
31
0.0
0
LINE
8
0
6
CONTINUOUS
10
-0.086356
20
0.062135
30
0.0
11
-0.090099
21
0.058483
31
0.0
0
LINE
8
0
6
CONTINUOUS
10
-0.093499
20
0.048742
30
0.0
11
-0.092710
21
0.043401
31
0.0
0
LINE
8
0
6
CONTINUOUS
10
-0.086648
20
0.034661
30
0.0
11
-0.081855
21
0.032162
31
0.0
0
LINE
8
0
6
CONTINUOUS
10
-0.081677
20
0.064479
30
0.0
11
-0.086356
21
0.062135
31
0.0
0
LINE
8
0
6
CONTINUOUS
10
-0.090099
20
0.058483
30
0.0
11
-0.092484
21
0.053862
31
0.0
0
LINE
8
0
6
CONTINUOUS
10
-0.092484
20
0.053862
30
0.0
11
-0.093499
21
0.048742
31
0.0
0
LINE
8
0
6
CONTINUOUS
10
-0.090422
20
0.038531
30
0.0
11
-0.086648
21
0.034661
31
0.0
0
LINE
8
0
6
CONTINUOUS
10
-0.076500
20
0.031287
30
0.0
11
-0.029372
21
0.031287
31
0.0
0
LINE
8
0
6
CONTINUOUS
10
-0.075000
20
0.012788
30
0.0
11
-0.067101
21
0.013678
31
0.0
0
LINE
8
0
6
CONTINUOUS
10
-0.067101
20
0.013678
30
0.0
11
-0.059597
21
0.016303
31
0.0
0
LINE
8
0
6
CONTINUOUS
10
-0.059597
20
0.016303
30
0.0
11
-0.052866
21
0.020532
31
0.0
0
LINE
8
0
6
CONTINUOUS
10
-0.052866
20
0.020532
30
0.0
11
-0.047245
21
0.026154
31
0.0
0
LINE
8
0
6
CONTINUOUS
10
-0.047245
20
0.026154
30
0.0
11
-0.044019
21
0.031287
31
0.0
0
LINE
8
0
6
CONTINUOUS
10
-0.044019
20
0.065287
30
0.0
11
-0.047245
21
0.070421
31
0.0
0
LINE
8
0
6
CONTINUOUS
10
-0.047245
20
0.070421
30
0.0
11
-0.052866
21
0.076042
31
0.0
0
LINE
8
0
6
CONTINUOUS
10
-0.052866
20
0.076042
30
0.0
11
-0.059597
21
0.080272
31
0.0
0
LINE
8
0
6
CONTINUOUS
10
-0.059597
20
0.080272
30
0.0
11
-0.067100
21
0.082897
31
0.0
0
LINE
8
0
6
CONTINUOUS
10
-0.067100
20
0.082897
30
0.0
11
-0.075000
21
0.083787
31
0.0
0
LINE
8
0
6
CONTINUOUS
10
-0.075000
20
0.083787
30
0.0
11
-0.082899
21
0.082897
31
0.0
0
LINE
8
0
6
CONTINUOUS
10
-0.082899
20
0.082897
30
0.0
11
-0.090403
21
0.080272
31
0.0
0
LINE
8
0
6
CONTINUOUS
10
-0.090403
20
0.080272
30
0.0
11
-0.097134
21
0.076043
31
0.0
0
LINE
8
0
6
CONTINUOUS
10
-0.097134
20
0.076043
30
0.0
11
-0.102755
21
0.070421
31
0.0
0
LINE
8
0
6
CONTINUOUS
10
-0.102755
20
0.070421
30
0.0
11
-0.106984
21
0.063690
31
0.0
0
LINE
8
0
6
CONTINUOUS
10
-0.110500
20
0.048288
30
0.0
11
-0.109610
21
0.040388
31
0.0
0
LINE
8
0
6
CONTINUOUS
10
-0.109610
20
0.040388
30
0.0
11
-0.106984
21
0.032885
31
0.0
0
LINE
8
0
6
CONTINUOUS
10
-0.106984
20
0.032885
30
0.0
11
-0.102755
21
0.026154
31
0.0
0
LINE
8
0
6
CONTINUOUS
10
-0.102755
20
0.026154
30
0.0
11
-0.097134
21
0.020533
31
0.0
0
LINE
8
0
6
CONTINUOUS
10
-0.097134
20
0.020533
30
0.0
11
-0.090403
21
0.016303
31
0.0
0
LINE
8
0
6
CONTINUOUS
10
-0.090403
20
0.016303
30
0.0
11
-0.082900
21
0.013678
31
0.0
0
LINE
8
0
6
CONTINUOUS
10
-0.082900
20
0.013678
30
0.0
11
-0.075000
21
0.012788
31
0.0
0
LINE
8
0
6
CONTINUOUS
10
0.020782
20
0.025308
30
0.0
11
0.019495
21
0.009609
31
0.0
0
LINE
8
0
6
CONTINUOUS
10
0.014933
20
-0.032894
30
0.0
11
0.016351
21
-0.028753
31
0.0
0
LINE
8
0
6
CONTINUOUS
10
0.019495
20
0.009609
30
0.0
11
0.018476
21
-0.002824
31
0.0
0
LINE
8
0
6
CONTINUOUS
10
-0.000000
20
-0.036935
30
0.0
11
0.003735
21
-0.036935
31
0.0
0
LINE
8
0
6
CONTINUOUS
10
0.018476
20
-0.002824
30
0.0
11
0.016351
21
-0.028753
31
0.0
0
LINE
8
0
6
CONTINUOUS
10
0.020782
20
0.025308
30
0.0
11
0.022069
21
0.041007
31
0.0
0
LINE
8
0
6
CONTINUOUS
10
0.003735
20
-0.036935
30
0.0
11
0.007464
21
-0.036935
31
0.0
0
LINE
8
0
6
CONTINUOUS
10
0.011714
20
-0.035860
30
0.0
11
0.014933
21
-0.032894
31
0.0
0
LINE
8
0
6
CONTINUOUS
10
0.007471
20
-0.036935
30
0.0
11
0.011714
21
-0.035860
31
0.0
0
LINE
8
0
6
CONTINUOUS
10
0.022069
20
0.041007
30
0.0
11
0.021317
21
0.046719
31
0.0
0
LINE
8
0
6
CONTINUOUS
10
0.021317
20
0.046719
30
0.0
11
0.019112
21
0.052042
31
0.0
0
LINE
8
0
6
CONTINUOUS
10
0.019112
20
0.052042
30
0.0
11
0.015605
21
0.056612
31
0.0
0
LINE
8
0
6
CONTINUOUS
10
0.015605
20
0.056612
30
0.0
11
0.011034
21
0.060120
31
0.0
0
LINE
8
0
6
CONTINUOUS
10
0.011034
20
0.060120
30
0.0
11
0.005712
21
0.062324
31
0.0
0
LINE
8
0
6
CONTINUOUS
10
0.005712
20
0.062324
30
0.0
11
-0.000000
21
0.063076
31
0.0
0
LINE
8
0
6
CONTINUOUS
10
-0.020782
20
0.025308
30
0.0
11
-0.019495
21
0.009609
31
0.0
0
LINE
8
0
6
CONTINUOUS
10
-0.016351
20
-0.028753
30
0.0
11
-0.014933
21
-0.032894
31
0.0
0
LINE
8
0
6
CONTINUOUS
10
-0.019495
20
0.009609
30
0.0
11
-0.018476
21
-0.002824
31
0.0
0
LINE
8
0
6
CONTINUOUS
10
-0.003735
20
-0.036935
30
0.0
11
-0.000000
21
-0.036935
31
0.0
0
LINE
8
0
6
CONTINUOUS
10
-0.016351
20
-0.028753
30
0.0
11
-0.018476
21
-0.002824
31
0.0
0
LINE
8
0
6
CONTINUOUS
10
-0.022069
20
0.041007
30
0.0
11
-0.020782
21
0.025308
31
0.0
0
LINE
8
0
6
CONTINUOUS
10
-0.007471
20
-0.036935
30
0.0
11
-0.003735
21
-0.036935
31
0.0
0
LINE
8
0
6
CONTINUOUS
10
-0.014933
20
-0.032894
30
0.0
11
-0.011714
21
-0.035860
31
0.0
0
LINE
8
0
6
CONTINUOUS
10
-0.011714
20
-0.035860
30
0.0
11
-0.007471
21
-0.036935
31
0.0
0
LINE
8
0
6
CONTINUOUS
10
-0.021317
20
0.046719
30
0.0
11
-0.022069
21
0.041007
31
0.0
0
LINE
8
0
6
CONTINUOUS
10
-0.019112
20
0.052042
30
0.0
11
-0.021317
21
0.046719
31
0.0
0
LINE
8
0
6
CONTINUOUS
10
-0.015605
20
0.056612
30
0.0
11
-0.019112
21
0.052042
31
0.0
0
LINE
8
0
6
CONTINUOUS
10
-0.011034
20
0.060120
30
0.0
11
-0.015605
21
0.056612
31
0.0
0
LINE
8
0
6
CONTINUOUS
10
-0.005712
20
0.062324
30
0.0
11
-0.011034
21
0.060120
31
0.0
0
LINE
8
0
6
CONTINUOUS
10
-0.000000
20
0.063076
30
0.0
11
-0.005712
21
0.062324
31
0.0
0
LINE
8
0
6
CONTINUOUS
10
0.075000
20
0.012788
30
0.0
11
0.082899
21
0.013678
31
0.0
0
LINE
8
0
6
CONTINUOUS
10
0.082899
20
0.013678
30
0.0
11
0.090403
21
0.016303
31
0.0
0
LINE
8
0
6
CONTINUOUS
10
0.090403
20
0.016303
30
0.0
11
0.097134
21
0.020532
31
0.0
0
LINE
8
0
6
CONTINUOUS
10
0.097134
20
0.020532
30
0.0
11
0.102755
21
0.026154
31
0.0
0
LINE
8
0
6
CONTINUOUS
10
0.102755
20
0.026154
30
0.0
11
0.106984
21
0.032885
31
0.0
0
LINE
8
0
6
CONTINUOUS
10
0.106984
20
0.032885
30
0.0
11
0.109610
21
0.040388
31
0.0
0
LINE
8
0
6
CONTINUOUS
10
0.109610
20
0.040388
30
0.0
11
0.110500
21
0.048287
31
0.0
0
LINE
8
0
6
CONTINUOUS
10
0.110500
20
0.048287
30
0.0
11
0.109610
21
0.056187
31
0.0
0
LINE
8
0
6
CONTINUOUS
10
0.109610
20
0.056187
30
0.0
11
0.106984
21
0.063690
31
0.0
0
LINE
8
0
6
CONTINUOUS
10
0.106984
20
0.063690
30
0.0
11
0.102755
21
0.070421
31
0.0
0
LINE
8
0
6
CONTINUOUS
10
0.102755
20
0.070421
30
0.0
11
0.097134
21
0.076043
31
0.0
0
LINE
8
0
6
CONTINUOUS
10
0.097134
20
0.076043
30
0.0
11
0.090403
21
0.080272
31
0.0
0
LINE
8
0
6
CONTINUOUS
10
0.090403
20
0.080272
30
0.0
11
0.082900
21
0.082897
31
0.0
0
LINE
8
0
6
CONTINUOUS
10
0.082900
20
0.082897
30
0.0
11
0.075000
21
0.083787
31
0.0
0
LINE
8
0
6
CONTINUOUS
10
0.075000
20
0.083787
30
0.0
11
0.067101
21
0.082897
31
0.0
0
LINE
8
0
6
CONTINUOUS
10
0.067101
20
0.082897
30
0.0
11
0.059597
21
0.080272
31
0.0
0
LINE
8
0
6
CONTINUOUS
10
0.059597
20
0.080272
30
0.0
11
0.052866
21
0.076043
31
0.0
0
LINE
8
0
6
CONTINUOUS
10
0.052866
20
0.076043
30
0.0
11
0.047245
21
0.070421
31
0.0
0
LINE
8
0
6
CONTINUOUS
10
0.047245
20
0.070421
30
0.0
11
0.044019
21
0.065287
31
0.0
0
LINE
8
0
6
CONTINUOUS
10
0.044019
20
0.031287
30
0.0
11
0.047245
21
0.026154
31
0.0
0
LINE
8
0
6
CONTINUOUS
10
0.047245
20
0.026154
30
0.0
11
0.052866
21
0.020533
31
0.0
0
LINE
8
0
6
CONTINUOUS
10
0.052866
20
0.020533
30
0.0
11
0.059597
21
0.016303
31
0.0
0
LINE
8
0
6
CONTINUOUS
10
0.059597
20
0.016303
30
0.0
11
0.067100
21
0.013678
31
0.0
0
LINE
8
0
6
CONTINUOUS
10
0.067100
20
0.013678
30
0.0
11
0.075000
21
0.012788
31
0.0
0
ENDSEC
0
EOF
