999
Erzeugt mit innoplus bad 
0
SECTION
2
HEADER
9
$ACADVER
1
AC1009
9
$DWGCODEPAGE
3
ISO8859-1
0
ENDSEC
0
SECTION
2
TABLES
0
TABLE
2
LAYER
70
1
0
LAYER
2
0
70
0
62
7
6
CONTINUOUS
0
ENDTAB
0
ENDSEC
0
SECTION
2
ENTITIES
0
LINE
8
0
6
CONTINUOUS
10
0.020127
20
-0.030685
30
0.0
11
0.020503
21
-0.027108
31
0.0
0
LINE
8
0
6
CONTINUOUS
10
-0.020503
20
-0.027108
30
0.0
11
-0.020127
21
-0.030685
31
0.0
0
LINE
8
0
6
CONTINUOUS
10
0.020503
20
-0.027108
30
0.0
11
0.020503
21
-0.001872
31
0.0
0
LINE
8
0
6
CONTINUOUS
10
-0.020503
20
-0.001872
30
0.0
11
-0.020503
21
-0.027108
31
0.0
0
LINE
8
0
6
CONTINUOUS
10
0.022069
20
-0.030912
30
0.0
11
0.021317
21
-0.030912
31
0.0
0
LINE
8
0
6
CONTINUOUS
10
0.022069
20
-0.031462
30
0.0
11
0.022069
21
-0.030912
31
0.0
0
LINE
8
0
6
CONTINUOUS
10
0.015605
20
-0.030912
30
0.0
11
0.011034
21
-0.030912
31
0.0
0
LINE
8
0
6
CONTINUOUS
10
0.019112
20
-0.030912
30
0.0
11
0.015605
21
-0.030912
31
0.0
0
LINE
8
0
6
CONTINUOUS
10
0.021317
20
-0.030912
30
0.0
11
0.019112
21
-0.030912
31
0.0
0
LINE
8
0
6
CONTINUOUS
10
0.011034
20
-0.030912
30
0.0
11
0.005712
21
-0.030912
31
0.0
0
LINE
8
0
6
CONTINUOUS
10
0.005712
20
-0.030912
30
0.0
11
-0.000000
21
-0.030912
31
0.0
0
LINE
8
0
6
CONTINUOUS
10
0.021317
20
-0.066916
30
0.0
11
0.022069
21
-0.066916
31
0.0
0
LINE
8
0
6
CONTINUOUS
10
0.022069
20
-0.066916
30
0.0
11
0.022069
21
-0.066365
31
0.0
0
LINE
8
0
6
CONTINUOUS
10
0.019112
20
-0.066916
30
0.0
11
0.021317
21
-0.066916
31
0.0
0
LINE
8
0
6
CONTINUOUS
10
0.015605
20
-0.066916
30
0.0
11
0.019112
21
-0.066916
31
0.0
0
LINE
8
0
6
CONTINUOUS
10
0.011034
20
-0.066916
30
0.0
11
0.015605
21
-0.066916
31
0.0
0
LINE
8
0
6
CONTINUOUS
10
0.005712
20
-0.066916
30
0.0
11
0.011034
21
-0.066916
31
0.0
0
LINE
8
0
6
CONTINUOUS
10
-0.000000
20
-0.066916
30
0.0
11
0.005712
21
-0.066916
31
0.0
0
LINE
8
0
6
CONTINUOUS
10
0.022069
20
-0.056340
30
0.0
11
0.022069
21
-0.053687
31
0.0
0
LINE
8
0
6
CONTINUOUS
10
0.022069
20
-0.061772
30
0.0
11
0.022069
21
-0.059606
31
0.0
0
LINE
8
0
6
CONTINUOUS
10
0.022069
20
-0.048381
30
0.0
11
0.022069
21
-0.043846
31
0.0
0
LINE
8
0
6
CONTINUOUS
10
0.022069
20
-0.053687
30
0.0
11
0.022069
21
-0.051034
31
0.0
0
LINE
8
0
6
CONTINUOUS
10
0.022069
20
-0.058330
30
0.0
11
0.022069
21
-0.056340
31
0.0
0
LINE
8
0
6
CONTINUOUS
10
0.022069
20
-0.059606
30
0.0
11
0.022069
21
-0.058330
31
0.0
0
LINE
8
0
6
CONTINUOUS
10
0.022069
20
-0.043846
30
0.0
11
0.022069
21
-0.031462
31
0.0
0
LINE
8
0
6
CONTINUOUS
10
0.022069
20
-0.051034
30
0.0
11
0.022069
21
-0.048381
31
0.0
0
LINE
8
0
6
CONTINUOUS
10
0.022069
20
-0.066365
30
0.0
11
0.022069
21
-0.061772
31
0.0
0
LINE
8
0
6
CONTINUOUS
10
-0.022069
20
-0.030912
30
0.0
11
-0.022069
21
-0.031462
31
0.0
0
LINE
8
0
6
CONTINUOUS
10
-0.021317
20
-0.030912
30
0.0
11
-0.022069
21
-0.030912
31
0.0
0
LINE
8
0
6
CONTINUOUS
10
-0.011034
20
-0.030912
30
0.0
11
-0.015605
21
-0.030912
31
0.0
0
LINE
8
0
6
CONTINUOUS
10
-0.015605
20
-0.030912
30
0.0
11
-0.019112
21
-0.030912
31
0.0
0
LINE
8
0
6
CONTINUOUS
10
-0.019112
20
-0.030912
30
0.0
11
-0.021317
21
-0.030912
31
0.0
0
LINE
8
0
6
CONTINUOUS
10
-0.005712
20
-0.030912
30
0.0
11
-0.011034
21
-0.030912
31
0.0
0
LINE
8
0
6
CONTINUOUS
10
-0.000000
20
-0.030912
30
0.0
11
-0.005712
21
-0.030912
31
0.0
0
LINE
8
0
6
CONTINUOUS
10
-0.022069
20
-0.066365
30
0.0
11
-0.022069
21
-0.066916
31
0.0
0
LINE
8
0
6
CONTINUOUS
10
-0.022069
20
-0.066916
30
0.0
11
-0.021317
21
-0.066916
31
0.0
0
LINE
8
0
6
CONTINUOUS
10
-0.021317
20
-0.066916
30
0.0
11
-0.019112
21
-0.066916
31
0.0
0
LINE
8
0
6
CONTINUOUS
10
-0.019112
20
-0.066916
30
0.0
11
-0.015605
21
-0.066916
31
0.0
0
LINE
8
0
6
CONTINUOUS
10
-0.015605
20
-0.066916
30
0.0
11
-0.011034
21
-0.066916
31
0.0
0
LINE
8
0
6
CONTINUOUS
10
-0.011034
20
-0.066916
30
0.0
11
-0.005712
21
-0.066916
31
0.0
0
LINE
8
0
6
CONTINUOUS
10
-0.005712
20
-0.066916
30
0.0
11
-0.000000
21
-0.066916
31
0.0
0
LINE
8
0
6
CONTINUOUS
10
-0.022069
20
-0.053687
30
0.0
11
-0.022069
21
-0.056340
31
0.0
0
LINE
8
0
6
CONTINUOUS
10
-0.022069
20
-0.059606
30
0.0
11
-0.022069
21
-0.061772
31
0.0
0
LINE
8
0
6
CONTINUOUS
10
-0.022069
20
-0.043846
30
0.0
11
-0.022069
21
-0.048381
31
0.0
0
LINE
8
0
6
CONTINUOUS
10
-0.022069
20
-0.051034
30
0.0
11
-0.022069
21
-0.053687
31
0.0
0
LINE
8
0
6
CONTINUOUS
10
-0.022069
20
-0.056340
30
0.0
11
-0.022069
21
-0.058330
31
0.0
0
LINE
8
0
6
CONTINUOUS
10
-0.022069
20
-0.058330
30
0.0
11
-0.022069
21
-0.059606
31
0.0
0
LINE
8
0
6
CONTINUOUS
10
-0.022069
20
-0.031462
30
0.0
11
-0.022069
21
-0.043846
31
0.0
0
LINE
8
0
6
CONTINUOUS
10
-0.022069
20
-0.048381
30
0.0
11
-0.022069
21
-0.051034
31
0.0
0
LINE
8
0
6
CONTINUOUS
10
-0.022069
20
-0.061772
30
0.0
11
-0.022069
21
-0.066365
31
0.0
0
LINE
8
0
6
CONTINUOUS
10
0.093499
20
0.010772
30
0.0
11
0.093499
21
0.014386
31
0.0
0
LINE
8
0
6
CONTINUOUS
10
0.093499
20
0.007158
30
0.0
11
0.093499
21
0.010772
31
0.0
0
LINE
8
0
6
CONTINUOUS
10
0.093499
20
0.014386
30
0.0
11
0.093499
21
0.021614
31
0.0
0
LINE
8
0
6
CONTINUOUS
10
0.007301
20
0.023416
30
0.0
11
0.003712
21
0.023416
31
0.0
0
LINE
8
0
6
CONTINUOUS
10
0.010637
20
0.023416
30
0.0
11
0.007301
21
0.023416
31
0.0
0
LINE
8
0
6
CONTINUOUS
10
0.013781
20
0.023416
30
0.0
11
0.010637
21
0.023416
31
0.0
0
LINE
8
0
6
CONTINUOUS
10
0.016555
20
0.023416
30
0.0
11
0.013781
21
0.023416
31
0.0
0
LINE
8
0
6
CONTINUOUS
10
0.019582
20
0.023416
30
0.0
11
0.016555
21
0.023416
31
0.0
0
LINE
8
0
6
CONTINUOUS
10
0.022845
20
0.023416
30
0.0
11
0.019582
21
0.023416
31
0.0
0
LINE
8
0
6
CONTINUOUS
10
0.026109
20
0.023416
30
0.0
11
0.022845
21
0.023416
31
0.0
0
LINE
8
0
6
CONTINUOUS
10
0.029372
20
0.023416
30
0.0
11
0.026109
21
0.023416
31
0.0
0
LINE
8
0
6
CONTINUOUS
10
0.003712
20
-0.001872
30
0.0
11
0.007301
21
-0.001872
31
0.0
0
LINE
8
0
6
CONTINUOUS
10
0.007301
20
-0.001872
30
0.0
11
0.010637
21
-0.001872
31
0.0
0
LINE
8
0
6
CONTINUOUS
10
0.010637
20
-0.001872
30
0.0
11
0.013781
21
-0.001872
31
0.0
0
LINE
8
0
6
CONTINUOUS
10
0.013781
20
-0.001872
30
0.0
11
0.016555
21
-0.001872
31
0.0
0
LINE
8
0
6
CONTINUOUS
10
0.016555
20
-0.001872
30
0.0
11
0.019582
21
-0.001872
31
0.0
0
LINE
8
0
6
CONTINUOUS
10
0.019582
20
-0.001872
30
0.0
11
0.022845
21
-0.001872
31
0.0
0
LINE
8
0
6
CONTINUOUS
10
0.022845
20
-0.001872
30
0.0
11
0.026109
21
-0.001872
31
0.0
0
LINE
8
0
6
CONTINUOUS
10
0.026109
20
-0.001872
30
0.0
11
0.029372
21
-0.001872
31
0.0
0
LINE
8
0
6
CONTINUOUS
10
0.003712
20
0.023416
30
0.0
11
-0.000000
21
0.023416
31
0.0
0
LINE
8
0
6
CONTINUOUS
10
-0.000000
20
-0.001872
30
0.0
11
0.003712
21
-0.001872
31
0.0
0
LINE
8
0
6
CONTINUOUS
10
0.029372
20
-0.001872
30
0.0
11
0.076500
21
-0.001872
31
0.0
0
LINE
8
0
6
CONTINUOUS
10
0.086356
20
-0.001872
30
0.0
11
0.090099
21
-0.001872
31
0.0
0
LINE
8
0
6
CONTINUOUS
10
0.076500
20
-0.001872
30
0.0
11
0.081677
21
-0.001872
31
0.0
0
LINE
8
0
6
CONTINUOUS
10
0.081677
20
-0.001872
30
0.0
11
0.086356
21
-0.001872
31
0.0
0
LINE
8
0
6
CONTINUOUS
10
0.090099
20
-0.001872
30
0.0
11
0.092484
21
-0.001872
31
0.0
0
LINE
8
0
6
CONTINUOUS
10
0.093499
20
-0.001872
30
0.0
11
0.093499
21
-0.000071
31
0.0
0
LINE
8
0
6
CONTINUOUS
10
0.092484
20
-0.001872
30
0.0
11
0.093499
21
-0.001872
31
0.0
0
LINE
8
0
6
CONTINUOUS
10
0.076500
20
0.023416
30
0.0
11
0.029372
21
0.023416
31
0.0
0
LINE
8
0
6
CONTINUOUS
10
0.090099
20
0.023416
30
0.0
11
0.086356
21
0.023416
31
0.0
0
LINE
8
0
6
CONTINUOUS
10
0.081677
20
0.023416
30
0.0
11
0.076500
21
0.023416
31
0.0
0
LINE
8
0
6
CONTINUOUS
10
0.086356
20
0.023416
30
0.0
11
0.081677
21
0.023416
31
0.0
0
LINE
8
0
6
CONTINUOUS
10
0.092484
20
0.023416
30
0.0
11
0.090099
21
0.023416
31
0.0
0
LINE
8
0
6
CONTINUOUS
10
0.093499
20
0.023416
30
0.0
11
0.092484
21
0.023416
31
0.0
0
LINE
8
0
6
CONTINUOUS
10
0.093499
20
0.021614
30
0.0
11
0.093499
21
0.023416
31
0.0
0
LINE
8
0
6
CONTINUOUS
10
0.093499
20
-0.000071
30
0.0
11
0.093499
21
0.007158
31
0.0
0
LINE
8
0
6
CONTINUOUS
10
0.003712
20
0.023416
30
0.0
11
-0.000000
21
0.023450
31
0.0
0
LINE
8
0
6
CONTINUOUS
10
-0.093499
20
0.014386
30
0.0
11
-0.093499
21
0.010772
31
0.0
0
LINE
8
0
6
CONTINUOUS
10
-0.093499
20
0.010772
30
0.0
11
-0.093499
21
0.007158
31
0.0
0
LINE
8
0
6
CONTINUOUS
10
-0.093499
20
0.021614
30
0.0
11
-0.093499
21
0.014386
31
0.0
0
LINE
8
0
6
CONTINUOUS
10
-0.003712
20
0.023416
30
0.0
11
-0.007301
21
0.023416
31
0.0
0
LINE
8
0
6
CONTINUOUS
10
-0.007301
20
0.023416
30
0.0
11
-0.010637
21
0.023416
31
0.0
0
LINE
8
0
6
CONTINUOUS
10
-0.010637
20
0.023416
30
0.0
11
-0.013782
21
0.023416
31
0.0
0
LINE
8
0
6
CONTINUOUS
10
-0.013782
20
0.023416
30
0.0
11
-0.016555
21
0.023416
31
0.0
0
LINE
8
0
6
CONTINUOUS
10
-0.016555
20
0.023416
30
0.0
11
-0.019582
21
0.023416
31
0.0
0
LINE
8
0
6
CONTINUOUS
10
-0.019582
20
0.023416
30
0.0
11
-0.022845
21
0.023416
31
0.0
0
LINE
8
0
6
CONTINUOUS
10
-0.022845
20
0.023416
30
0.0
11
-0.026109
21
0.023416
31
0.0
0
LINE
8
0
6
CONTINUOUS
10
-0.026109
20
0.023416
30
0.0
11
-0.029372
21
0.023416
31
0.0
0
LINE
8
0
6
CONTINUOUS
10
-0.007301
20
-0.001872
30
0.0
11
-0.003712
21
-0.001872
31
0.0
0
LINE
8
0
6
CONTINUOUS
10
-0.010637
20
-0.001872
30
0.0
11
-0.007301
21
-0.001872
31
0.0
0
LINE
8
0
6
CONTINUOUS
10
-0.013782
20
-0.001872
30
0.0
11
-0.010637
21
-0.001872
31
0.0
0
LINE
8
0
6
CONTINUOUS
10
-0.016555
20
-0.001872
30
0.0
11
-0.013782
21
-0.001872
31
0.0
0
LINE
8
0
6
CONTINUOUS
10
-0.019582
20
-0.001872
30
0.0
11
-0.016555
21
-0.001872
31
0.0
0
LINE
8
0
6
CONTINUOUS
10
-0.022845
20
-0.001872
30
0.0
11
-0.019582
21
-0.001872
31
0.0
0
LINE
8
0
6
CONTINUOUS
10
-0.026109
20
-0.001872
30
0.0
11
-0.022845
21
-0.001872
31
0.0
0
LINE
8
0
6
CONTINUOUS
10
-0.029372
20
-0.001872
30
0.0
11
-0.026109
21
-0.001872
31
0.0
0
LINE
8
0
6
CONTINUOUS
10
-0.000000
20
0.023416
30
0.0
11
-0.003712
21
0.023416
31
0.0
0
LINE
8
0
6
CONTINUOUS
10
-0.003712
20
-0.001872
30
0.0
11
-0.000000
21
-0.001872
31
0.0
0
LINE
8
0
6
CONTINUOUS
10
-0.076500
20
-0.001872
30
0.0
11
-0.029372
21
-0.001872
31
0.0
0
LINE
8
0
6
CONTINUOUS
10
-0.090099
20
-0.001872
30
0.0
11
-0.086356
21
-0.001872
31
0.0
0
LINE
8
0
6
CONTINUOUS
10
-0.081677
20
-0.001872
30
0.0
11
-0.076500
21
-0.001872
31
0.0
0
LINE
8
0
6
CONTINUOUS
10
-0.086356
20
-0.001872
30
0.0
11
-0.081677
21
-0.001872
31
0.0
0
LINE
8
0
6
CONTINUOUS
10
-0.092484
20
-0.001872
30
0.0
11
-0.090099
21
-0.001872
31
0.0
0
LINE
8
0
6
CONTINUOUS
10
-0.093499
20
-0.001872
30
0.0
11
-0.092484
21
-0.001872
31
0.0
0
LINE
8
0
6
CONTINUOUS
10
-0.093499
20
-0.000071
30
0.0
11
-0.093499
21
-0.001872
31
0.0
0
LINE
8
0
6
CONTINUOUS
10
-0.029372
20
0.023416
30
0.0
11
-0.076500
21
0.023416
31
0.0
0
LINE
8
0
6
CONTINUOUS
10
-0.086356
20
0.023416
30
0.0
11
-0.090099
21
0.023416
31
0.0
0
LINE
8
0
6
CONTINUOUS
10
-0.076500
20
0.023416
30
0.0
11
-0.081677
21
0.023416
31
0.0
0
LINE
8
0
6
CONTINUOUS
10
-0.081677
20
0.023416
30
0.0
11
-0.086356
21
0.023416
31
0.0
0
LINE
8
0
6
CONTINUOUS
10
-0.090099
20
0.023416
30
0.0
11
-0.092484
21
0.023416
31
0.0
0
LINE
8
0
6
CONTINUOUS
10
-0.093499
20
0.023416
30
0.0
11
-0.093499
21
0.021614
31
0.0
0
LINE
8
0
6
CONTINUOUS
10
-0.092484
20
0.023416
30
0.0
11
-0.093499
21
0.023416
31
0.0
0
LINE
8
0
6
CONTINUOUS
10
-0.093499
20
0.007158
30
0.0
11
-0.093499
21
-0.000071
31
0.0
0
LINE
8
0
6
CONTINUOUS
10
-0.000000
20
0.023450
30
0.0
11
-0.003712
21
0.023416
31
0.0
0
LINE
8
0
6
CONTINUOUS
10
0.084851
20
0.023416
30
0.0
11
0.084851
21
0.024420
31
0.0
0
LINE
8
0
6
CONTINUOUS
10
0.065149
20
0.024420
30
0.0
11
0.065149
21
0.023416
31
0.0
0
LINE
8
0
6
CONTINUOUS
10
0.062340
20
0.024420
30
0.0
11
0.073070
21
0.024420
31
0.0
0
LINE
8
0
6
CONTINUOUS
10
0.075764
20
0.024420
30
0.0
11
0.086494
21
0.024420
31
0.0
0
LINE
8
0
6
CONTINUOUS
10
0.087840
20
0.024420
30
0.0
11
0.091128
21
0.026951
31
0.0
0
LINE
8
0
6
CONTINUOUS
10
0.083206
20
0.026951
30
0.0
11
0.086494
21
0.024420
31
0.0
0
LINE
8
0
6
CONTINUOUS
10
0.086494
20
0.024420
30
0.0
11
0.087840
21
0.024420
31
0.0
0
LINE
8
0
6
CONTINUOUS
10
0.066417
20
0.026981
30
0.0
11
0.073070
21
0.024420
31
0.0
0
LINE
8
0
6
CONTINUOUS
10
0.075764
20
0.024420
30
0.0
11
0.082417
21
0.026981
31
0.0
0
LINE
8
0
6
CONTINUOUS
10
0.073070
20
0.024420
30
0.0
11
0.075764
21
0.024420
31
0.0
0
LINE
8
0
6
CONTINUOUS
10
0.087840
20
0.042366
30
0.0
11
0.091128
21
0.039835
31
0.0
0
LINE
8
0
6
CONTINUOUS
10
0.075764
20
0.042366
30
0.0
11
0.082417
21
0.039805
31
0.0
0
LINE
8
0
6
CONTINUOUS
10
0.083206
20
0.039835
30
0.0
11
0.086494
21
0.042366
31
0.0
0
LINE
8
0
6
CONTINUOUS
10
0.066417
20
0.039805
30
0.0
11
0.073070
21
0.042366
31
0.0
0
LINE
8
0
6
CONTINUOUS
10
0.065628
20
0.039835
30
0.0
11
0.062340
21
0.042366
31
0.0
0
LINE
8
0
6
CONTINUOUS
10
0.060993
20
0.042366
30
0.0
11
0.057667
21
0.039805
31
0.0
0
LINE
8
0
6
CONTINUOUS
10
0.057667
20
0.039805
30
0.0
11
0.057667
21
0.026981
31
0.0
0
LINE
8
0
6
CONTINUOUS
10
0.062340
20
0.042366
30
0.0
11
0.060993
21
0.042366
31
0.0
0
LINE
8
0
6
CONTINUOUS
10
0.060993
20
0.024420
30
0.0
11
0.062340
21
0.024420
31
0.0
0
LINE
8
0
6
CONTINUOUS
10
0.057667
20
0.026981
30
0.0
11
0.060993
21
0.024420
31
0.0
0
LINE
8
0
6
CONTINUOUS
10
0.062340
20
0.024420
30
0.0
11
0.065628
21
0.026951
31
0.0
0
LINE
8
0
6
CONTINUOUS
10
0.091167
20
0.039805
30
0.0
11
0.091128
21
0.039835
31
0.0
0
LINE
8
0
6
CONTINUOUS
10
0.091167
20
0.026981
30
0.0
11
0.091167
21
0.039805
31
0.0
0
LINE
8
0
6
CONTINUOUS
10
0.091128
20
0.026951
30
0.0
11
0.091167
21
0.026981
31
0.0
0
LINE
8
0
6
CONTINUOUS
10
0.091128
20
0.039835
30
0.0
11
0.091128
21
0.026951
31
0.0
0
LINE
8
0
6
CONTINUOUS
10
0.066417
20
0.039805
30
0.0
11
0.065628
21
0.039835
31
0.0
0
LINE
8
0
6
CONTINUOUS
10
0.066417
20
0.026981
30
0.0
11
0.066417
21
0.039805
31
0.0
0
LINE
8
0
6
CONTINUOUS
10
0.065628
20
0.026951
30
0.0
11
0.066417
21
0.026981
31
0.0
0
LINE
8
0
6
CONTINUOUS
10
0.065628
20
0.039835
30
0.0
11
0.065628
21
0.026951
31
0.0
0
LINE
8
0
6
CONTINUOUS
10
0.082417
20
0.039805
30
0.0
11
0.082417
21
0.026981
31
0.0
0
LINE
8
0
6
CONTINUOUS
10
0.083206
20
0.039835
30
0.0
11
0.082417
21
0.039805
31
0.0
0
LINE
8
0
6
CONTINUOUS
10
0.083206
20
0.026951
30
0.0
11
0.083206
21
0.039835
31
0.0
0
LINE
8
0
6
CONTINUOUS
10
0.082417
20
0.026981
30
0.0
11
0.083206
21
0.026951
31
0.0
0
LINE
8
0
6
CONTINUOUS
10
0.109044
20
0.066916
30
0.0
11
0.109610
21
0.066916
31
0.0
0
LINE
8
0
6
CONTINUOUS
10
0.106984
20
0.066916
30
0.0
11
0.106461
21
0.066916
31
0.0
0
LINE
8
0
6
CONTINUOUS
10
0.040956
20
0.066916
30
0.0
11
0.040390
21
0.066916
31
0.0
0
LINE
8
0
6
CONTINUOUS
10
0.043016
20
0.066916
30
0.0
11
0.043539
21
0.066916
31
0.0
0
LINE
8
0
6
CONTINUOUS
10
0.089706
20
0.042029
30
0.0
11
0.089949
21
0.042254
31
0.0
0
LINE
8
0
6
CONTINUOUS
10
0.089338
20
0.042029
30
0.0
11
0.089706
21
0.042029
31
0.0
0
LINE
8
0
6
CONTINUOUS
10
0.088250
20
0.042029
30
0.0
11
0.089338
21
0.042029
31
0.0
0
LINE
8
0
6
CONTINUOUS
10
0.086498
20
0.042029
30
0.0
11
0.088250
21
0.042029
31
0.0
0
LINE
8
0
6
CONTINUOUS
10
0.084169
20
0.042029
30
0.0
11
0.086498
21
0.042029
31
0.0
0
LINE
8
0
6
CONTINUOUS
10
0.081381
20
0.042029
30
0.0
11
0.084169
21
0.042029
31
0.0
0
LINE
8
0
6
CONTINUOUS
10
0.078272
20
0.042029
30
0.0
11
0.081381
21
0.042029
31
0.0
0
LINE
8
0
6
CONTINUOUS
10
0.075000
20
0.042029
30
0.0
11
0.078272
21
0.042029
31
0.0
0
LINE
8
0
6
CONTINUOUS
10
0.071727
20
0.042029
30
0.0
11
0.072190
21
0.042029
31
0.0
0
LINE
8
0
6
CONTINUOUS
10
0.072195
20
0.042029
30
0.0
11
0.075000
21
0.042029
31
0.0
0
LINE
8
0
6
CONTINUOUS
10
0.068619
20
0.042029
30
0.0
11
0.071727
21
0.042029
31
0.0
0
LINE
8
0
6
CONTINUOUS
10
0.065831
20
0.042029
30
0.0
11
0.068619
21
0.042029
31
0.0
0
LINE
8
0
6
CONTINUOUS
10
0.063981
20
0.042029
30
0.0
11
0.065831
21
0.042029
31
0.0
0
LINE
8
0
6
CONTINUOUS
10
0.060293
20
0.042029
30
0.0
11
0.060662
21
0.042029
31
0.0
0
LINE
8
0
6
CONTINUOUS
10
0.060051
20
0.042254
30
0.0
11
0.060293
21
0.042029
31
0.0
0
LINE
8
0
6
CONTINUOUS
10
0.089949
20
0.042254
30
0.0
11
0.109642
21
0.060225
31
0.0
0
LINE
8
0
6
CONTINUOUS
10
0.040358
20
0.060225
30
0.0
11
0.060051
21
0.042254
31
0.0
0
LINE
8
0
6
CONTINUOUS
10
0.109995
20
0.060539
30
0.0
11
0.110351
21
0.061050
31
0.0
0
LINE
8
0
6
CONTINUOUS
10
0.110351
20
0.061050
30
0.0
11
0.110500
21
0.061647
31
0.0
0
LINE
8
0
6
CONTINUOUS
10
0.039649
20
0.061050
30
0.0
11
0.040005
21
0.060539
31
0.0
0
LINE
8
0
6
CONTINUOUS
10
0.039500
20
0.061647
30
0.0
11
0.039649
21
0.061050
31
0.0
0
LINE
8
0
6
CONTINUOUS
10
0.110500
20
0.066492
30
0.0
11
0.110500
21
0.066916
31
0.0
0
LINE
8
0
6
CONTINUOUS
10
0.110500
20
0.066916
30
0.0
11
0.109610
21
0.066916
31
0.0
0
LINE
8
0
6
CONTINUOUS
10
0.109610
20
0.066916
30
0.0
11
0.106984
21
0.066916
31
0.0
0
LINE
8
0
6
CONTINUOUS
10
0.106984
20
0.066916
30
0.0
11
0.102755
21
0.066916
31
0.0
0
LINE
8
0
6
CONTINUOUS
10
0.102755
20
0.066916
30
0.0
11
0.097134
21
0.066916
31
0.0
0
LINE
8
0
6
CONTINUOUS
10
0.097134
20
0.066916
30
0.0
11
0.090403
21
0.066916
31
0.0
0
LINE
8
0
6
CONTINUOUS
10
0.090403
20
0.066916
30
0.0
11
0.082900
21
0.066916
31
0.0
0
LINE
8
0
6
CONTINUOUS
10
0.082900
20
0.066916
30
0.0
11
0.075000
21
0.066916
31
0.0
0
LINE
8
0
6
CONTINUOUS
10
0.075000
20
0.066916
30
0.0
11
0.067100
21
0.066916
31
0.0
0
LINE
8
0
6
CONTINUOUS
10
0.067100
20
0.066916
30
0.0
11
0.059597
21
0.066916
31
0.0
0
LINE
8
0
6
CONTINUOUS
10
0.059597
20
0.066916
30
0.0
11
0.052866
21
0.066916
31
0.0
0
LINE
8
0
6
CONTINUOUS
10
0.052866
20
0.066916
30
0.0
11
0.047245
21
0.066916
31
0.0
0
LINE
8
0
6
CONTINUOUS
10
0.047245
20
0.066916
30
0.0
11
0.043016
21
0.066916
31
0.0
0
LINE
8
0
6
CONTINUOUS
10
0.043016
20
0.066916
30
0.0
11
0.040390
21
0.066916
31
0.0
0
LINE
8
0
6
CONTINUOUS
10
0.039500
20
0.066916
30
0.0
11
0.039500
21
0.066492
31
0.0
0
LINE
8
0
6
CONTINUOUS
10
0.040390
20
0.066916
30
0.0
11
0.039500
21
0.066916
31
0.0
0
LINE
8
0
6
CONTINUOUS
10
0.110500
20
0.062025
30
0.0
11
0.110500
21
0.066492
31
0.0
0
LINE
8
0
6
CONTINUOUS
10
0.039500
20
0.066492
30
0.0
11
0.039500
21
0.062025
31
0.0
0
LINE
8
0
6
CONTINUOUS
10
0.110500
20
0.061647
30
0.0
11
0.110500
21
0.062025
31
0.0
0
LINE
8
0
6
CONTINUOUS
10
0.039500
20
0.062025
30
0.0
11
0.039500
21
0.061647
31
0.0
0
LINE
8
0
6
CONTINUOUS
10
0.109642
20
0.060225
30
0.0
11
0.109995
21
0.060539
31
0.0
0
LINE
8
0
6
CONTINUOUS
10
0.040005
20
0.060539
30
0.0
11
0.040358
21
0.060225
31
0.0
0
LINE
8
0
6
CONTINUOUS
10
0.109919
20
0.066916
30
0.0
11
0.075000
21
0.066916
31
0.0
0
LINE
8
0
6
CONTINUOUS
10
0.075000
20
0.066916
30
0.0
11
0.109044
21
0.066916
31
0.0
0
LINE
8
0
6
CONTINUOUS
10
0.106461
20
0.066916
30
0.0
11
0.075000
21
0.066916
31
0.0
0
LINE
8
0
6
CONTINUOUS
10
0.075000
20
0.066916
30
0.0
11
0.102301
21
0.066916
31
0.0
0
LINE
8
0
6
CONTINUOUS
10
0.053228
20
0.066916
30
0.0
11
0.075000
21
0.066916
31
0.0
0
LINE
8
0
6
CONTINUOUS
10
0.075000
20
0.066916
30
0.0
11
0.047699
21
0.066916
31
0.0
0
LINE
8
0
6
CONTINUOUS
10
0.043539
20
0.066916
30
0.0
11
0.075000
21
0.066916
31
0.0
0
LINE
8
0
6
CONTINUOUS
10
0.075000
20
0.066916
30
0.0
11
0.040956
21
0.066916
31
0.0
0
LINE
8
0
6
CONTINUOUS
10
-0.065149
20
0.023416
30
0.0
11
-0.065149
21
0.024420
31
0.0
0
LINE
8
0
6
CONTINUOUS
10
-0.084851
20
0.024420
30
0.0
11
-0.084851
21
0.023416
31
0.0
0
LINE
8
0
6
CONTINUOUS
10
-0.087660
20
0.024420
30
0.0
11
-0.076930
21
0.024420
31
0.0
0
LINE
8
0
6
CONTINUOUS
10
-0.074236
20
0.024420
30
0.0
11
-0.063506
21
0.024420
31
0.0
0
LINE
8
0
6
CONTINUOUS
10
-0.062160
20
0.024420
30
0.0
11
-0.058872
21
0.026951
31
0.0
0
LINE
8
0
6
CONTINUOUS
10
-0.066794
20
0.026951
30
0.0
11
-0.063506
21
0.024420
31
0.0
0
LINE
8
0
6
CONTINUOUS
10
-0.063506
20
0.024420
30
0.0
11
-0.062160
21
0.024420
31
0.0
0
LINE
8
0
6
CONTINUOUS
10
-0.083583
20
0.026981
30
0.0
11
-0.076930
21
0.024420
31
0.0
0
LINE
8
0
6
CONTINUOUS
10
-0.074236
20
0.024420
30
0.0
11
-0.067583
21
0.026981
31
0.0
0
LINE
8
0
6
CONTINUOUS
10
-0.076930
20
0.024420
30
0.0
11
-0.074236
21
0.024420
31
0.0
0
LINE
8
0
6
CONTINUOUS
10
-0.062160
20
0.042366
30
0.0
11
-0.058872
21
0.039835
31
0.0
0
LINE
8
0
6
CONTINUOUS
10
-0.074236
20
0.042366
30
0.0
11
-0.067583
21
0.039805
31
0.0
0
LINE
8
0
6
CONTINUOUS
10
-0.066794
20
0.039835
30
0.0
11
-0.063506
21
0.042366
31
0.0
0
LINE
8
0
6
CONTINUOUS
10
-0.083583
20
0.039805
30
0.0
11
-0.076930
21
0.042366
31
0.0
0
LINE
8
0
6
CONTINUOUS
10
-0.084372
20
0.039835
30
0.0
11
-0.087660
21
0.042366
31
0.0
0
LINE
8
0
6
CONTINUOUS
10
-0.089006
20
0.042366
30
0.0
11
-0.092333
21
0.039805
31
0.0
0
LINE
8
0
6
CONTINUOUS
10
-0.092333
20
0.039805
30
0.0
11
-0.092333
21
0.026981
31
0.0
0
LINE
8
0
6
CONTINUOUS
10
-0.087660
20
0.042366
30
0.0
11
-0.089006
21
0.042366
31
0.0
0
LINE
8
0
6
CONTINUOUS
10
-0.089006
20
0.024420
30
0.0
11
-0.087660
21
0.024420
31
0.0
0
LINE
8
0
6
CONTINUOUS
10
-0.092333
20
0.026981
30
0.0
11
-0.089006
21
0.024420
31
0.0
0
LINE
8
0
6
CONTINUOUS
10
-0.087660
20
0.024420
30
0.0
11
-0.084372
21
0.026951
31
0.0
0
LINE
8
0
6
CONTINUOUS
10
-0.058833
20
0.039805
30
0.0
11
-0.058872
21
0.039835
31
0.0
0
LINE
8
0
6
CONTINUOUS
10
-0.058833
20
0.026981
30
0.0
11
-0.058833
21
0.039805
31
0.0
0
LINE
8
0
6
CONTINUOUS
10
-0.058872
20
0.026951
30
0.0
11
-0.058833
21
0.026981
31
0.0
0
LINE
8
0
6
CONTINUOUS
10
-0.058872
20
0.039835
30
0.0
11
-0.058872
21
0.026951
31
0.0
0
LINE
8
0
6
CONTINUOUS
10
-0.083583
20
0.039805
30
0.0
11
-0.084372
21
0.039835
31
0.0
0
LINE
8
0
6
CONTINUOUS
10
-0.083583
20
0.026981
30
0.0
11
-0.083583
21
0.039805
31
0.0
0
LINE
8
0
6
CONTINUOUS
10
-0.084372
20
0.026951
30
0.0
11
-0.083583
21
0.026981
31
0.0
0
LINE
8
0
6
CONTINUOUS
10
-0.084372
20
0.039835
30
0.0
11
-0.084372
21
0.026951
31
0.0
0
LINE
8
0
6
CONTINUOUS
10
-0.067583
20
0.039805
30
0.0
11
-0.067583
21
0.026981
31
0.0
0
LINE
8
0
6
CONTINUOUS
10
-0.066794
20
0.039835
30
0.0
11
-0.067583
21
0.039805
31
0.0
0
LINE
8
0
6
CONTINUOUS
10
-0.066794
20
0.026951
30
0.0
11
-0.066794
21
0.039835
31
0.0
0
LINE
8
0
6
CONTINUOUS
10
-0.067583
20
0.026981
30
0.0
11
-0.066794
21
0.026951
31
0.0
0
LINE
8
0
6
CONTINUOUS
10
-0.039500
20
0.066916
30
0.0
11
-0.040081
21
0.066916
31
0.0
0
LINE
8
0
6
CONTINUOUS
10
-0.106984
20
0.066916
30
0.0
11
-0.106461
21
0.066916
31
0.0
0
LINE
8
0
6
CONTINUOUS
10
-0.060293
20
0.042029
30
0.0
11
-0.060051
21
0.042254
31
0.0
0
LINE
8
0
6
CONTINUOUS
10
-0.060662
20
0.042029
30
0.0
11
-0.060293
21
0.042029
31
0.0
0
LINE
8
0
6
CONTINUOUS
10
-0.061750
20
0.042029
30
0.0
11
-0.060662
21
0.042029
31
0.0
0
LINE
8
0
6
CONTINUOUS
10
-0.063502
20
0.042029
30
0.0
11
-0.061750
21
0.042029
31
0.0
0
LINE
8
0
6
CONTINUOUS
10
-0.065831
20
0.042029
30
0.0
11
-0.063502
21
0.042029
31
0.0
0
LINE
8
0
6
CONTINUOUS
10
-0.068619
20
0.042029
30
0.0
11
-0.065831
21
0.042029
31
0.0
0
LINE
8
0
6
CONTINUOUS
10
-0.071727
20
0.042029
30
0.0
11
-0.068619
21
0.042029
31
0.0
0
LINE
8
0
6
CONTINUOUS
10
-0.075000
20
0.042029
30
0.0
11
-0.071727
21
0.042029
31
0.0
0
LINE
8
0
6
CONTINUOUS
10
-0.078273
20
0.042029
30
0.0
11
-0.077810
21
0.042029
31
0.0
0
LINE
8
0
6
CONTINUOUS
10
-0.077805
20
0.042029
30
0.0
11
-0.075000
21
0.042029
31
0.0
0
LINE
8
0
6
CONTINUOUS
10
-0.081381
20
0.042029
30
0.0
11
-0.078273
21
0.042029
31
0.0
0
LINE
8
0
6
CONTINUOUS
10
-0.084169
20
0.042029
30
0.0
11
-0.081381
21
0.042029
31
0.0
0
LINE
8
0
6
CONTINUOUS
10
-0.086019
20
0.042029
30
0.0
11
-0.084169
21
0.042029
31
0.0
0
LINE
8
0
6
CONTINUOUS
10
-0.089707
20
0.042029
30
0.0
11
-0.089338
21
0.042029
31
0.0
0
LINE
8
0
6
CONTINUOUS
10
-0.089949
20
0.042254
30
0.0
11
-0.089707
21
0.042029
31
0.0
0
LINE
8
0
6
CONTINUOUS
10
-0.060051
20
0.042254
30
0.0
11
-0.040358
21
0.060225
31
0.0
0
LINE
8
0
6
CONTINUOUS
10
-0.109642
20
0.060225
30
0.0
11
-0.089949
21
0.042254
31
0.0
0
LINE
8
0
6
CONTINUOUS
10
-0.040005
20
0.060539
30
0.0
11
-0.039649
21
0.061050
31
0.0
0
LINE
8
0
6
CONTINUOUS
10
-0.039649
20
0.061050
30
0.0
11
-0.039500
21
0.061647
31
0.0
0
LINE
8
0
6
CONTINUOUS
10
-0.110351
20
0.061050
30
0.0
11
-0.109995
21
0.060539
31
0.0
0
LINE
8
0
6
CONTINUOUS
10
-0.110500
20
0.061647
30
0.0
11
-0.110351
21
0.061050
31
0.0
0
LINE
8
0
6
CONTINUOUS
10
-0.039500
20
0.066492
30
0.0
11
-0.039500
21
0.066916
31
0.0
0
LINE
8
0
6
CONTINUOUS
10
-0.039500
20
0.066916
30
0.0
11
-0.040390
21
0.066916
31
0.0
0
LINE
8
0
6
CONTINUOUS
10
-0.040390
20
0.066916
30
0.0
11
-0.043016
21
0.066916
31
0.0
0
LINE
8
0
6
CONTINUOUS
10
-0.043016
20
0.066916
30
0.0
11
-0.047245
21
0.066916
31
0.0
0
LINE
8
0
6
CONTINUOUS
10
-0.047245
20
0.066916
30
0.0
11
-0.052866
21
0.066916
31
0.0
0
LINE
8
0
6
CONTINUOUS
10
-0.052866
20
0.066916
30
0.0
11
-0.059597
21
0.066916
31
0.0
0
LINE
8
0
6
CONTINUOUS
10
-0.059597
20
0.066916
30
0.0
11
-0.067100
21
0.066916
31
0.0
0
LINE
8
0
6
CONTINUOUS
10
-0.067100
20
0.066916
30
0.0
11
-0.075000
21
0.066916
31
0.0
0
LINE
8
0
6
CONTINUOUS
10
-0.075000
20
0.066916
30
0.0
11
-0.082899
21
0.066916
31
0.0
0
LINE
8
0
6
CONTINUOUS
10
-0.082899
20
0.066916
30
0.0
11
-0.090403
21
0.066916
31
0.0
0
LINE
8
0
6
CONTINUOUS
10
-0.090403
20
0.066916
30
0.0
11
-0.097134
21
0.066916
31
0.0
0
LINE
8
0
6
CONTINUOUS
10
-0.097134
20
0.066916
30
0.0
11
-0.102755
21
0.066916
31
0.0
0
LINE
8
0
6
CONTINUOUS
10
-0.102755
20
0.066916
30
0.0
11
-0.106984
21
0.066916
31
0.0
0
LINE
8
0
6
CONTINUOUS
10
-0.106984
20
0.066916
30
0.0
11
-0.109610
21
0.066916
31
0.0
0
LINE
8
0
6
CONTINUOUS
10
-0.110500
20
0.066916
30
0.0
11
-0.110500
21
0.066492
31
0.0
0
LINE
8
0
6
CONTINUOUS
10
-0.109610
20
0.066916
30
0.0
11
-0.110500
21
0.066916
31
0.0
0
LINE
8
0
6
CONTINUOUS
10
-0.039500
20
0.062025
30
0.0
11
-0.039500
21
0.066492
31
0.0
0
LINE
8
0
6
CONTINUOUS
10
-0.110500
20
0.066492
30
0.0
11
-0.110500
21
0.062025
31
0.0
0
LINE
8
0
6
CONTINUOUS
10
-0.039500
20
0.061647
30
0.0
11
-0.039500
21
0.062025
31
0.0
0
LINE
8
0
6
CONTINUOUS
10
-0.110500
20
0.062025
30
0.0
11
-0.110500
21
0.061647
31
0.0
0
LINE
8
0
6
CONTINUOUS
10
-0.040358
20
0.060225
30
0.0
11
-0.040005
21
0.060539
31
0.0
0
LINE
8
0
6
CONTINUOUS
10
-0.109995
20
0.060539
30
0.0
11
-0.109642
21
0.060225
31
0.0
0
LINE
8
0
6
CONTINUOUS
10
-0.040081
20
0.066916
30
0.0
11
-0.075000
21
0.066916
31
0.0
0
LINE
8
0
6
CONTINUOUS
10
-0.075000
20
0.066916
30
0.0
11
-0.040956
21
0.066916
31
0.0
0
LINE
8
0
6
CONTINUOUS
10
-0.043539
20
0.066916
30
0.0
11
-0.075000
21
0.066916
31
0.0
0
LINE
8
0
6
CONTINUOUS
10
-0.075000
20
0.066916
30
0.0
11
-0.047699
21
0.066916
31
0.0
0
LINE
8
0
6
CONTINUOUS
10
-0.096772
20
0.066916
30
0.0
11
-0.075000
21
0.066916
31
0.0
0
LINE
8
0
6
CONTINUOUS
10
-0.075000
20
0.066916
30
0.0
11
-0.102301
21
0.066916
31
0.0
0
LINE
8
0
6
CONTINUOUS
10
-0.106461
20
0.066916
30
0.0
11
-0.075000
21
0.066916
31
0.0
0
LINE
8
0
6
CONTINUOUS
10
-0.075000
20
0.066916
30
0.0
11
-0.109044
21
0.066916
31
0.0
0
ENDSEC
0
EOF
