999
Erzeugt mit innoplus bad 
0
SECTION
2
HEADER
9
$ACADVER
1
AC1009
9
$DWGCODEPAGE
3
ISO8859-1
0
ENDSEC
0
SECTION
2
TABLES
0
TABLE
2
LAYER
70
1
0
LAYER
2
0
70
0
62
7
6
CONTINUOUS
0
ENDTAB
0
ENDSEC
0
SECTION
2
ENTITIES
0
LINE
8
0
6
CONTINUOUS
10
0.183628
20
-0.066960
30
0.0
11
0.196381
21
-0.067578
31
0.0
0
LINE
8
0
6
CONTINUOUS
10
0.170879
20
-0.064986
30
0.0
11
0.183628
21
-0.066960
31
0.0
0
LINE
8
0
6
CONTINUOUS
10
0.161932
20
-0.062351
30
0.0
11
0.170879
21
-0.064986
31
0.0
0
LINE
8
0
6
CONTINUOUS
10
0.150765
20
-0.053822
30
0.0
11
0.155896
21
-0.058786
31
0.0
0
LINE
8
0
6
CONTINUOUS
10
0.155896
20
-0.058786
30
0.0
11
0.161932
21
-0.062351
31
0.0
0
LINE
8
0
6
CONTINUOUS
10
0.145878
20
0.004425
30
0.0
11
0.143554
21
-0.002855
31
0.0
0
LINE
8
0
6
CONTINUOUS
10
0.154979
20
0.015481
30
0.0
11
0.151216
21
0.012464
31
0.0
0
LINE
8
0
6
CONTINUOUS
10
0.189801
20
0.088745
30
0.0
11
0.186825
21
0.087032
31
0.0
0
LINE
8
0
6
CONTINUOUS
10
0.184096
20
0.084336
30
0.0
11
0.184090
21
0.084274
31
0.0
0
LINE
8
0
6
CONTINUOUS
10
0.184420
20
0.084728
30
0.0
11
0.184096
21
0.084336
31
0.0
0
LINE
8
0
6
CONTINUOUS
10
0.182770
20
0.076736
30
0.0
11
0.181242
21
0.061870
31
0.0
0
LINE
8
0
6
CONTINUOUS
10
0.182847
20
0.077312
30
0.0
11
0.182770
21
0.076736
31
0.0
0
LINE
8
0
6
CONTINUOUS
10
0.181386
20
0.062484
30
0.0
11
0.182847
21
0.077312
31
0.0
0
LINE
8
0
6
CONTINUOUS
10
0.181242
20
0.061870
30
0.0
11
0.180108
21
0.049936
31
0.0
0
LINE
8
0
6
CONTINUOUS
10
0.180271
20
0.050694
30
0.0
11
0.181386
21
0.062484
31
0.0
0
LINE
8
0
6
CONTINUOUS
10
0.180108
20
0.049936
30
0.0
11
0.179036
21
0.040541
31
0.0
0
LINE
8
0
6
CONTINUOUS
10
0.179212
20
0.041448
30
0.0
11
0.180271
21
0.050694
31
0.0
0
LINE
8
0
6
CONTINUOUS
10
0.179036
20
0.040541
30
0.0
11
0.178009
21
0.033909
31
0.0
0
LINE
8
0
6
CONTINUOUS
10
0.179212
20
0.041448
30
0.0
11
0.178201
21
0.034869
31
0.0
0
LINE
8
0
6
CONTINUOUS
10
0.176187
20
0.030166
30
0.0
11
0.172168
21
0.025271
31
0.0
0
LINE
8
0
6
CONTINUOUS
10
0.173145
20
0.026231
30
0.0
11
0.176857
21
0.030687
31
0.0
0
LINE
8
0
6
CONTINUOUS
10
0.173145
20
0.026231
30
0.0
11
0.168948
21
0.023110
31
0.0
0
LINE
8
0
6
CONTINUOUS
10
0.150256
20
-0.042825
30
0.0
11
0.146784
21
-0.036948
31
0.0
0
LINE
8
0
6
CONTINUOUS
10
0.142141
20
-0.018218
30
0.0
11
0.142169
21
-0.018669
31
0.0
0
LINE
8
0
6
CONTINUOUS
10
0.143526
20
-0.002954
30
0.0
11
0.142366
21
-0.010814
31
0.0
0
LINE
8
0
6
CONTINUOUS
10
0.145847
20
0.004463
30
0.0
11
0.143526
21
-0.002954
31
0.0
0
LINE
8
0
6
CONTINUOUS
10
0.196381
20
-0.056830
30
0.0
11
0.183773
21
-0.056413
31
0.0
0
LINE
8
0
6
CONTINUOUS
10
0.196381
20
-0.058465
30
0.0
11
0.182944
21
-0.057789
31
0.0
0
LINE
8
0
6
CONTINUOUS
10
0.183773
20
-0.056413
30
0.0
11
0.171404
21
-0.054751
31
0.0
0
LINE
8
0
6
CONTINUOUS
10
0.182944
20
-0.057789
30
0.0
11
0.170211
21
-0.055736
31
0.0
0
LINE
8
0
6
CONTINUOUS
10
0.171404
20
-0.054751
30
0.0
11
0.162443
21
-0.052285
31
0.0
0
LINE
8
0
6
CONTINUOUS
10
0.155648
20
-0.048059
30
0.0
11
0.150256
21
-0.042825
31
0.0
0
LINE
8
0
6
CONTINUOUS
10
0.154575
20
-0.049021
30
0.0
11
0.149338
21
-0.043783
31
0.0
0
LINE
8
0
6
CONTINUOUS
10
0.162443
20
-0.052285
30
0.0
11
0.155648
21
-0.048059
31
0.0
0
LINE
8
0
6
CONTINUOUS
10
0.160956
20
-0.052938
30
0.0
11
0.154575
21
-0.049021
31
0.0
0
LINE
8
0
6
CONTINUOUS
10
0.167395
20
0.022163
30
0.0
11
0.158884
21
0.017774
31
0.0
0
LINE
8
0
6
CONTINUOUS
10
0.178201
20
0.034869
30
0.0
11
0.176187
21
0.030166
31
0.0
0
LINE
8
0
6
CONTINUOUS
10
0.170225
20
0.022831
30
0.0
11
0.166919
21
0.021261
31
0.0
0
LINE
8
0
6
CONTINUOUS
10
0.147374
20
-0.048028
30
0.0
11
0.150765
21
-0.053822
31
0.0
0
LINE
8
0
6
CONTINUOUS
10
0.146984
20
-0.047168
30
0.0
11
0.147374
21
-0.048028
31
0.0
0
LINE
8
0
6
CONTINUOUS
10
0.142475
20
-0.023927
30
0.0
11
0.143060
21
-0.030703
31
0.0
0
LINE
8
0
6
CONTINUOUS
10
0.142169
20
-0.018669
30
0.0
11
0.142475
21
-0.023927
31
0.0
0
LINE
8
0
6
CONTINUOUS
10
0.149338
20
-0.043783
30
0.0
11
0.145882
21
-0.037775
31
0.0
0
LINE
8
0
6
CONTINUOUS
10
0.193241
20
0.089820
30
0.0
11
0.189801
21
0.088745
31
0.0
0
LINE
8
0
6
CONTINUOUS
10
0.196380
20
0.090186
30
0.0
11
0.193241
21
0.089820
31
0.0
0
LINE
8
0
6
CONTINUOUS
10
0.184090
20
0.084274
30
0.0
11
0.182847
21
0.077312
31
0.0
0
LINE
8
0
6
CONTINUOUS
10
0.186825
20
0.087032
30
0.0
11
0.184420
21
0.084728
31
0.0
0
LINE
8
0
6
CONTINUOUS
10
0.151216
20
0.012464
30
0.0
11
0.148297
21
0.008946
31
0.0
0
LINE
8
0
6
CONTINUOUS
10
0.148297
20
0.008946
30
0.0
11
0.145847
21
0.004463
31
0.0
0
LINE
8
0
6
CONTINUOUS
10
0.145878
20
0.004425
30
0.0
11
0.148297
21
0.008946
31
0.0
0
LINE
8
0
6
CONTINUOUS
10
0.158884
20
0.017774
30
0.0
11
0.154979
21
0.015481
31
0.0
0
LINE
8
0
6
CONTINUOUS
10
0.142366
20
-0.010814
30
0.0
11
0.142141
21
-0.018218
31
0.0
0
LINE
8
0
6
CONTINUOUS
10
0.142571
20
-0.017862
30
0.0
11
0.142594
21
-0.010586
31
0.0
0
LINE
8
0
6
CONTINUOUS
10
0.143554
20
-0.002855
30
0.0
11
0.142594
21
-0.010586
31
0.0
0
LINE
8
0
6
CONTINUOUS
10
0.145088
20
-0.041284
30
0.0
11
0.146984
21
-0.047168
31
0.0
0
LINE
8
0
6
CONTINUOUS
10
0.146784
20
-0.036948
30
0.0
11
0.144858
21
-0.031071
31
0.0
0
LINE
8
0
6
CONTINUOUS
10
0.145882
20
-0.037775
30
0.0
11
0.143971
21
-0.031766
31
0.0
0
LINE
8
0
6
CONTINUOUS
10
0.143060
20
-0.030703
30
0.0
11
0.143729
21
-0.034878
31
0.0
0
LINE
8
0
6
CONTINUOUS
10
0.144858
20
-0.031071
30
0.0
11
0.143354
21
-0.024627
31
0.0
0
LINE
8
0
6
CONTINUOUS
10
0.143971
20
-0.031766
30
0.0
11
0.142695
21
-0.025153
31
0.0
0
LINE
8
0
6
CONTINUOUS
10
0.142571
20
-0.017862
30
0.0
11
0.143354
21
-0.024627
31
0.0
0
LINE
8
0
6
CONTINUOUS
10
0.143754
20
-0.035032
30
0.0
11
0.145088
21
-0.041284
31
0.0
0
LINE
8
0
6
CONTINUOUS
10
0.143729
20
-0.034878
30
0.0
11
0.143754
21
-0.035032
31
0.0
0
LINE
8
0
6
CONTINUOUS
10
0.196381
20
-0.067578
30
0.0
11
0.209133
21
-0.066960
31
0.0
0
LINE
8
0
6
CONTINUOUS
10
0.209133
20
-0.066960
30
0.0
11
0.221882
21
-0.064986
31
0.0
0
LINE
8
0
6
CONTINUOUS
10
0.221882
20
-0.064986
30
0.0
11
0.230829
21
-0.062351
31
0.0
0
LINE
8
0
6
CONTINUOUS
10
0.236865
20
-0.058786
30
0.0
11
0.241996
21
-0.053822
31
0.0
0
LINE
8
0
6
CONTINUOUS
10
0.230829
20
-0.062351
30
0.0
11
0.236865
21
-0.058786
31
0.0
0
LINE
8
0
6
CONTINUOUS
10
0.249207
20
-0.002855
30
0.0
11
0.246883
21
0.004425
31
0.0
0
LINE
8
0
6
CONTINUOUS
10
0.241545
20
0.012464
30
0.0
11
0.237782
21
0.015481
31
0.0
0
LINE
8
0
6
CONTINUOUS
10
0.205935
20
0.087032
30
0.0
11
0.202959
21
0.088745
31
0.0
0
LINE
8
0
6
CONTINUOUS
10
0.208664
20
0.084336
30
0.0
11
0.208340
21
0.084728
31
0.0
0
LINE
8
0
6
CONTINUOUS
10
0.208671
20
0.084275
30
0.0
11
0.208664
21
0.084336
31
0.0
0
LINE
8
0
6
CONTINUOUS
10
0.209914
20
0.077312
30
0.0
11
0.211375
21
0.062484
31
0.0
0
LINE
8
0
6
CONTINUOUS
10
0.209990
20
0.076736
30
0.0
11
0.209914
21
0.077312
31
0.0
0
LINE
8
0
6
CONTINUOUS
10
0.211519
20
0.061870
30
0.0
11
0.209990
21
0.076736
31
0.0
0
LINE
8
0
6
CONTINUOUS
10
0.211375
20
0.062484
30
0.0
11
0.212490
21
0.050694
31
0.0
0
LINE
8
0
6
CONTINUOUS
10
0.212653
20
0.049936
30
0.0
11
0.211519
21
0.061870
31
0.0
0
LINE
8
0
6
CONTINUOUS
10
0.212490
20
0.050694
30
0.0
11
0.213549
21
0.041448
31
0.0
0
LINE
8
0
6
CONTINUOUS
10
0.213725
20
0.040541
30
0.0
11
0.212653
21
0.049936
31
0.0
0
LINE
8
0
6
CONTINUOUS
10
0.214752
20
0.033909
30
0.0
11
0.213725
21
0.040541
31
0.0
0
LINE
8
0
6
CONTINUOUS
10
0.214560
20
0.034869
30
0.0
11
0.213549
21
0.041448
31
0.0
0
LINE
8
0
6
CONTINUOUS
10
0.215904
20
0.030687
30
0.0
11
0.219616
21
0.026231
31
0.0
0
LINE
8
0
6
CONTINUOUS
10
0.220593
20
0.025271
30
0.0
11
0.216574
21
0.030166
31
0.0
0
LINE
8
0
6
CONTINUOUS
10
0.223813
20
0.023110
30
0.0
11
0.219616
21
0.026231
31
0.0
0
LINE
8
0
6
CONTINUOUS
10
0.245977
20
-0.036948
30
0.0
11
0.242506
21
-0.042824
31
0.0
0
LINE
8
0
6
CONTINUOUS
10
0.250592
20
-0.018668
30
0.0
11
0.250620
21
-0.018218
31
0.0
0
LINE
8
0
6
CONTINUOUS
10
0.250395
20
-0.010814
30
0.0
11
0.249235
21
-0.002954
31
0.0
0
LINE
8
0
6
CONTINUOUS
10
0.249235
20
-0.002954
30
0.0
11
0.246914
21
0.004463
31
0.0
0
LINE
8
0
6
CONTINUOUS
10
0.208988
20
-0.056412
30
0.0
11
0.196381
21
-0.056830
31
0.0
0
LINE
8
0
6
CONTINUOUS
10
0.209817
20
-0.057789
30
0.0
11
0.196381
21
-0.058465
31
0.0
0
LINE
8
0
6
CONTINUOUS
10
0.221357
20
-0.054751
30
0.0
11
0.208988
21
-0.056412
31
0.0
0
LINE
8
0
6
CONTINUOUS
10
0.222550
20
-0.055736
30
0.0
11
0.209817
21
-0.057789
31
0.0
0
LINE
8
0
6
CONTINUOUS
10
0.230318
20
-0.052285
30
0.0
11
0.221357
21
-0.054751
31
0.0
0
LINE
8
0
6
CONTINUOUS
10
0.242506
20
-0.042824
30
0.0
11
0.237113
21
-0.048059
31
0.0
0
LINE
8
0
6
CONTINUOUS
10
0.243423
20
-0.043783
30
0.0
11
0.238186
21
-0.049021
31
0.0
0
LINE
8
0
6
CONTINUOUS
10
0.237113
20
-0.048059
30
0.0
11
0.230318
21
-0.052285
31
0.0
0
LINE
8
0
6
CONTINUOUS
10
0.238186
20
-0.049021
30
0.0
11
0.231805
21
-0.052938
31
0.0
0
LINE
8
0
6
CONTINUOUS
10
0.227767
20
0.020464
30
0.0
11
0.223813
21
0.023110
31
0.0
0
LINE
8
0
6
CONTINUOUS
10
0.233877
20
0.017774
30
0.0
11
0.225366
21
0.022163
31
0.0
0
LINE
8
0
6
CONTINUOUS
10
0.216574
20
0.030166
30
0.0
11
0.214560
21
0.034869
31
0.0
0
LINE
8
0
6
CONTINUOUS
10
0.245387
20
-0.048028
30
0.0
11
0.245777
21
-0.047168
31
0.0
0
LINE
8
0
6
CONTINUOUS
10
0.241996
20
-0.053822
30
0.0
11
0.245387
21
-0.048028
31
0.0
0
LINE
8
0
6
CONTINUOUS
10
0.250286
20
-0.023927
30
0.0
11
0.250592
21
-0.018668
31
0.0
0
LINE
8
0
6
CONTINUOUS
10
0.249701
20
-0.030702
30
0.0
11
0.250286
21
-0.023927
31
0.0
0
LINE
8
0
6
CONTINUOUS
10
0.246880
20
-0.037775
30
0.0
11
0.243423
21
-0.043783
31
0.0
0
LINE
8
0
6
CONTINUOUS
10
0.202959
20
0.088745
30
0.0
11
0.199520
21
0.089820
31
0.0
0
LINE
8
0
6
CONTINUOUS
10
0.199520
20
0.089820
30
0.0
11
0.196380
21
0.090186
31
0.0
0
LINE
8
0
6
CONTINUOUS
10
0.209914
20
0.077312
30
0.0
11
0.208671
21
0.084275
31
0.0
0
LINE
8
0
6
CONTINUOUS
10
0.208340
20
0.084728
30
0.0
11
0.205935
21
0.087032
31
0.0
0
LINE
8
0
6
CONTINUOUS
10
0.244464
20
0.008946
30
0.0
11
0.241545
21
0.012464
31
0.0
0
LINE
8
0
6
CONTINUOUS
10
0.246914
20
0.004463
30
0.0
11
0.244464
21
0.008946
31
0.0
0
LINE
8
0
6
CONTINUOUS
10
0.244464
20
0.008946
30
0.0
11
0.246883
21
0.004425
31
0.0
0
LINE
8
0
6
CONTINUOUS
10
0.237782
20
0.015481
30
0.0
11
0.233877
21
0.017774
31
0.0
0
LINE
8
0
6
CONTINUOUS
10
0.250167
20
-0.010585
30
0.0
11
0.250190
21
-0.017861
31
0.0
0
LINE
8
0
6
CONTINUOUS
10
0.250620
20
-0.018218
30
0.0
11
0.250395
21
-0.010814
31
0.0
0
LINE
8
0
6
CONTINUOUS
10
0.250167
20
-0.010585
30
0.0
11
0.249210
21
-0.002878
31
0.0
0
LINE
8
0
6
CONTINUOUS
10
0.245777
20
-0.047168
30
0.0
11
0.247674
21
-0.041284
31
0.0
0
LINE
8
0
6
CONTINUOUS
10
0.247903
20
-0.031071
30
0.0
11
0.245977
21
-0.036948
31
0.0
0
LINE
8
0
6
CONTINUOUS
10
0.248791
20
-0.031766
30
0.0
11
0.246880
21
-0.037775
31
0.0
0
LINE
8
0
6
CONTINUOUS
10
0.249032
20
-0.034878
30
0.0
11
0.249701
21
-0.030702
31
0.0
0
LINE
8
0
6
CONTINUOUS
10
0.249407
20
-0.024627
30
0.0
11
0.247903
21
-0.031071
31
0.0
0
LINE
8
0
6
CONTINUOUS
10
0.250066
20
-0.025153
30
0.0
11
0.248791
21
-0.031766
31
0.0
0
LINE
8
0
6
CONTINUOUS
10
0.249407
20
-0.024627
30
0.0
11
0.250190
21
-0.017861
31
0.0
0
LINE
8
0
6
CONTINUOUS
10
0.249007
20
-0.035032
30
0.0
11
0.249032
21
-0.034878
31
0.0
0
LINE
8
0
6
CONTINUOUS
10
0.247674
20
-0.041284
30
0.0
11
0.249007
21
-0.035032
31
0.0
0
LINE
8
0
6
CONTINUOUS
10
0.196381
20
0.091392
30
0.0
11
0.199709
21
0.090971
31
0.0
0
LINE
8
0
6
CONTINUOUS
10
0.205585
20
0.087964
30
0.0
11
0.207665
21
0.085474
31
0.0
0
LINE
8
0
6
CONTINUOUS
10
0.202829
20
0.089843
30
0.0
11
0.205585
21
0.087964
31
0.0
0
LINE
8
0
6
CONTINUOUS
10
0.199709
20
0.090971
30
0.0
11
0.202829
21
0.089843
31
0.0
0
LINE
8
0
6
CONTINUOUS
10
0.193053
20
0.090971
30
0.0
11
0.196381
21
0.091392
31
0.0
0
LINE
8
0
6
CONTINUOUS
10
0.185097
20
0.085474
30
0.0
11
0.187177
21
0.087964
31
0.0
0
LINE
8
0
6
CONTINUOUS
10
0.189933
20
0.089843
30
0.0
11
0.193053
21
0.090971
31
0.0
0
LINE
8
0
6
CONTINUOUS
10
0.187177
20
0.087964
30
0.0
11
0.189933
21
0.089843
31
0.0
0
LINE
8
0
6
CONTINUOUS
10
0.189728
20
0.111267
30
0.0
11
0.183458
21
0.108667
31
0.0
0
LINE
8
0
6
CONTINUOUS
10
0.170381
20
0.086185
30
0.0
11
0.171299
21
0.079532
31
0.0
0
LINE
8
0
6
CONTINUOUS
10
0.203034
20
0.111267
30
0.0
11
0.196381
21
0.112185
31
0.0
0
LINE
8
0
6
CONTINUOUS
10
0.221463
20
0.092838
30
0.0
11
0.218863
21
0.099109
31
0.0
0
LINE
8
0
6
CONTINUOUS
10
0.214734
20
0.067832
30
0.0
11
0.218863
21
0.073262
31
0.0
0
LINE
8
0
6
CONTINUOUS
10
0.218863
20
0.099109
30
0.0
11
0.214734
21
0.104538
31
0.0
0
LINE
8
0
6
CONTINUOUS
10
0.173899
20
0.073262
30
0.0
11
0.178028
21
0.067832
31
0.0
0
LINE
8
0
6
CONTINUOUS
10
0.183458
20
0.108667
30
0.0
11
0.178028
21
0.104538
31
0.0
0
LINE
8
0
6
CONTINUOUS
10
0.221463
20
0.079532
30
0.0
11
0.222381
21
0.086185
31
0.0
0
LINE
8
0
6
CONTINUOUS
10
0.171299
20
0.092838
30
0.0
11
0.170381
21
0.086185
31
0.0
0
LINE
8
0
6
CONTINUOUS
10
0.214734
20
0.104538
30
0.0
11
0.209304
21
0.108667
31
0.0
0
LINE
8
0
6
CONTINUOUS
10
0.178028
20
0.104538
30
0.0
11
0.173899
21
0.099109
31
0.0
0
LINE
8
0
6
CONTINUOUS
10
0.218863
20
0.073262
30
0.0
11
0.221463
21
0.079532
31
0.0
0
LINE
8
0
6
CONTINUOUS
10
0.222381
20
0.086185
30
0.0
11
0.221463
21
0.092838
31
0.0
0
LINE
8
0
6
CONTINUOUS
10
0.211183
20
0.065132
30
0.0
11
0.214734
21
0.067832
31
0.0
0
LINE
8
0
6
CONTINUOUS
10
0.196381
20
0.112185
30
0.0
11
0.189728
21
0.111267
31
0.0
0
LINE
8
0
6
CONTINUOUS
10
0.209304
20
0.108667
30
0.0
11
0.203034
21
0.111267
31
0.0
0
LINE
8
0
6
CONTINUOUS
10
0.171299
20
0.079532
30
0.0
11
0.173899
21
0.073262
31
0.0
0
LINE
8
0
6
CONTINUOUS
10
0.189933
20
0.097469
30
0.0
11
0.187177
21
0.095389
31
0.0
0
LINE
8
0
6
CONTINUOUS
10
0.178028
20
0.067832
30
0.0
11
0.181577
21
0.065133
31
0.0
0
LINE
8
0
6
CONTINUOUS
10
0.173899
20
0.099109
30
0.0
11
0.171299
21
0.092838
31
0.0
0
LINE
8
0
6
CONTINUOUS
10
0.187177
20
0.095389
30
0.0
11
0.185097
21
0.092633
31
0.0
0
LINE
8
0
6
CONTINUOUS
10
0.193053
20
0.098717
30
0.0
11
0.189933
21
0.097477
31
0.0
0
LINE
8
0
6
CONTINUOUS
10
0.202829
20
0.097477
30
0.0
11
0.199709
21
0.098717
31
0.0
0
LINE
8
0
6
CONTINUOUS
10
0.199709
20
0.098717
30
0.0
11
0.196381
21
0.099185
31
0.0
0
LINE
8
0
6
CONTINUOUS
10
0.209381
20
0.085268
30
0.0
11
0.209381
21
0.086171
31
0.0
0
LINE
8
0
6
CONTINUOUS
10
0.209381
20
0.086171
30
0.0
11
0.208913
21
0.089567
31
0.0
0
LINE
8
0
6
CONTINUOUS
10
0.196381
20
0.099185
30
0.0
11
0.193053
21
0.098717
31
0.0
0
LINE
8
0
6
CONTINUOUS
10
0.183381
20
0.086171
30
0.0
11
0.183381
21
0.085268
31
0.0
0
LINE
8
0
6
CONTINUOUS
10
0.183849
20
0.089567
30
0.0
11
0.183381
21
0.086171
31
0.0
0
LINE
8
0
6
CONTINUOUS
10
0.209381
20
0.080040
30
0.0
11
0.209381
21
0.085268
31
0.0
0
LINE
8
0
6
CONTINUOUS
10
0.205585
20
0.095387
30
0.0
11
0.202829
21
0.097476
31
0.0
0
LINE
8
0
6
CONTINUOUS
10
0.185097
20
0.092629
30
0.0
11
0.183849
21
0.089560
31
0.0
0
LINE
8
0
6
CONTINUOUS
10
0.183381
20
0.085268
30
0.0
11
0.183381
21
0.080040
31
0.0
0
LINE
8
0
6
CONTINUOUS
10
-0.030064
20
0.074417
30
0.0
11
-0.030069
21
0.087165
31
0.0
0
LINE
8
0
6
CONTINUOUS
10
-0.038106
20
-0.123813
30
0.0
11
-0.035696
21
-0.123813
31
0.0
0
LINE
8
0
6
CONTINUOUS
10
-0.031903
20
-0.121074
30
0.0
11
-0.031857
21
-0.119079
31
0.0
0
LINE
8
0
6
CONTINUOUS
10
-0.031857
20
-0.119079
30
0.0
11
-0.030060
21
0.061670
31
0.0
0
LINE
8
0
6
CONTINUOUS
10
-0.053620
20
-0.123813
30
0.0
11
-0.038106
21
-0.123813
31
0.0
0
LINE
8
0
6
CONTINUOUS
10
-0.032722
20
-0.123248
30
0.0
11
-0.031903
21
-0.121074
31
0.0
0
LINE
8
0
6
CONTINUOUS
10
-0.035696
20
-0.123813
30
0.0
11
-0.032722
21
-0.123248
31
0.0
0
LINE
8
0
6
CONTINUOUS
10
-0.047522
20
0.109843
30
0.0
11
-0.053620
21
0.110576
31
0.0
0
LINE
8
0
6
CONTINUOUS
10
-0.030069
20
0.087165
30
0.0
11
-0.030862
21
0.093172
31
0.0
0
LINE
8
0
6
CONTINUOUS
10
-0.036960
20
0.103743
30
0.0
11
-0.041840
21
0.107489
31
0.0
0
LINE
8
0
6
CONTINUOUS
10
-0.033216
20
0.098859
30
0.0
11
-0.036960
21
0.103743
31
0.0
0
LINE
8
0
6
CONTINUOUS
10
-0.030862
20
0.093172
30
0.0
11
-0.033216
21
0.098859
31
0.0
0
LINE
8
0
6
CONTINUOUS
10
-0.041840
20
0.107489
30
0.0
11
-0.047522
21
0.109843
31
0.0
0
LINE
8
0
6
CONTINUOUS
10
-0.030060
20
0.061670
30
0.0
11
-0.030064
21
0.074417
31
0.0
0
LINE
8
0
6
CONTINUOUS
10
-0.029996
20
0.080535
30
0.0
11
-0.030069
21
0.087165
31
0.0
0
LINE
8
0
6
CONTINUOUS
10
-0.030103
20
0.073528
30
0.0
11
-0.029996
21
0.080535
31
0.0
0
LINE
8
0
6
CONTINUOUS
10
-0.077170
20
0.087165
30
0.0
11
-0.077175
21
0.074417
31
0.0
0
LINE
8
0
6
CONTINUOUS
10
-0.071543
20
-0.123813
30
0.0
11
-0.069134
21
-0.123813
31
0.0
0
LINE
8
0
6
CONTINUOUS
10
-0.075382
20
-0.119079
30
0.0
11
-0.075337
21
-0.121074
31
0.0
0
LINE
8
0
6
CONTINUOUS
10
-0.077180
20
0.061670
30
0.0
11
-0.075382
21
-0.119079
31
0.0
0
LINE
8
0
6
CONTINUOUS
10
-0.069134
20
-0.123813
30
0.0
11
-0.053620
21
-0.123813
31
0.0
0
LINE
8
0
6
CONTINUOUS
10
-0.075337
20
-0.121074
30
0.0
11
-0.074517
21
-0.123248
31
0.0
0
LINE
8
0
6
CONTINUOUS
10
-0.074517
20
-0.123248
30
0.0
11
-0.071543
21
-0.123813
31
0.0
0
LINE
8
0
6
CONTINUOUS
10
-0.053620
20
0.110576
30
0.0
11
-0.059718
21
0.109843
31
0.0
0
LINE
8
0
6
CONTINUOUS
10
-0.076377
20
0.093172
30
0.0
11
-0.077170
21
0.087165
31
0.0
0
LINE
8
0
6
CONTINUOUS
10
-0.065400
20
0.107489
30
0.0
11
-0.070279
21
0.103743
31
0.0
0
LINE
8
0
6
CONTINUOUS
10
-0.070279
20
0.103743
30
0.0
11
-0.074023
21
0.098859
31
0.0
0
LINE
8
0
6
CONTINUOUS
10
-0.074023
20
0.098859
30
0.0
11
-0.076377
21
0.093172
31
0.0
0
LINE
8
0
6
CONTINUOUS
10
-0.059718
20
0.109843
30
0.0
11
-0.065400
21
0.107489
31
0.0
0
LINE
8
0
6
CONTINUOUS
10
-0.077175
20
0.074417
30
0.0
11
-0.077180
21
0.061670
31
0.0
0
LINE
8
0
6
CONTINUOUS
10
-0.077170
20
0.087165
30
0.0
11
-0.077243
21
0.080535
31
0.0
0
LINE
8
0
6
CONTINUOUS
10
-0.077243
20
0.080535
30
0.0
11
-0.077137
21
0.073528
31
0.0
0
LINE
8
0
6
CONTINUOUS
10
-0.056427
20
0.123313
30
0.0
11
-0.056427
21
0.110238
31
0.0
0
LINE
8
0
6
CONTINUOUS
10
-0.055605
20
0.123313
30
0.0
11
-0.055605
21
0.110337
31
0.0
0
LINE
8
0
6
CONTINUOUS
10
-0.053620
20
0.123313
30
0.0
11
-0.053620
21
0.110576
31
0.0
0
LINE
8
0
6
CONTINUOUS
10
-0.050812
20
0.110238
30
0.0
11
-0.050812
21
0.123313
31
0.0
0
LINE
8
0
6
CONTINUOUS
10
-0.051634
20
0.123313
30
0.0
11
-0.051634
21
0.110337
31
0.0
0
LINE
8
0
6
CONTINUOUS
10
-0.056427
20
0.123813
30
0.0
11
-0.056427
21
0.123313
31
0.0
0
LINE
8
0
6
CONTINUOUS
10
-0.055605
20
0.123813
30
0.0
11
-0.056427
21
0.123813
31
0.0
0
LINE
8
0
6
CONTINUOUS
10
-0.055605
20
0.123813
30
0.0
11
-0.055605
21
0.123313
31
0.0
0
LINE
8
0
6
CONTINUOUS
10
-0.053620
20
0.123813
30
0.0
11
-0.055605
21
0.123813
31
0.0
0
LINE
8
0
6
CONTINUOUS
10
-0.053620
20
0.123813
30
0.0
11
-0.053620
21
0.123313
31
0.0
0
LINE
8
0
6
CONTINUOUS
10
-0.051634
20
0.123813
30
0.0
11
-0.053620
21
0.123813
31
0.0
0
LINE
8
0
6
CONTINUOUS
10
-0.051634
20
0.123813
30
0.0
11
-0.051634
21
0.123313
31
0.0
0
LINE
8
0
6
CONTINUOUS
10
-0.050812
20
0.123813
30
0.0
11
-0.051634
21
0.123813
31
0.0
0
LINE
8
0
6
CONTINUOUS
10
-0.050812
20
0.123313
30
0.0
11
-0.050812
21
0.123813
31
0.0
0
LINE
8
0
6
CONTINUOUS
10
-0.018620
20
0.086185
30
0.0
11
-0.019497
21
0.093973
31
0.0
0
LINE
8
0
6
CONTINUOUS
10
-0.019497
20
0.093973
30
0.0
11
-0.022086
21
0.101371
31
0.0
0
LINE
8
0
6
CONTINUOUS
10
-0.022086
20
0.101371
30
0.0
11
-0.026256
21
0.108007
31
0.0
0
LINE
8
0
6
CONTINUOUS
10
-0.026256
20
0.108007
30
0.0
11
-0.031798
21
0.113549
31
0.0
0
LINE
8
0
6
CONTINUOUS
10
-0.031798
20
0.113549
30
0.0
11
-0.038434
21
0.117719
31
0.0
0
LINE
8
0
6
CONTINUOUS
10
-0.038434
20
0.117719
30
0.0
11
-0.045831
21
0.120307
31
0.0
0
LINE
8
0
6
CONTINUOUS
10
-0.045831
20
0.120307
30
0.0
11
-0.050812
21
0.120869
31
0.0
0
LINE
8
0
6
CONTINUOUS
10
-0.056427
20
0.120869
30
0.0
11
-0.061408
21
0.120307
31
0.0
0
LINE
8
0
6
CONTINUOUS
10
-0.061408
20
0.120307
30
0.0
11
-0.068806
21
0.117719
31
0.0
0
LINE
8
0
6
CONTINUOUS
10
-0.068806
20
0.117719
30
0.0
11
-0.075442
21
0.113549
31
0.0
0
LINE
8
0
6
CONTINUOUS
10
-0.075442
20
0.113549
30
0.0
11
-0.080984
21
0.108007
31
0.0
0
LINE
8
0
6
CONTINUOUS
10
-0.080984
20
0.108007
30
0.0
11
-0.085154
21
0.101371
31
0.0
0
LINE
8
0
6
CONTINUOUS
10
-0.085154
20
0.101371
30
0.0
11
-0.087742
21
0.093973
31
0.0
0
LINE
8
0
6
CONTINUOUS
10
-0.087742
20
0.093973
30
0.0
11
-0.088620
21
0.086185
31
0.0
0
LINE
8
0
6
CONTINUOUS
10
-0.088620
20
0.086185
30
0.0
11
-0.087742
21
0.078397
31
0.0
0
LINE
8
0
6
CONTINUOUS
10
-0.087742
20
0.078397
30
0.0
11
-0.085154
21
0.070999
31
0.0
0
LINE
8
0
6
CONTINUOUS
10
-0.085154
20
0.070999
30
0.0
11
-0.080984
21
0.064363
31
0.0
0
LINE
8
0
6
CONTINUOUS
10
-0.080984
20
0.064363
30
0.0
11
-0.077169
21
0.060548
31
0.0
0
LINE
8
0
6
CONTINUOUS
10
-0.030071
20
0.060548
30
0.0
11
-0.026256
21
0.064363
31
0.0
0
LINE
8
0
6
CONTINUOUS
10
-0.026256
20
0.064363
30
0.0
11
-0.022086
21
0.070999
31
0.0
0
LINE
8
0
6
CONTINUOUS
10
-0.022086
20
0.070999
30
0.0
11
-0.019497
21
0.078397
31
0.0
0
LINE
8
0
6
CONTINUOUS
10
-0.019497
20
0.078397
30
0.0
11
-0.018620
21
0.086185
31
0.0
0
LINE
8
0
6
CONTINUOUS
10
0.071397
20
0.071233
30
0.0
11
0.075280
21
0.071503
31
0.0
0
LINE
8
0
6
CONTINUOUS
10
0.056444
20
0.086185
30
0.0
11
0.056954
21
0.082315
31
0.0
0
LINE
8
0
6
CONTINUOUS
10
0.056954
20
0.082315
30
0.0
11
0.058448
21
0.078709
31
0.0
0
LINE
8
0
6
CONTINUOUS
10
0.058448
20
0.078709
30
0.0
11
0.060824
21
0.075612
31
0.0
0
LINE
8
0
6
CONTINUOUS
10
0.060824
20
0.075612
30
0.0
11
0.063920
21
0.073236
31
0.0
0
LINE
8
0
6
CONTINUOUS
10
0.063920
20
0.073236
30
0.0
11
0.067527
21
0.071742
31
0.0
0
LINE
8
0
6
CONTINUOUS
10
0.067527
20
0.071742
30
0.0
11
0.071397
21
0.071233
31
0.0
0
LINE
8
0
6
CONTINUOUS
10
0.142505
20
0.078249
30
0.0
11
0.143380
21
0.081123
31
0.0
0
LINE
8
0
6
CONTINUOUS
10
0.140089
20
0.076068
30
0.0
11
0.142505
21
0.078249
31
0.0
0
LINE
8
0
6
CONTINUOUS
10
0.143380
20
0.081123
30
0.0
11
0.143380
21
0.083654
31
0.0
0
LINE
8
0
6
CONTINUOUS
10
0.116021
20
0.073910
30
0.0
11
0.126369
21
0.074508
31
0.0
0
LINE
8
0
6
CONTINUOUS
10
0.143380
20
0.083654
30
0.0
11
0.143380
21
0.086185
31
0.0
0
LINE
8
0
6
CONTINUOUS
10
0.097181
20
0.072713
30
0.0
11
0.103207
21
0.073112
31
0.0
0
LINE
8
0
6
CONTINUOUS
10
0.136717
20
0.075107
30
0.0
11
0.140089
21
0.076068
31
0.0
0
LINE
8
0
6
CONTINUOUS
10
0.126369
20
0.074508
30
0.0
11
0.136717
21
0.075107
31
0.0
0
LINE
8
0
6
CONTINUOUS
10
0.103207
20
0.073112
30
0.0
11
0.109234
21
0.073511
31
0.0
0
LINE
8
0
6
CONTINUOUS
10
0.109234
20
0.073511
30
0.0
11
0.116021
21
0.073910
31
0.0
0
LINE
8
0
6
CONTINUOUS
10
0.075280
20
0.071503
30
0.0
11
0.088042
21
0.072108
31
0.0
0
LINE
8
0
6
CONTINUOUS
10
0.088042
20
0.072108
30
0.0
11
0.097181
21
0.072713
31
0.0
0
LINE
8
0
6
CONTINUOUS
10
0.075280
20
0.100867
30
0.0
11
0.071397
21
0.101137
31
0.0
0
LINE
8
0
6
CONTINUOUS
10
0.056954
20
0.090055
30
0.0
11
0.056444
21
0.086185
31
0.0
0
LINE
8
0
6
CONTINUOUS
10
0.058448
20
0.093661
30
0.0
11
0.056954
21
0.090055
31
0.0
0
LINE
8
0
6
CONTINUOUS
10
0.060824
20
0.096758
30
0.0
11
0.058448
21
0.093661
31
0.0
0
LINE
8
0
6
CONTINUOUS
10
0.063920
20
0.099134
30
0.0
11
0.060824
21
0.096758
31
0.0
0
LINE
8
0
6
CONTINUOUS
10
0.067527
20
0.100628
30
0.0
11
0.063920
21
0.099134
31
0.0
0
LINE
8
0
6
CONTINUOUS
10
0.071397
20
0.101137
30
0.0
11
0.067527
21
0.100628
31
0.0
0
LINE
8
0
6
CONTINUOUS
10
0.143380
20
0.091247
30
0.0
11
0.142505
21
0.094121
31
0.0
0
LINE
8
0
6
CONTINUOUS
10
0.142505
20
0.094121
30
0.0
11
0.140089
21
0.096302
31
0.0
0
LINE
8
0
6
CONTINUOUS
10
0.143380
20
0.088716
30
0.0
11
0.143380
21
0.091247
31
0.0
0
LINE
8
0
6
CONTINUOUS
10
0.126369
20
0.097862
30
0.0
11
0.116021
21
0.098460
31
0.0
0
LINE
8
0
6
CONTINUOUS
10
0.143380
20
0.086185
30
0.0
11
0.143380
21
0.088716
31
0.0
0
LINE
8
0
6
CONTINUOUS
10
0.103207
20
0.099258
30
0.0
11
0.097181
21
0.099657
31
0.0
0
LINE
8
0
6
CONTINUOUS
10
0.140089
20
0.096302
30
0.0
11
0.136717
21
0.097263
31
0.0
0
LINE
8
0
6
CONTINUOUS
10
0.136717
20
0.097263
30
0.0
11
0.126369
21
0.097862
31
0.0
0
LINE
8
0
6
CONTINUOUS
10
0.109234
20
0.098859
30
0.0
11
0.103207
21
0.099258
31
0.0
0
LINE
8
0
6
CONTINUOUS
10
0.116021
20
0.098460
30
0.0
11
0.109234
21
0.098859
31
0.0
0
LINE
8
0
6
CONTINUOUS
10
0.088042
20
0.100262
30
0.0
11
0.075280
21
0.100867
31
0.0
0
LINE
8
0
6
CONTINUOUS
10
0.097181
20
0.099657
30
0.0
11
0.088042
21
0.100262
31
0.0
0
LINE
8
0
6
CONTINUOUS
10
-0.178636
20
0.101137
30
0.0
11
-0.182520
21
0.100867
31
0.0
0
LINE
8
0
6
CONTINUOUS
10
-0.163684
20
0.086185
30
0.0
11
-0.164194
21
0.090055
31
0.0
0
LINE
8
0
6
CONTINUOUS
10
-0.164194
20
0.090055
30
0.0
11
-0.165687
21
0.093661
31
0.0
0
LINE
8
0
6
CONTINUOUS
10
-0.165687
20
0.093661
30
0.0
11
-0.168064
21
0.096758
31
0.0
0
LINE
8
0
6
CONTINUOUS
10
-0.168064
20
0.096758
30
0.0
11
-0.171160
21
0.099134
31
0.0
0
LINE
8
0
6
CONTINUOUS
10
-0.171160
20
0.099134
30
0.0
11
-0.174766
21
0.100628
31
0.0
0
LINE
8
0
6
CONTINUOUS
10
-0.174766
20
0.100628
30
0.0
11
-0.178636
21
0.101137
31
0.0
0
LINE
8
0
6
CONTINUOUS
10
-0.249744
20
0.094121
30
0.0
11
-0.250620
21
0.091247
31
0.0
0
LINE
8
0
6
CONTINUOUS
10
-0.247329
20
0.096302
30
0.0
11
-0.249744
21
0.094121
31
0.0
0
LINE
8
0
6
CONTINUOUS
10
-0.250620
20
0.091247
30
0.0
11
-0.250620
21
0.088716
31
0.0
0
LINE
8
0
6
CONTINUOUS
10
-0.223261
20
0.098460
30
0.0
11
-0.233609
21
0.097862
31
0.0
0
LINE
8
0
6
CONTINUOUS
10
-0.250620
20
0.088716
30
0.0
11
-0.250620
21
0.086185
31
0.0
0
LINE
8
0
6
CONTINUOUS
10
-0.204420
20
0.099657
30
0.0
11
-0.210447
21
0.099258
31
0.0
0
LINE
8
0
6
CONTINUOUS
10
-0.243957
20
0.097263
30
0.0
11
-0.247329
21
0.096302
31
0.0
0
LINE
8
0
6
CONTINUOUS
10
-0.233609
20
0.097862
30
0.0
11
-0.243957
21
0.097263
31
0.0
0
LINE
8
0
6
CONTINUOUS
10
-0.210447
20
0.099258
30
0.0
11
-0.216473
21
0.098859
31
0.0
0
LINE
8
0
6
CONTINUOUS
10
-0.216473
20
0.098859
30
0.0
11
-0.223261
21
0.098460
31
0.0
0
LINE
8
0
6
CONTINUOUS
10
-0.182520
20
0.100867
30
0.0
11
-0.195282
21
0.100262
31
0.0
0
LINE
8
0
6
CONTINUOUS
10
-0.195282
20
0.100262
30
0.0
11
-0.204420
21
0.099657
31
0.0
0
LINE
8
0
6
CONTINUOUS
10
-0.182520
20
0.071503
30
0.0
11
-0.178636
21
0.071233
31
0.0
0
LINE
8
0
6
CONTINUOUS
10
-0.164194
20
0.082315
30
0.0
11
-0.163684
21
0.086185
31
0.0
0
LINE
8
0
6
CONTINUOUS
10
-0.165687
20
0.078709
30
0.0
11
-0.164194
21
0.082315
31
0.0
0
LINE
8
0
6
CONTINUOUS
10
-0.168064
20
0.075612
30
0.0
11
-0.165687
21
0.078709
31
0.0
0
LINE
8
0
6
CONTINUOUS
10
-0.171160
20
0.073236
30
0.0
11
-0.168064
21
0.075612
31
0.0
0
LINE
8
0
6
CONTINUOUS
10
-0.174766
20
0.071742
30
0.0
11
-0.171160
21
0.073236
31
0.0
0
LINE
8
0
6
CONTINUOUS
10
-0.178636
20
0.071233
30
0.0
11
-0.174766
21
0.071742
31
0.0
0
LINE
8
0
6
CONTINUOUS
10
-0.250620
20
0.081123
30
0.0
11
-0.249744
21
0.078249
31
0.0
0
LINE
8
0
6
CONTINUOUS
10
-0.249744
20
0.078249
30
0.0
11
-0.247329
21
0.076068
31
0.0
0
LINE
8
0
6
CONTINUOUS
10
-0.250620
20
0.083654
30
0.0
11
-0.250620
21
0.081123
31
0.0
0
LINE
8
0
6
CONTINUOUS
10
-0.233609
20
0.074508
30
0.0
11
-0.223261
21
0.073910
31
0.0
0
LINE
8
0
6
CONTINUOUS
10
-0.250620
20
0.086185
30
0.0
11
-0.250620
21
0.083654
31
0.0
0
LINE
8
0
6
CONTINUOUS
10
-0.210447
20
0.073112
30
0.0
11
-0.204420
21
0.072713
31
0.0
0
LINE
8
0
6
CONTINUOUS
10
-0.247329
20
0.076068
30
0.0
11
-0.243957
21
0.075107
31
0.0
0
LINE
8
0
6
CONTINUOUS
10
-0.243957
20
0.075107
30
0.0
11
-0.233609
21
0.074508
31
0.0
0
LINE
8
0
6
CONTINUOUS
10
-0.216473
20
0.073511
30
0.0
11
-0.210447
21
0.073112
31
0.0
0
LINE
8
0
6
CONTINUOUS
10
-0.223261
20
0.073910
30
0.0
11
-0.216473
21
0.073511
31
0.0
0
LINE
8
0
6
CONTINUOUS
10
-0.195282
20
0.072108
30
0.0
11
-0.182520
21
0.071503
31
0.0
0
LINE
8
0
6
CONTINUOUS
10
-0.204420
20
0.072713
30
0.0
11
-0.195282
21
0.072108
31
0.0
0
LINE
8
0
6
CONTINUOUS
10
0.098164
20
0.099592
30
0.0
11
0.094835
21
0.104890
31
0.0
0
LINE
8
0
6
CONTINUOUS
10
0.094835
20
0.104890
30
0.0
11
0.090085
21
0.109640
31
0.0
0
LINE
8
0
6
CONTINUOUS
10
0.090085
20
0.109640
30
0.0
11
0.084397
21
0.113214
31
0.0
0
LINE
8
0
6
CONTINUOUS
10
0.084397
20
0.113214
30
0.0
11
0.078056
21
0.115433
31
0.0
0
LINE
8
0
6
CONTINUOUS
10
0.078056
20
0.115433
30
0.0
11
0.071380
21
0.116185
31
0.0
0
LINE
8
0
6
CONTINUOUS
10
0.071380
20
0.116185
30
0.0
11
0.064705
21
0.115433
31
0.0
0
LINE
8
0
6
CONTINUOUS
10
0.064705
20
0.115433
30
0.0
11
0.058364
21
0.113214
31
0.0
0
LINE
8
0
6
CONTINUOUS
10
0.058364
20
0.113214
30
0.0
11
0.052676
21
0.109640
31
0.0
0
LINE
8
0
6
CONTINUOUS
10
0.052676
20
0.109640
30
0.0
11
0.047925
21
0.104890
31
0.0
0
LINE
8
0
6
CONTINUOUS
10
0.047925
20
0.104890
30
0.0
11
0.044351
21
0.099202
31
0.0
0
LINE
8
0
6
CONTINUOUS
10
0.044351
20
0.099202
30
0.0
11
0.042132
21
0.092861
31
0.0
0
LINE
8
0
6
CONTINUOUS
10
0.042132
20
0.092861
30
0.0
11
0.041380
21
0.086185
31
0.0
0
LINE
8
0
6
CONTINUOUS
10
0.041380
20
0.086185
30
0.0
11
0.042132
21
0.079509
31
0.0
0
LINE
8
0
6
CONTINUOUS
10
0.042132
20
0.079509
30
0.0
11
0.044351
21
0.073168
31
0.0
0
LINE
8
0
6
CONTINUOUS
10
0.044351
20
0.073168
30
0.0
11
0.047925
21
0.067480
31
0.0
0
LINE
8
0
6
CONTINUOUS
10
0.047925
20
0.067480
30
0.0
11
0.052676
21
0.062730
31
0.0
0
LINE
8
0
6
CONTINUOUS
10
0.052676
20
0.062730
30
0.0
11
0.058364
21
0.059156
31
0.0
0
LINE
8
0
6
CONTINUOUS
10
0.058364
20
0.059156
30
0.0
11
0.064705
21
0.056937
31
0.0
0
LINE
8
0
6
CONTINUOUS
10
0.064705
20
0.056937
30
0.0
11
0.071380
21
0.056185
31
0.0
0
LINE
8
0
6
CONTINUOUS
10
0.071380
20
0.056185
30
0.0
11
0.078056
21
0.056937
31
0.0
0
LINE
8
0
6
CONTINUOUS
10
0.078056
20
0.056937
30
0.0
11
0.084397
21
0.059156
31
0.0
0
LINE
8
0
6
CONTINUOUS
10
0.084397
20
0.059156
30
0.0
11
0.090085
21
0.062730
31
0.0
0
LINE
8
0
6
CONTINUOUS
10
0.090085
20
0.062730
30
0.0
11
0.094835
21
0.067480
31
0.0
0
LINE
8
0
6
CONTINUOUS
10
0.094835
20
0.067480
30
0.0
11
0.098164
21
0.072778
31
0.0
0
LINE
8
0
6
CONTINUOUS
10
-0.148620
20
0.086185
30
0.0
11
-0.149372
21
0.092861
31
0.0
0
LINE
8
0
6
CONTINUOUS
10
-0.149372
20
0.092861
30
0.0
11
-0.151591
21
0.099201
31
0.0
0
LINE
8
0
6
CONTINUOUS
10
-0.151591
20
0.099201
30
0.0
11
-0.155165
21
0.104890
31
0.0
0
LINE
8
0
6
CONTINUOUS
10
-0.155165
20
0.104890
30
0.0
11
-0.159915
21
0.109640
31
0.0
0
LINE
8
0
6
CONTINUOUS
10
-0.159915
20
0.109640
30
0.0
11
-0.165603
21
0.113214
31
0.0
0
LINE
8
0
6
CONTINUOUS
10
-0.165603
20
0.113214
30
0.0
11
-0.171944
21
0.115433
31
0.0
0
LINE
8
0
6
CONTINUOUS
10
-0.171944
20
0.115433
30
0.0
11
-0.178620
21
0.116185
31
0.0
0
LINE
8
0
6
CONTINUOUS
10
-0.178620
20
0.116185
30
0.0
11
-0.185295
21
0.115433
31
0.0
0
LINE
8
0
6
CONTINUOUS
10
-0.185295
20
0.115433
30
0.0
11
-0.191636
21
0.113214
31
0.0
0
LINE
8
0
6
CONTINUOUS
10
-0.191636
20
0.113214
30
0.0
11
-0.197324
21
0.109640
31
0.0
0
LINE
8
0
6
CONTINUOUS
10
-0.197324
20
0.109640
30
0.0
11
-0.202075
21
0.104890
31
0.0
0
LINE
8
0
6
CONTINUOUS
10
-0.202075
20
0.104890
30
0.0
11
-0.205403
21
0.099592
31
0.0
0
LINE
8
0
6
CONTINUOUS
10
-0.205403
20
0.072778
30
0.0
11
-0.202075
21
0.067480
31
0.0
0
LINE
8
0
6
CONTINUOUS
10
-0.202075
20
0.067480
30
0.0
11
-0.197324
21
0.062730
31
0.0
0
LINE
8
0
6
CONTINUOUS
10
-0.197324
20
0.062730
30
0.0
11
-0.191636
21
0.059156
31
0.0
0
LINE
8
0
6
CONTINUOUS
10
-0.191636
20
0.059156
30
0.0
11
-0.185295
21
0.056937
31
0.0
0
LINE
8
0
6
CONTINUOUS
10
-0.185295
20
0.056937
30
0.0
11
-0.178620
21
0.056185
31
0.0
0
LINE
8
0
6
CONTINUOUS
10
-0.178620
20
0.056185
30
0.0
11
-0.171944
21
0.056937
31
0.0
0
LINE
8
0
6
CONTINUOUS
10
-0.171944
20
0.056937
30
0.0
11
-0.165603
21
0.059156
31
0.0
0
LINE
8
0
6
CONTINUOUS
10
-0.165603
20
0.059156
30
0.0
11
-0.159915
21
0.062730
31
0.0
0
LINE
8
0
6
CONTINUOUS
10
-0.159915
20
0.062730
30
0.0
11
-0.155165
21
0.067480
31
0.0
0
LINE
8
0
6
CONTINUOUS
10
-0.155165
20
0.067480
30
0.0
11
-0.151591
21
0.073168
31
0.0
0
LINE
8
0
6
CONTINUOUS
10
-0.151591
20
0.073168
30
0.0
11
-0.149372
21
0.079509
31
0.0
0
LINE
8
0
6
CONTINUOUS
10
-0.149372
20
0.079509
30
0.0
11
-0.148620
21
0.086185
31
0.0
0
ENDSEC
0
EOF
