999
Erzeugt mit innoplus bad 
0
SECTION
2
HEADER
9
$ACADVER
1
AC1009
9
$DWGCODEPAGE
3
ISO8859-1
0
ENDSEC
0
SECTION
2
TABLES
0
TABLE
2
LAYER
70
1
0
LAYER
2
0
70
0
62
7
6
CONTINUOUS
0
ENDTAB
0
ENDSEC
0
SECTION
2
ENTITIES
0
LINE
8
0
6
CONTINUOUS
10
0.111890
20
0.015724
30
0.0
11
0.111890
21
0.028247
31
0.0
0
LINE
8
0
6
CONTINUOUS
10
-0.092207
20
0.042091
30
0.0
11
-0.090216
21
0.041939
31
0.0
0
LINE
8
0
6
CONTINUOUS
10
0.065068
20
0.015824
30
0.0
11
0.065068
21
0.012415
31
0.0
0
LINE
8
0
6
CONTINUOUS
10
-0.117765
20
0.065500
30
0.0
11
-0.119760
21
0.065500
31
0.0
0
LINE
8
0
6
CONTINUOUS
10
-0.121914
20
0.064508
30
0.0
11
-0.122499
21
0.065500
31
0.0
0
LINE
8
0
6
CONTINUOUS
10
-0.122499
20
0.065500
30
0.0
11
-0.121914
21
0.064508
31
0.0
0
LINE
8
0
6
CONTINUOUS
10
-0.119760
20
0.065500
30
0.0
11
-0.121934
21
0.065500
31
0.0
0
LINE
8
0
6
CONTINUOUS
10
-0.121934
20
0.065500
30
0.0
11
-0.122499
21
0.065500
31
0.0
0
LINE
8
0
6
CONTINUOUS
10
-0.121344
20
0.064513
30
0.0
11
-0.121934
21
0.065500
31
0.0
0
LINE
8
0
6
CONTINUOUS
10
-0.122499
20
0.065500
30
0.0
11
-0.121914
21
0.064508
31
0.0
0
LINE
8
0
6
CONTINUOUS
10
0.111890
20
0.065500
30
0.0
11
0.111156
21
0.065500
31
0.0
0
LINE
8
0
6
CONTINUOUS
10
0.111890
20
0.064849
30
0.0
11
0.111890
21
0.065500
31
0.0
0
LINE
8
0
6
CONTINUOUS
10
0.094486
20
0.065500
30
0.0
11
0.088479
21
0.065500
31
0.0
0
LINE
8
0
6
CONTINUOUS
10
0.108803
20
0.065500
30
0.0
11
0.105057
21
0.065500
31
0.0
0
LINE
8
0
6
CONTINUOUS
10
0.105057
20
0.065500
30
0.0
11
0.100173
21
0.065500
31
0.0
0
LINE
8
0
6
CONTINUOUS
10
0.100173
20
0.065500
30
0.0
11
0.094486
21
0.065500
31
0.0
0
LINE
8
0
6
CONTINUOUS
10
0.111156
20
0.065500
30
0.0
11
0.108803
21
0.065500
31
0.0
0
LINE
8
0
6
CONTINUOUS
10
0.088479
20
0.065500
30
0.0
11
0.075731
21
0.065500
31
0.0
0
LINE
8
0
6
CONTINUOUS
10
-0.116586
20
0.060205
30
0.0
11
-0.112723
21
0.056166
31
0.0
0
LINE
8
0
6
CONTINUOUS
10
0.111890
20
0.059071
30
0.0
11
0.111890
21
0.064849
31
0.0
0
LINE
8
0
6
CONTINUOUS
10
0.111890
20
0.048796
30
0.0
11
0.111890
21
0.059071
31
0.0
0
LINE
8
0
6
CONTINUOUS
10
0.075731
20
0.065500
30
0.0
11
0.062984
21
0.065500
31
0.0
0
LINE
8
0
6
CONTINUOUS
10
0.111890
20
0.028247
30
0.0
11
0.111890
21
0.038522
31
0.0
0
LINE
8
0
6
CONTINUOUS
10
0.111890
20
0.038522
30
0.0
11
0.111890
21
0.048796
31
0.0
0
LINE
8
0
6
CONTINUOUS
10
0.111890
20
0.012320
30
0.0
11
0.111890
21
0.015724
31
0.0
0
LINE
8
0
6
CONTINUOUS
10
-0.115888
20
0.056557
30
0.0
11
-0.111608
21
0.053004
31
0.0
0
LINE
8
0
6
CONTINUOUS
10
-0.118809
20
0.060263
30
0.0
11
-0.121344
21
0.064513
31
0.0
0
LINE
8
0
6
CONTINUOUS
10
-0.121914
20
0.064508
30
0.0
11
-0.119516
21
0.060439
31
0.0
0
LINE
8
0
6
CONTINUOUS
10
0.056693
20
0.031511
30
0.0
11
0.060519
21
0.028627
31
0.0
0
LINE
8
0
6
CONTINUOUS
10
-0.090216
20
0.041939
30
0.0
11
0.045768
21
0.034155
31
0.0
0
LINE
8
0
6
CONTINUOUS
10
-0.111608
20
0.053004
30
0.0
11
-0.107192
21
0.050017
31
0.0
0
LINE
8
0
6
CONTINUOUS
10
0.071777
20
0.033952
30
0.0
11
0.069409
21
0.040230
31
0.0
0
LINE
8
0
6
CONTINUOUS
10
0.064448
20
0.020781
30
0.0
11
0.065068
21
0.015824
31
0.0
0
LINE
8
0
6
CONTINUOUS
10
0.045768
20
0.034155
30
0.0
11
0.050470
21
0.033477
31
0.0
0
LINE
8
0
6
CONTINUOUS
10
-0.094733
20
0.042556
30
0.0
11
-0.092207
21
0.042091
31
0.0
0
LINE
8
0
6
CONTINUOUS
10
0.061124
20
0.045939
30
0.0
11
0.069409
21
0.040230
31
0.0
0
LINE
8
0
6
CONTINUOUS
10
-0.107757
20
0.052202
30
0.0
11
-0.112723
21
0.056166
31
0.0
0
LINE
8
0
6
CONTINUOUS
10
-0.115009
20
0.056266
30
0.0
11
-0.110193
21
0.052387
31
0.0
0
LINE
8
0
6
CONTINUOUS
10
0.071777
20
0.033952
30
0.0
11
0.072712
21
0.027896
31
0.0
0
LINE
8
0
6
CONTINUOUS
10
-0.100070
20
0.046154
30
0.0
11
-0.104788
21
0.048910
31
0.0
0
LINE
8
0
6
CONTINUOUS
10
0.062984
20
0.065500
30
0.0
11
-0.117765
21
0.065500
31
0.0
0
LINE
8
0
6
CONTINUOUS
10
0.060519
20
0.028627
30
0.0
11
0.063305
21
0.024585
31
0.0
0
LINE
8
0
6
CONTINUOUS
10
-0.115009
20
0.056266
30
0.0
11
-0.118809
21
0.060263
31
0.0
0
LINE
8
0
6
CONTINUOUS
10
-0.119516
20
0.060439
30
0.0
11
-0.115888
21
0.056557
31
0.0
0
LINE
8
0
6
CONTINUOUS
10
0.056693
20
0.031511
30
0.0
11
0.058736
21
0.032534
31
0.0
0
LINE
8
0
6
CONTINUOUS
10
0.050470
20
0.033477
30
0.0
11
0.056693
21
0.031511
31
0.0
0
LINE
8
0
6
CONTINUOUS
10
0.063305
20
0.024585
30
0.0
11
0.064448
21
0.020781
31
0.0
0
LINE
8
0
6
CONTINUOUS
10
-0.110193
20
0.052387
30
0.0
11
-0.104788
21
0.048910
31
0.0
0
LINE
8
0
6
CONTINUOUS
10
0.111890
20
-0.059500
30
0.0
11
0.111890
21
0.012320
31
0.0
0
LINE
8
0
6
CONTINUOUS
10
0.065068
20
0.012415
30
0.0
11
0.065068
21
-0.059500
31
0.0
0
LINE
8
0
6
CONTINUOUS
10
-0.096220
20
0.039914
30
0.0
11
-0.095975
21
0.040350
31
0.0
0
LINE
8
0
6
CONTINUOUS
10
-0.096701
20
0.040185
30
0.0
11
-0.096220
21
0.039914
31
0.0
0
LINE
8
0
6
CONTINUOUS
10
-0.098097
20
0.040971
30
0.0
11
-0.096701
21
0.040185
31
0.0
0
LINE
8
0
6
CONTINUOUS
10
-0.100270
20
0.042194
30
0.0
11
-0.098097
21
0.040971
31
0.0
0
LINE
8
0
6
CONTINUOUS
10
-0.103008
20
0.043736
30
0.0
11
-0.100270
21
0.042194
31
0.0
0
LINE
8
0
6
CONTINUOUS
10
-0.106044
20
0.045445
30
0.0
11
-0.103008
21
0.043736
31
0.0
0
LINE
8
0
6
CONTINUOUS
10
-0.109080
20
0.047154
30
0.0
11
-0.106044
21
0.045445
31
0.0
0
LINE
8
0
6
CONTINUOUS
10
-0.111818
20
0.048696
30
0.0
11
-0.109080
21
0.047154
31
0.0
0
LINE
8
0
6
CONTINUOUS
10
-0.113992
20
0.049920
30
0.0
11
-0.111818
21
0.048696
31
0.0
0
LINE
8
0
6
CONTINUOUS
10
-0.115387
20
0.050705
30
0.0
11
-0.113992
21
0.049920
31
0.0
0
LINE
8
0
6
CONTINUOUS
10
-0.115868
20
0.050976
30
0.0
11
-0.115387
21
0.050705
31
0.0
0
LINE
8
0
6
CONTINUOUS
10
-0.115623
20
0.051412
30
0.0
11
-0.115868
21
0.050976
31
0.0
0
LINE
8
0
6
CONTINUOUS
10
-0.113733
20
0.054768
30
0.0
11
-0.115623
21
0.051412
31
0.0
0
LINE
8
0
6
CONTINUOUS
10
-0.095975
20
0.040350
30
0.0
11
-0.094733
21
0.042556
31
0.0
0
LINE
8
0
6
CONTINUOUS
10
0.119033
20
-0.065500
30
0.0
11
0.121621
21
-0.065500
31
0.0
0
LINE
8
0
6
CONTINUOUS
10
0.122499
20
-0.065500
30
0.0
11
0.122499
21
-0.065234
31
0.0
0
LINE
8
0
6
CONTINUOUS
10
0.121621
20
-0.065500
30
0.0
11
0.122499
21
-0.065500
31
0.0
0
LINE
8
0
6
CONTINUOUS
10
0.052499
20
-0.065234
30
0.0
11
0.052499
21
-0.065500
31
0.0
0
LINE
8
0
6
CONTINUOUS
10
0.052499
20
-0.065500
30
0.0
11
0.053376
21
-0.065500
31
0.0
0
LINE
8
0
6
CONTINUOUS
10
0.053376
20
-0.065500
30
0.0
11
0.055965
21
-0.065500
31
0.0
0
LINE
8
0
6
CONTINUOUS
10
0.102685
20
-0.059500
30
0.0
11
0.102451
21
-0.059500
31
0.0
0
LINE
8
0
6
CONTINUOUS
10
0.109321
20
-0.059500
30
0.0
11
0.102685
21
-0.059500
31
0.0
0
LINE
8
0
6
CONTINUOUS
10
0.114863
20
-0.059500
30
0.0
11
0.109321
21
-0.059500
31
0.0
0
LINE
8
0
6
CONTINUOUS
10
0.119033
20
-0.059500
30
0.0
11
0.114863
21
-0.059500
31
0.0
0
LINE
8
0
6
CONTINUOUS
10
0.121621
20
-0.059500
30
0.0
11
0.119033
21
-0.059500
31
0.0
0
LINE
8
0
6
CONTINUOUS
10
0.122499
20
-0.059500
30
0.0
11
0.121621
21
-0.059500
31
0.0
0
LINE
8
0
6
CONTINUOUS
10
0.122499
20
-0.059766
30
0.0
11
0.122499
21
-0.059500
31
0.0
0
LINE
8
0
6
CONTINUOUS
10
0.053376
20
-0.059500
30
0.0
11
0.052499
21
-0.059500
31
0.0
0
LINE
8
0
6
CONTINUOUS
10
0.052499
20
-0.059500
30
0.0
11
0.052499
21
-0.059766
31
0.0
0
LINE
8
0
6
CONTINUOUS
10
0.055965
20
-0.059500
30
0.0
11
0.053376
21
-0.059500
31
0.0
0
LINE
8
0
6
CONTINUOUS
10
0.060135
20
-0.059500
30
0.0
11
0.055965
21
-0.059500
31
0.0
0
LINE
8
0
6
CONTINUOUS
10
0.065677
20
-0.059500
30
0.0
11
0.060135
21
-0.059500
31
0.0
0
LINE
8
0
6
CONTINUOUS
10
0.072313
20
-0.059500
30
0.0
11
0.065677
21
-0.059500
31
0.0
0
LINE
8
0
6
CONTINUOUS
10
0.072547
20
-0.059500
30
0.0
11
0.072313
21
-0.059500
31
0.0
0
LINE
8
0
6
CONTINUOUS
10
0.052499
20
-0.059766
30
0.0
11
0.052499
21
-0.065234
31
0.0
0
LINE
8
0
6
CONTINUOUS
10
0.122499
20
-0.065234
30
0.0
11
0.122499
21
-0.059766
31
0.0
0
LINE
8
0
6
CONTINUOUS
10
0.072547
20
-0.057057
30
0.0
11
0.072547
21
-0.059500
31
0.0
0
LINE
8
0
6
CONTINUOUS
10
0.077743
20
-0.002447
30
0.0
11
0.076638
21
-0.003209
31
0.0
0
LINE
8
0
6
CONTINUOUS
10
0.072547
20
-0.011119
30
0.0
11
0.072547
21
-0.013337
31
0.0
0
LINE
8
0
6
CONTINUOUS
10
0.075168
20
-0.003776
30
0.0
11
0.074577
21
-0.006675
31
0.0
0
LINE
8
0
6
CONTINUOUS
10
0.074577
20
-0.006675
30
0.0
11
0.076946
21
-0.006675
31
0.0
0
LINE
8
0
6
CONTINUOUS
10
0.079979
20
-0.005805
30
0.0
11
0.076946
21
-0.006675
31
0.0
0
LINE
8
0
6
CONTINUOUS
10
0.076946
20
-0.006675
30
0.0
11
0.080054
21
-0.006675
31
0.0
0
LINE
8
0
6
CONTINUOUS
10
0.080054
20
-0.006675
30
0.0
11
0.083644
21
-0.006675
31
0.0
0
LINE
8
0
6
CONTINUOUS
10
0.072547
20
-0.013337
30
0.0
11
0.072547
21
-0.019162
31
0.0
0
LINE
8
0
6
CONTINUOUS
10
0.075711
20
-0.001443
30
0.0
11
0.076410
21
-0.000660
31
0.0
0
LINE
8
0
6
CONTINUOUS
10
0.078846
20
-0.001983
30
0.0
11
0.079697
21
-0.001076
31
0.0
0
LINE
8
0
6
CONTINUOUS
10
0.084968
20
0.000827
30
0.0
11
0.087499
21
0.000827
31
0.0
0
LINE
8
0
6
CONTINUOUS
10
0.072547
20
-0.006675
30
0.0
11
0.072547
21
-0.008900
31
0.0
0
LINE
8
0
6
CONTINUOUS
10
0.080479
20
-0.000294
30
0.0
11
0.079979
21
0.000483
31
0.0
0
LINE
8
0
6
CONTINUOUS
10
0.080479
20
-0.000294
30
0.0
11
0.079697
21
-0.001076
31
0.0
0
LINE
8
0
6
CONTINUOUS
10
0.072547
20
-0.008900
30
0.0
11
0.072547
21
-0.011119
31
0.0
0
LINE
8
0
6
CONTINUOUS
10
0.079979
20
0.000483
30
0.0
11
0.082437
21
0.000827
31
0.0
0
LINE
8
0
6
CONTINUOUS
10
0.079979
20
0.000483
30
0.0
11
0.079643
21
0.002049
31
0.0
0
LINE
8
0
6
CONTINUOUS
10
0.078200
20
-0.000040
30
0.0
11
0.079979
21
0.000483
31
0.0
0
LINE
8
0
6
CONTINUOUS
10
0.087499
20
0.002499
30
0.0
11
0.084858
21
0.002499
31
0.0
0
LINE
8
0
6
CONTINUOUS
10
0.077149
20
0.002499
30
0.0
11
0.073605
21
0.002499
31
0.0
0
LINE
8
0
6
CONTINUOUS
10
0.077371
20
0.002499
30
0.0
11
0.077149
21
0.002499
31
0.0
0
LINE
8
0
6
CONTINUOUS
10
0.078200
20
-0.000040
30
0.0
11
0.077506
21
0.002052
31
0.0
0
LINE
8
0
6
CONTINUOUS
10
0.077073
20
-0.000559
30
0.0
11
0.078200
21
-0.000040
31
0.0
0
LINE
8
0
6
CONTINUOUS
10
0.077743
20
-0.002447
30
0.0
11
0.078846
21
-0.001983
31
0.0
0
LINE
8
0
6
CONTINUOUS
10
0.077073
20
-0.000559
30
0.0
11
0.076410
21
-0.000660
31
0.0
0
LINE
8
0
6
CONTINUOUS
10
0.082437
20
0.000827
30
0.0
11
0.084968
21
0.000827
31
0.0
0
LINE
8
0
6
CONTINUOUS
10
0.082437
20
0.002034
30
0.0
11
0.082437
21
0.000827
31
0.0
0
LINE
8
0
6
CONTINUOUS
10
0.082437
20
0.002499
30
0.0
11
0.079563
21
0.002499
31
0.0
0
LINE
8
0
6
CONTINUOUS
10
0.079643
20
0.002049
30
0.0
11
0.079563
21
0.002499
31
0.0
0
LINE
8
0
6
CONTINUOUS
10
0.079563
20
0.002499
30
0.0
11
0.077382
21
0.002499
31
0.0
0
LINE
8
0
6
CONTINUOUS
10
0.084968
20
0.002499
30
0.0
11
0.082437
21
0.002499
31
0.0
0
LINE
8
0
6
CONTINUOUS
10
0.072547
20
0.002499
30
0.0
11
0.072547
21
0.002065
31
0.0
0
LINE
8
0
6
CONTINUOUS
10
0.072817
20
0.002499
30
0.0
11
0.072547
21
0.002499
31
0.0
0
LINE
8
0
6
CONTINUOUS
10
0.075822
20
0.002499
30
0.0
11
0.075224
21
0.002499
31
0.0
0
LINE
8
0
6
CONTINUOUS
10
0.087499
20
0.002499
30
0.0
11
0.084968
21
0.002499
31
0.0
0
LINE
8
0
6
CONTINUOUS
10
0.074426
20
0.002499
30
0.0
11
0.074027
21
0.002499
31
0.0
0
LINE
8
0
6
CONTINUOUS
10
0.077382
20
0.002499
30
0.0
11
0.076421
21
0.002499
31
0.0
0
LINE
8
0
6
CONTINUOUS
10
0.077506
20
0.002052
30
0.0
11
0.077382
21
0.002499
31
0.0
0
LINE
8
0
6
CONTINUOUS
10
0.076421
20
0.002499
30
0.0
11
0.075822
21
0.002499
31
0.0
0
LINE
8
0
6
CONTINUOUS
10
0.074825
20
0.002499
30
0.0
11
0.074426
21
0.002499
31
0.0
0
LINE
8
0
6
CONTINUOUS
10
0.075224
20
0.002499
30
0.0
11
0.074825
21
0.002499
31
0.0
0
LINE
8
0
6
CONTINUOUS
10
0.075897
20
-0.003474
30
0.0
11
0.076638
21
-0.003209
31
0.0
0
LINE
8
0
6
CONTINUOUS
10
0.075161
20
-0.001524
30
0.0
11
0.075711
21
-0.001443
31
0.0
0
LINE
8
0
6
CONTINUOUS
10
0.075897
20
-0.003474
30
0.0
11
0.075168
21
-0.003776
31
0.0
0
LINE
8
0
6
CONTINUOUS
10
0.073422
20
0.002499
30
0.0
11
0.072817
21
0.002499
31
0.0
0
LINE
8
0
6
CONTINUOUS
10
0.072547
20
0.002065
30
0.0
11
0.072547
21
-0.001901
31
0.0
0
LINE
8
0
6
CONTINUOUS
10
0.072547
20
-0.001901
30
0.0
11
0.072547
21
-0.004464
31
0.0
0
LINE
8
0
6
CONTINUOUS
10
0.074027
20
0.002499
30
0.0
11
0.073422
21
0.002499
31
0.0
0
LINE
8
0
6
CONTINUOUS
10
0.072547
20
-0.004464
30
0.0
11
0.072547
21
-0.006675
31
0.0
0
LINE
8
0
6
CONTINUOUS
10
0.098360
20
-0.003209
30
0.0
11
0.097255
21
-0.002447
31
0.0
0
LINE
8
0
6
CONTINUOUS
10
0.102451
20
-0.013337
30
0.0
11
0.102451
21
-0.011119
31
0.0
0
LINE
8
0
6
CONTINUOUS
10
0.102451
20
-0.059500
30
0.0
11
0.102451
21
-0.057057
31
0.0
0
LINE
8
0
6
CONTINUOUS
10
0.098052
20
-0.006675
30
0.0
11
0.100421
21
-0.006675
31
0.0
0
LINE
8
0
6
CONTINUOUS
10
0.099830
20
-0.003776
30
0.0
11
0.100421
21
-0.006675
31
0.0
0
LINE
8
0
6
CONTINUOUS
10
0.094944
20
-0.006675
30
0.0
11
0.098052
21
-0.006675
31
0.0
0
LINE
8
0
6
CONTINUOUS
10
0.095019
20
-0.005805
30
0.0
11
0.098052
21
-0.006675
31
0.0
0
LINE
8
0
6
CONTINUOUS
10
0.091354
20
-0.006675
30
0.0
11
0.094944
21
-0.006675
31
0.0
0
LINE
8
0
6
CONTINUOUS
10
0.102451
20
-0.019162
30
0.0
11
0.102451
21
-0.013337
31
0.0
0
LINE
8
0
6
CONTINUOUS
10
0.098588
20
-0.000660
30
0.0
11
0.099287
21
-0.001443
31
0.0
0
LINE
8
0
6
CONTINUOUS
10
0.095300
20
-0.001076
30
0.0
11
0.096152
21
-0.001983
31
0.0
0
LINE
8
0
6
CONTINUOUS
10
0.087499
20
0.000827
30
0.0
11
0.090030
21
0.000827
31
0.0
0
LINE
8
0
6
CONTINUOUS
10
0.102451
20
-0.008900
30
0.0
11
0.102451
21
-0.006675
31
0.0
0
LINE
8
0
6
CONTINUOUS
10
0.095019
20
0.000483
30
0.0
11
0.094519
21
-0.000294
31
0.0
0
LINE
8
0
6
CONTINUOUS
10
0.095300
20
-0.001076
30
0.0
11
0.094519
21
-0.000294
31
0.0
0
LINE
8
0
6
CONTINUOUS
10
0.102451
20
-0.011119
30
0.0
11
0.102451
21
-0.008900
31
0.0
0
LINE
8
0
6
CONTINUOUS
10
0.092560
20
0.000827
30
0.0
11
0.095019
21
0.000483
31
0.0
0
LINE
8
0
6
CONTINUOUS
10
0.095019
20
0.000483
30
0.0
11
0.096798
21
-0.000040
31
0.0
0
LINE
8
0
6
CONTINUOUS
10
0.095355
20
0.002049
30
0.0
11
0.095019
21
0.000483
31
0.0
0
LINE
8
0
6
CONTINUOUS
10
0.090140
20
0.002499
30
0.0
11
0.087499
21
0.002499
31
0.0
0
LINE
8
0
6
CONTINUOUS
10
0.097849
20
0.002499
30
0.0
11
0.097627
21
0.002499
31
0.0
0
LINE
8
0
6
CONTINUOUS
10
0.101393
20
0.002499
30
0.0
11
0.097849
21
0.002499
31
0.0
0
LINE
8
0
6
CONTINUOUS
10
0.096798
20
-0.000040
30
0.0
11
0.097925
21
-0.000559
31
0.0
0
LINE
8
0
6
CONTINUOUS
10
0.097492
20
0.002052
30
0.0
11
0.096798
21
-0.000040
31
0.0
0
LINE
8
0
6
CONTINUOUS
10
0.098588
20
-0.000660
30
0.0
11
0.097925
21
-0.000559
31
0.0
0
LINE
8
0
6
CONTINUOUS
10
0.096152
20
-0.001983
30
0.0
11
0.097255
21
-0.002447
31
0.0
0
LINE
8
0
6
CONTINUOUS
10
0.092560
20
0.000827
30
0.0
11
0.092560
21
0.002034
31
0.0
0
LINE
8
0
6
CONTINUOUS
10
0.090030
20
0.000827
30
0.0
11
0.092560
21
0.000827
31
0.0
0
LINE
8
0
6
CONTINUOUS
10
0.095435
20
0.002499
30
0.0
11
0.092560
21
0.002499
31
0.0
0
LINE
8
0
6
CONTINUOUS
10
0.097616
20
0.002499
30
0.0
11
0.095435
21
0.002499
31
0.0
0
LINE
8
0
6
CONTINUOUS
10
0.095435
20
0.002499
30
0.0
11
0.095355
21
0.002049
31
0.0
0
LINE
8
0
6
CONTINUOUS
10
0.092560
20
0.002499
30
0.0
11
0.090030
21
0.002499
31
0.0
0
LINE
8
0
6
CONTINUOUS
10
0.102451
20
0.002499
30
0.0
11
0.102181
21
0.002499
31
0.0
0
LINE
8
0
6
CONTINUOUS
10
0.102451
20
0.002065
30
0.0
11
0.102451
21
0.002499
31
0.0
0
LINE
8
0
6
CONTINUOUS
10
0.099774
20
0.002499
30
0.0
11
0.099176
21
0.002499
31
0.0
0
LINE
8
0
6
CONTINUOUS
10
0.090030
20
0.002499
30
0.0
11
0.087499
21
0.002499
31
0.0
0
LINE
8
0
6
CONTINUOUS
10
0.100971
20
0.002499
30
0.0
11
0.100572
21
0.002499
31
0.0
0
LINE
8
0
6
CONTINUOUS
10
0.097616
20
0.002499
30
0.0
11
0.097492
21
0.002052
31
0.0
0
LINE
8
0
6
CONTINUOUS
10
0.098577
20
0.002499
30
0.0
11
0.097616
21
0.002499
31
0.0
0
LINE
8
0
6
CONTINUOUS
10
0.099176
20
0.002499
30
0.0
11
0.098577
21
0.002499
31
0.0
0
LINE
8
0
6
CONTINUOUS
10
0.100572
20
0.002499
30
0.0
11
0.100173
21
0.002499
31
0.0
0
LINE
8
0
6
CONTINUOUS
10
0.100173
20
0.002499
30
0.0
11
0.099774
21
0.002499
31
0.0
0
LINE
8
0
6
CONTINUOUS
10
0.098360
20
-0.003209
30
0.0
11
0.099101
21
-0.003474
31
0.0
0
LINE
8
0
6
CONTINUOUS
10
0.099287
20
-0.001443
30
0.0
11
0.099837
21
-0.001524
31
0.0
0
LINE
8
0
6
CONTINUOUS
10
0.099830
20
-0.003776
30
0.0
11
0.099101
21
-0.003474
31
0.0
0
LINE
8
0
6
CONTINUOUS
10
0.102181
20
0.002499
30
0.0
11
0.101576
21
0.002499
31
0.0
0
LINE
8
0
6
CONTINUOUS
10
0.102451
20
-0.001901
30
0.0
11
0.102451
21
0.002065
31
0.0
0
LINE
8
0
6
CONTINUOUS
10
0.102451
20
-0.004464
30
0.0
11
0.102451
21
-0.001901
31
0.0
0
LINE
8
0
6
CONTINUOUS
10
0.101576
20
0.002499
30
0.0
11
0.100971
21
0.002499
31
0.0
0
LINE
8
0
6
CONTINUOUS
10
0.102451
20
-0.006675
30
0.0
11
0.102451
21
-0.004464
31
0.0
0
LINE
8
0
6
CONTINUOUS
10
0.102451
20
-0.056542
30
0.0
11
0.102451
21
-0.019162
31
0.0
0
LINE
8
0
6
CONTINUOUS
10
0.072547
20
-0.019162
30
0.0
11
0.072547
21
-0.056542
31
0.0
0
LINE
8
0
6
CONTINUOUS
10
0.091369
20
-0.056670
30
0.0
11
0.087499
21
-0.056670
31
0.0
0
LINE
8
0
6
CONTINUOUS
10
0.091239
20
-0.056799
30
0.0
11
0.087499
21
-0.056799
31
0.0
0
LINE
8
0
6
CONTINUOUS
10
0.091369
20
-0.056928
30
0.0
11
0.087499
21
-0.056928
31
0.0
0
LINE
8
0
6
CONTINUOUS
10
0.101942
20
-0.056670
30
0.0
11
0.100448
21
-0.056670
31
0.0
0
LINE
8
0
6
CONTINUOUS
10
0.101459
20
-0.056799
30
0.0
11
0.100015
21
-0.056799
31
0.0
0
LINE
8
0
6
CONTINUOUS
10
0.101942
20
-0.056928
30
0.0
11
0.100448
21
-0.056928
31
0.0
0
LINE
8
0
6
CONTINUOUS
10
0.098072
20
-0.056670
30
0.0
11
0.094975
21
-0.056670
31
0.0
0
LINE
8
0
6
CONTINUOUS
10
0.097718
20
-0.056799
30
0.0
11
0.094725
21
-0.056799
31
0.0
0
LINE
8
0
6
CONTINUOUS
10
0.098072
20
-0.056928
30
0.0
11
0.094975
21
-0.056928
31
0.0
0
LINE
8
0
6
CONTINUOUS
10
0.094975
20
-0.056670
30
0.0
11
0.091369
21
-0.056670
31
0.0
0
LINE
8
0
6
CONTINUOUS
10
0.094725
20
-0.056799
30
0.0
11
0.091239
21
-0.056799
31
0.0
0
LINE
8
0
6
CONTINUOUS
10
0.094975
20
-0.056928
30
0.0
11
0.091369
21
-0.056928
31
0.0
0
LINE
8
0
6
CONTINUOUS
10
0.102451
20
-0.056670
30
0.0
11
0.102451
21
-0.056542
31
0.0
0
LINE
8
0
6
CONTINUOUS
10
0.101951
20
-0.056799
30
0.0
11
0.102451
21
-0.056670
31
0.0
0
LINE
8
0
6
CONTINUOUS
10
0.102451
20
-0.056670
30
0.0
11
0.101942
21
-0.056670
31
0.0
0
LINE
8
0
6
CONTINUOUS
10
0.102451
20
-0.056928
30
0.0
11
0.101951
21
-0.056799
31
0.0
0
LINE
8
0
6
CONTINUOUS
10
0.101951
20
-0.056799
30
0.0
11
0.101459
21
-0.056799
31
0.0
0
LINE
8
0
6
CONTINUOUS
10
0.102451
20
-0.057057
30
0.0
11
0.102451
21
-0.056928
31
0.0
0
LINE
8
0
6
CONTINUOUS
10
0.102451
20
-0.056928
30
0.0
11
0.101942
21
-0.056928
31
0.0
0
LINE
8
0
6
CONTINUOUS
10
0.100448
20
-0.056670
30
0.0
11
0.098072
21
-0.056670
31
0.0
0
LINE
8
0
6
CONTINUOUS
10
0.100015
20
-0.056799
30
0.0
11
0.097718
21
-0.056799
31
0.0
0
LINE
8
0
6
CONTINUOUS
10
0.100448
20
-0.056928
30
0.0
11
0.098072
21
-0.056928
31
0.0
0
LINE
8
0
6
CONTINUOUS
10
0.087499
20
-0.056670
30
0.0
11
0.083629
21
-0.056670
31
0.0
0
LINE
8
0
6
CONTINUOUS
10
0.087499
20
-0.056799
30
0.0
11
0.083758
21
-0.056799
31
0.0
0
LINE
8
0
6
CONTINUOUS
10
0.087499
20
-0.056928
30
0.0
11
0.083629
21
-0.056928
31
0.0
0
LINE
8
0
6
CONTINUOUS
10
0.074550
20
-0.056670
30
0.0
11
0.073056
21
-0.056670
31
0.0
0
LINE
8
0
6
CONTINUOUS
10
0.074983
20
-0.056799
30
0.0
11
0.073539
21
-0.056799
31
0.0
0
LINE
8
0
6
CONTINUOUS
10
0.074550
20
-0.056928
30
0.0
11
0.073056
21
-0.056928
31
0.0
0
LINE
8
0
6
CONTINUOUS
10
0.080023
20
-0.056670
30
0.0
11
0.076926
21
-0.056670
31
0.0
0
LINE
8
0
6
CONTINUOUS
10
0.080273
20
-0.056799
30
0.0
11
0.077280
21
-0.056799
31
0.0
0
LINE
8
0
6
CONTINUOUS
10
0.080023
20
-0.056928
30
0.0
11
0.076926
21
-0.056928
31
0.0
0
LINE
8
0
6
CONTINUOUS
10
0.083629
20
-0.056670
30
0.0
11
0.080023
21
-0.056670
31
0.0
0
LINE
8
0
6
CONTINUOUS
10
0.083758
20
-0.056799
30
0.0
11
0.080273
21
-0.056799
31
0.0
0
LINE
8
0
6
CONTINUOUS
10
0.083629
20
-0.056928
30
0.0
11
0.080023
21
-0.056928
31
0.0
0
LINE
8
0
6
CONTINUOUS
10
0.072547
20
-0.056542
30
0.0
11
0.072547
21
-0.056670
31
0.0
0
LINE
8
0
6
CONTINUOUS
10
0.072547
20
-0.056670
30
0.0
11
0.073047
21
-0.056799
31
0.0
0
LINE
8
0
6
CONTINUOUS
10
0.073056
20
-0.056670
30
0.0
11
0.072547
21
-0.056670
31
0.0
0
LINE
8
0
6
CONTINUOUS
10
0.073047
20
-0.056799
30
0.0
11
0.072547
21
-0.056928
31
0.0
0
LINE
8
0
6
CONTINUOUS
10
0.073539
20
-0.056799
30
0.0
11
0.073047
21
-0.056799
31
0.0
0
LINE
8
0
6
CONTINUOUS
10
0.072547
20
-0.056928
30
0.0
11
0.072547
21
-0.057057
31
0.0
0
LINE
8
0
6
CONTINUOUS
10
0.073056
20
-0.056928
30
0.0
11
0.072547
21
-0.056928
31
0.0
0
LINE
8
0
6
CONTINUOUS
10
0.076926
20
-0.056670
30
0.0
11
0.074550
21
-0.056670
31
0.0
0
LINE
8
0
6
CONTINUOUS
10
0.077280
20
-0.056799
30
0.0
11
0.074983
21
-0.056799
31
0.0
0
LINE
8
0
6
CONTINUOUS
10
0.076926
20
-0.056928
30
0.0
11
0.074550
21
-0.056928
31
0.0
0
LINE
8
0
6
CONTINUOUS
10
0.087499
20
-0.065500
30
0.0
11
0.094175
21
-0.065500
31
0.0
0
LINE
8
0
6
CONTINUOUS
10
0.094175
20
-0.065500
30
0.0
11
0.100515
21
-0.065500
31
0.0
0
LINE
8
0
6
CONTINUOUS
10
0.100515
20
-0.065500
30
0.0
11
0.106204
21
-0.065500
31
0.0
0
LINE
8
0
6
CONTINUOUS
10
0.106204
20
-0.065500
30
0.0
11
0.110954
21
-0.065500
31
0.0
0
LINE
8
0
6
CONTINUOUS
10
0.110954
20
-0.065500
30
0.0
11
0.114528
21
-0.065500
31
0.0
0
LINE
8
0
6
CONTINUOUS
10
0.114528
20
-0.065500
30
0.0
11
0.116747
21
-0.065500
31
0.0
0
LINE
8
0
6
CONTINUOUS
10
0.117499
20
-0.065500
30
0.0
11
0.117499
21
-0.065234
31
0.0
0
LINE
8
0
6
CONTINUOUS
10
0.116747
20
-0.065500
30
0.0
11
0.117499
21
-0.065500
31
0.0
0
LINE
8
0
6
CONTINUOUS
10
0.057499
20
-0.065234
30
0.0
11
0.057499
21
-0.065500
31
0.0
0
LINE
8
0
6
CONTINUOUS
10
0.057499
20
-0.065500
30
0.0
11
0.058251
21
-0.065500
31
0.0
0
LINE
8
0
6
CONTINUOUS
10
0.058251
20
-0.065500
30
0.0
11
0.060470
21
-0.065500
31
0.0
0
LINE
8
0
6
CONTINUOUS
10
0.060470
20
-0.065500
30
0.0
11
0.064044
21
-0.065500
31
0.0
0
LINE
8
0
6
CONTINUOUS
10
0.064044
20
-0.065500
30
0.0
11
0.068794
21
-0.065500
31
0.0
0
LINE
8
0
6
CONTINUOUS
10
0.068794
20
-0.065500
30
0.0
11
0.074482
21
-0.065500
31
0.0
0
LINE
8
0
6
CONTINUOUS
10
0.074482
20
-0.065500
30
0.0
11
0.080823
21
-0.065500
31
0.0
0
LINE
8
0
6
CONTINUOUS
10
0.080823
20
-0.065500
30
0.0
11
0.087499
21
-0.065500
31
0.0
0
LINE
8
0
6
CONTINUOUS
10
0.094175
20
-0.059500
30
0.0
11
0.087499
21
-0.059500
31
0.0
0
LINE
8
0
6
CONTINUOUS
10
0.100515
20
-0.059500
30
0.0
11
0.094175
21
-0.059500
31
0.0
0
LINE
8
0
6
CONTINUOUS
10
0.106204
20
-0.059500
30
0.0
11
0.100515
21
-0.059500
31
0.0
0
LINE
8
0
6
CONTINUOUS
10
0.110954
20
-0.059500
30
0.0
11
0.106204
21
-0.059500
31
0.0
0
LINE
8
0
6
CONTINUOUS
10
0.114528
20
-0.059500
30
0.0
11
0.110954
21
-0.059500
31
0.0
0
LINE
8
0
6
CONTINUOUS
10
0.116747
20
-0.059500
30
0.0
11
0.114528
21
-0.059500
31
0.0
0
LINE
8
0
6
CONTINUOUS
10
0.117499
20
-0.059500
30
0.0
11
0.116747
21
-0.059500
31
0.0
0
LINE
8
0
6
CONTINUOUS
10
0.117499
20
-0.059766
30
0.0
11
0.117499
21
-0.059500
31
0.0
0
LINE
8
0
6
CONTINUOUS
10
0.058251
20
-0.059500
30
0.0
11
0.057499
21
-0.059500
31
0.0
0
LINE
8
0
6
CONTINUOUS
10
0.057499
20
-0.059500
30
0.0
11
0.057499
21
-0.059766
31
0.0
0
LINE
8
0
6
CONTINUOUS
10
0.060470
20
-0.059500
30
0.0
11
0.058251
21
-0.059500
31
0.0
0
LINE
8
0
6
CONTINUOUS
10
0.064044
20
-0.059500
30
0.0
11
0.060470
21
-0.059500
31
0.0
0
LINE
8
0
6
CONTINUOUS
10
0.068794
20
-0.059500
30
0.0
11
0.064044
21
-0.059500
31
0.0
0
LINE
8
0
6
CONTINUOUS
10
0.074482
20
-0.059500
30
0.0
11
0.068794
21
-0.059500
31
0.0
0
LINE
8
0
6
CONTINUOUS
10
0.080823
20
-0.059500
30
0.0
11
0.074482
21
-0.059500
31
0.0
0
LINE
8
0
6
CONTINUOUS
10
0.087499
20
-0.059500
30
0.0
11
0.080823
21
-0.059500
31
0.0
0
LINE
8
0
6
CONTINUOUS
10
0.057499
20
-0.059766
30
0.0
11
0.057499
21
-0.065234
31
0.0
0
LINE
8
0
6
CONTINUOUS
10
0.117499
20
-0.065234
30
0.0
11
0.117499
21
-0.059766
31
0.0
0
LINE
8
0
6
CONTINUOUS
10
0.114528
20
-0.059500
30
0.0
11
0.111890
21
-0.059500
31
0.0
0
LINE
8
0
6
CONTINUOUS
10
0.116747
20
-0.059500
30
0.0
11
0.114528
21
-0.059500
31
0.0
0
LINE
8
0
6
CONTINUOUS
10
0.117499
20
-0.059500
30
0.0
11
0.116747
21
-0.059500
31
0.0
0
LINE
8
0
6
CONTINUOUS
10
0.058251
20
-0.059500
30
0.0
11
0.057499
21
-0.059500
31
0.0
0
LINE
8
0
6
CONTINUOUS
10
0.060470
20
-0.059500
30
0.0
11
0.058251
21
-0.059500
31
0.0
0
LINE
8
0
6
CONTINUOUS
10
0.064044
20
-0.059500
30
0.0
11
0.060470
21
-0.059500
31
0.0
0
LINE
8
0
6
CONTINUOUS
10
0.065068
20
-0.059500
30
0.0
11
0.064044
21
-0.059500
31
0.0
0
LINE
8
0
6
CONTINUOUS
10
-0.095041
20
0.043133
30
0.0
11
-0.096140
21
0.043684
31
0.0
0
LINE
8
0
6
CONTINUOUS
10
-0.103608
20
0.048009
30
0.0
11
-0.101294
21
0.046780
31
0.0
0
LINE
8
0
6
CONTINUOUS
10
-0.101294
20
0.046780
30
0.0
11
-0.100739
21
0.046471
31
0.0
0
LINE
8
0
6
CONTINUOUS
10
-0.100739
20
0.046471
30
0.0
11
-0.099966
21
0.046041
31
0.0
0
LINE
8
0
6
CONTINUOUS
10
-0.094733
20
0.042556
30
0.0
11
-0.094786
21
0.042658
31
0.0
0
LINE
8
0
6
CONTINUOUS
10
-0.094786
20
0.042658
30
0.0
11
-0.095041
21
0.043133
31
0.0
0
ENDSEC
0
EOF
