999
Erzeugt mit innoplus bad 
0
SECTION
2
HEADER
9
$ACADVER
1
AC1009
9
$DWGCODEPAGE
3
ISO8859-1
0
ENDSEC
0
SECTION
2
TABLES
0
TABLE
2
LAYER
70
1
0
LAYER
2
0
70
0
62
7
6
CONTINUOUS
0
ENDTAB
0
ENDSEC
0
SECTION
2
ENTITIES
0
LINE
8
0
6
CONTINUOUS
10
0.023551
20
0.012188
30
0.0
11
0.023551
21
0.015586
31
0.0
0
LINE
8
0
6
CONTINUOUS
10
-0.023550
20
0.028094
30
0.0
11
-0.023551
21
0.015586
31
0.0
0
LINE
8
0
6
CONTINUOUS
10
0.017924
20
0.065500
30
0.0
11
0.015514
21
0.065500
31
0.0
0
LINE
8
0
6
CONTINUOUS
10
-0.019538
20
0.056266
30
0.0
11
-0.018293
21
0.052387
31
0.0
0
LINE
8
0
6
CONTINUOUS
10
0.021763
20
0.065500
30
0.0
11
0.021717
21
0.065500
31
0.0
0
LINE
8
0
6
CONTINUOUS
10
0.015514
20
0.065500
30
0.0
11
0.000000
21
0.065500
31
0.0
0
LINE
8
0
6
CONTINUOUS
10
0.021717
20
0.065500
30
0.0
11
0.020897
21
0.065500
31
0.0
0
LINE
8
0
6
CONTINUOUS
10
0.020897
20
0.065500
30
0.0
11
0.017924
21
0.065500
31
0.0
0
LINE
8
0
6
CONTINUOUS
10
0.020782
20
0.064513
30
0.0
11
0.020897
21
0.065500
31
0.0
0
LINE
8
0
6
CONTINUOUS
10
0.021115
20
0.060205
30
0.0
11
0.020364
21
0.056166
31
0.0
0
LINE
8
0
6
CONTINUOUS
10
0.023546
20
0.064841
30
0.0
11
0.023540
21
0.064722
31
0.0
0
LINE
8
0
6
CONTINUOUS
10
0.023551
20
0.038365
30
0.0
11
0.023623
21
0.049684
31
0.0
0
LINE
8
0
6
CONTINUOUS
10
0.023551
20
0.058908
30
0.0
11
0.023551
21
0.064850
31
0.0
0
LINE
8
0
6
CONTINUOUS
10
0.020284
20
0.060263
30
0.0
11
0.020782
21
0.064513
31
0.0
0
LINE
8
0
6
CONTINUOUS
10
0.023623
20
0.049684
30
0.0
11
0.023551
21
0.058908
31
0.0
0
LINE
8
0
6
CONTINUOUS
10
-0.020308
20
0.033952
30
0.0
11
-0.019131
21
0.027896
31
0.0
0
LINE
8
0
6
CONTINUOUS
10
-0.023551
20
0.038365
30
0.0
11
-0.023550
21
0.028094
31
0.0
0
LINE
8
0
6
CONTINUOUS
10
0.020308
20
0.033952
30
0.0
11
0.021242
21
0.040230
31
0.0
0
LINE
8
0
6
CONTINUOUS
10
0.000000
20
0.031511
30
0.0
11
-0.006103
21
0.032534
31
0.0
0
LINE
8
0
6
CONTINUOUS
10
-0.023551
20
0.015586
30
0.0
11
-0.023551
21
0.012188
31
0.0
0
LINE
8
0
6
CONTINUOUS
10
-0.023540
20
0.064722
30
0.0
11
-0.023545
21
0.064841
31
0.0
0
LINE
8
0
6
CONTINUOUS
10
-0.015514
20
0.065500
30
0.0
11
-0.017923
21
0.065500
31
0.0
0
LINE
8
0
6
CONTINUOUS
10
0.000000
20
0.034155
30
0.0
11
0.000000
21
0.033477
31
0.0
0
LINE
8
0
6
CONTINUOUS
10
-0.023560
20
0.065500
30
0.0
11
-0.023540
21
0.064722
31
0.0
0
LINE
8
0
6
CONTINUOUS
10
-0.021762
20
0.065500
30
0.0
11
-0.023560
21
0.065500
31
0.0
0
LINE
8
0
6
CONTINUOUS
10
-0.021717
20
0.065500
30
0.0
11
-0.021762
21
0.065500
31
0.0
0
LINE
8
0
6
CONTINUOUS
10
0.000000
20
0.065500
30
0.0
11
-0.015514
21
0.065500
31
0.0
0
LINE
8
0
6
CONTINUOUS
10
-0.020897
20
0.065500
30
0.0
11
-0.021717
21
0.065500
31
0.0
0
LINE
8
0
6
CONTINUOUS
10
-0.020897
20
0.065500
30
0.0
11
-0.020781
21
0.064513
31
0.0
0
LINE
8
0
6
CONTINUOUS
10
-0.017923
20
0.065500
30
0.0
11
-0.020897
21
0.065500
31
0.0
0
LINE
8
0
6
CONTINUOUS
10
0.023551
20
0.028094
30
0.0
11
0.023551
21
0.038365
31
0.0
0
LINE
8
0
6
CONTINUOUS
10
-0.019538
20
0.056266
30
0.0
11
-0.020283
21
0.060263
31
0.0
0
LINE
8
0
6
CONTINUOUS
10
-0.021241
20
0.040230
30
0.0
11
-0.021533
21
0.045939
31
0.0
0
LINE
8
0
6
CONTINUOUS
10
-0.015387
20
0.048910
30
0.0
11
-0.018293
21
0.052387
31
0.0
0
LINE
8
0
6
CONTINUOUS
10
-0.011274
20
0.046412
30
0.0
11
-0.015387
21
0.048910
31
0.0
0
LINE
8
0
6
CONTINUOUS
10
0.023551
20
0.015586
30
0.0
11
0.023551
21
0.028094
31
0.0
0
LINE
8
0
6
CONTINUOUS
10
0.021533
20
0.045939
30
0.0
11
0.021242
21
0.040230
31
0.0
0
LINE
8
0
6
CONTINUOUS
10
-0.020364
20
0.056166
30
0.0
11
-0.021115
21
0.060205
31
0.0
0
LINE
8
0
6
CONTINUOUS
10
-0.020283
20
0.060263
30
0.0
11
-0.020781
21
0.064513
31
0.0
0
LINE
8
0
6
CONTINUOUS
10
0.019069
20
0.052202
30
0.0
11
0.020364
21
0.056166
31
0.0
0
LINE
8
0
6
CONTINUOUS
10
0.019539
20
0.056266
30
0.0
11
0.018294
21
0.052387
31
0.0
0
LINE
8
0
6
CONTINUOUS
10
-0.023551
20
0.064850
30
0.0
11
-0.023551
21
0.058908
31
0.0
0
LINE
8
0
6
CONTINUOUS
10
0.020308
20
0.033952
30
0.0
11
0.019132
21
0.027896
31
0.0
0
LINE
8
0
6
CONTINUOUS
10
0.011274
20
0.046412
30
0.0
11
0.015388
21
0.048910
31
0.0
0
LINE
8
0
6
CONTINUOUS
10
0.023560
20
0.065500
30
0.0
11
0.021763
21
0.065500
31
0.0
0
LINE
8
0
6
CONTINUOUS
10
0.023540
20
0.064722
30
0.0
11
0.023560
21
0.065500
31
0.0
0
LINE
8
0
6
CONTINUOUS
10
0.000000
20
0.028627
30
0.0
11
0.000000
21
0.024585
31
0.0
0
LINE
8
0
6
CONTINUOUS
10
0.019539
20
0.056266
30
0.0
11
0.020284
21
0.060263
31
0.0
0
LINE
8
0
6
CONTINUOUS
10
0.000000
20
0.031511
30
0.0
11
0.006104
21
0.032534
31
0.0
0
LINE
8
0
6
CONTINUOUS
10
0.000000
20
0.033477
30
0.0
11
0.000000
21
0.031511
31
0.0
0
LINE
8
0
6
CONTINUOUS
10
-0.021241
20
0.040230
30
0.0
11
-0.020308
21
0.033952
31
0.0
0
LINE
8
0
6
CONTINUOUS
10
-0.023623
20
0.049684
30
0.0
11
-0.023551
21
0.038365
31
0.0
0
LINE
8
0
6
CONTINUOUS
10
-0.019068
20
0.052202
30
0.0
11
-0.020364
21
0.056166
31
0.0
0
LINE
8
0
6
CONTINUOUS
10
0.018294
20
0.052387
30
0.0
11
0.015388
21
0.048910
31
0.0
0
LINE
8
0
6
CONTINUOUS
10
-0.023551
20
0.058908
30
0.0
11
-0.023623
21
0.049684
31
0.0
0
LINE
8
0
6
CONTINUOUS
10
-0.023551
20
0.012188
30
0.0
11
-0.023551
21
-0.059500
31
0.0
0
LINE
8
0
6
CONTINUOUS
10
0.023551
20
-0.059500
30
0.0
11
0.023551
21
0.012188
31
0.0
0
LINE
8
0
6
CONTINUOUS
10
-0.008366
20
0.045445
30
0.0
11
-0.007957
21
0.046714
31
0.0
0
LINE
8
0
6
CONTINUOUS
10
-0.007957
20
0.046714
30
0.0
11
-0.006769
21
0.047858
31
0.0
0
LINE
8
0
6
CONTINUOUS
10
-0.006769
20
0.047858
30
0.0
11
-0.004918
21
0.048766
31
0.0
0
LINE
8
0
6
CONTINUOUS
10
-0.004918
20
0.048766
30
0.0
11
-0.002585
21
0.049349
31
0.0
0
LINE
8
0
6
CONTINUOUS
10
-0.002585
20
0.049349
30
0.0
11
0.000000
21
0.049550
31
0.0
0
LINE
8
0
6
CONTINUOUS
10
0.000000
20
0.049550
30
0.0
11
0.002586
21
0.049349
31
0.0
0
LINE
8
0
6
CONTINUOUS
10
0.002586
20
0.049349
30
0.0
11
0.004918
21
0.048766
31
0.0
0
LINE
8
0
6
CONTINUOUS
10
0.004918
20
0.048766
30
0.0
11
0.006769
21
0.047858
31
0.0
0
LINE
8
0
6
CONTINUOUS
10
0.006769
20
0.047858
30
0.0
11
0.007957
21
0.046714
31
0.0
0
LINE
8
0
6
CONTINUOUS
10
0.007957
20
0.046714
30
0.0
11
0.008367
21
0.045445
31
0.0
0
LINE
8
0
6
CONTINUOUS
10
-0.004918
20
0.042124
30
0.0
11
-0.002585
21
0.041541
31
0.0
0
LINE
8
0
6
CONTINUOUS
10
0.004918
20
0.042124
30
0.0
11
0.006769
21
0.043032
31
0.0
0
LINE
8
0
6
CONTINUOUS
10
-0.002585
20
0.041541
30
0.0
11
0.000000
21
0.041340
31
0.0
0
LINE
8
0
6
CONTINUOUS
10
-0.008366
20
0.045445
30
0.0
11
-0.007957
21
0.044177
31
0.0
0
LINE
8
0
6
CONTINUOUS
10
0.006769
20
0.043032
30
0.0
11
0.007957
21
0.044177
31
0.0
0
LINE
8
0
6
CONTINUOUS
10
0.007957
20
0.044177
30
0.0
11
0.008367
21
0.045445
31
0.0
0
LINE
8
0
6
CONTINUOUS
10
-0.007957
20
0.044177
30
0.0
11
-0.006769
21
0.043032
31
0.0
0
LINE
8
0
6
CONTINUOUS
10
0.000000
20
0.041340
30
0.0
11
0.002586
21
0.041541
31
0.0
0
LINE
8
0
6
CONTINUOUS
10
-0.006769
20
0.043032
30
0.0
11
-0.004918
21
0.042124
31
0.0
0
LINE
8
0
6
CONTINUOUS
10
0.000000
20
0.039914
30
0.0
11
0.003484
21
0.040185
31
0.0
0
LINE
8
0
6
CONTINUOUS
10
0.003484
20
0.040185
30
0.0
11
0.006627
21
0.040971
31
0.0
0
LINE
8
0
6
CONTINUOUS
10
0.006627
20
0.040971
30
0.0
11
0.009121
21
0.042194
31
0.0
0
LINE
8
0
6
CONTINUOUS
10
0.009121
20
0.042194
30
0.0
11
0.010722
21
0.043736
31
0.0
0
LINE
8
0
6
CONTINUOUS
10
0.010722
20
0.043736
30
0.0
11
0.011274
21
0.045445
31
0.0
0
LINE
8
0
6
CONTINUOUS
10
0.011274
20
0.045445
30
0.0
11
0.011274
21
0.045881
31
0.0
0
LINE
8
0
6
CONTINUOUS
10
0.010722
20
0.047154
30
0.0
11
0.011274
21
0.045445
31
0.0
0
LINE
8
0
6
CONTINUOUS
10
0.009121
20
0.048696
30
0.0
11
0.010722
21
0.047154
31
0.0
0
LINE
8
0
6
CONTINUOUS
10
0.006627
20
0.049920
30
0.0
11
0.009121
21
0.048696
31
0.0
0
LINE
8
0
6
CONTINUOUS
10
0.003484
20
0.050705
30
0.0
11
0.006627
21
0.049920
31
0.0
0
LINE
8
0
6
CONTINUOUS
10
0.000000
20
0.050976
30
0.0
11
0.003484
21
0.050705
31
0.0
0
LINE
8
0
6
CONTINUOUS
10
-0.003484
20
0.050705
30
0.0
11
0.000000
21
0.050976
31
0.0
0
LINE
8
0
6
CONTINUOUS
10
-0.006626
20
0.049920
30
0.0
11
-0.003484
21
0.050705
31
0.0
0
LINE
8
0
6
CONTINUOUS
10
-0.009120
20
0.048696
30
0.0
11
-0.006626
21
0.049920
31
0.0
0
LINE
8
0
6
CONTINUOUS
10
-0.010722
20
0.047154
30
0.0
11
-0.009120
21
0.048696
31
0.0
0
LINE
8
0
6
CONTINUOUS
10
-0.011274
20
0.045445
30
0.0
11
-0.010722
21
0.047154
31
0.0
0
LINE
8
0
6
CONTINUOUS
10
-0.011274
20
0.045881
30
0.0
11
-0.011274
21
0.045445
31
0.0
0
LINE
8
0
6
CONTINUOUS
10
-0.011274
20
0.045445
30
0.0
11
-0.010722
21
0.043736
31
0.0
0
LINE
8
0
6
CONTINUOUS
10
-0.010722
20
0.043736
30
0.0
11
-0.009120
21
0.042194
31
0.0
0
LINE
8
0
6
CONTINUOUS
10
-0.009120
20
0.042194
30
0.0
11
-0.006626
21
0.040971
31
0.0
0
LINE
8
0
6
CONTINUOUS
10
-0.006626
20
0.040971
30
0.0
11
-0.003484
21
0.040185
31
0.0
0
LINE
8
0
6
CONTINUOUS
10
-0.003484
20
0.040185
30
0.0
11
0.000000
21
0.039914
31
0.0
0
LINE
8
0
6
CONTINUOUS
10
0.011274
20
0.045881
30
0.0
11
0.011274
21
0.048419
31
0.0
0
LINE
8
0
6
CONTINUOUS
10
0.002586
20
0.041541
30
0.0
11
0.004918
21
0.042124
31
0.0
0
LINE
8
0
6
CONTINUOUS
10
-0.011274
20
0.048419
30
0.0
11
-0.011274
21
0.045881
31
0.0
0
LINE
8
0
6
CONTINUOUS
10
-0.007957
20
0.044425
30
0.0
11
-0.006769
21
0.043281
31
0.0
0
LINE
8
0
6
CONTINUOUS
10
-0.008366
20
0.045694
30
0.0
11
-0.007957
21
0.044425
31
0.0
0
LINE
8
0
6
CONTINUOUS
10
0.007957
20
0.044425
30
0.0
11
0.008367
21
0.045694
31
0.0
0
LINE
8
0
6
CONTINUOUS
10
0.006769
20
0.043281
30
0.0
11
0.007957
21
0.044425
31
0.0
0
LINE
8
0
6
CONTINUOUS
10
0.004918
20
0.042373
30
0.0
11
0.006769
21
0.043281
31
0.0
0
LINE
8
0
6
CONTINUOUS
10
0.002586
20
0.041790
30
0.0
11
0.004918
21
0.042373
31
0.0
0
LINE
8
0
6
CONTINUOUS
10
0.000000
20
0.041589
30
0.0
11
0.002586
21
0.041790
31
0.0
0
LINE
8
0
6
CONTINUOUS
10
-0.002585
20
0.041790
30
0.0
11
0.000000
21
0.041589
31
0.0
0
LINE
8
0
6
CONTINUOUS
10
-0.004918
20
0.042373
30
0.0
11
-0.002585
21
0.041790
31
0.0
0
LINE
8
0
6
CONTINUOUS
10
-0.006769
20
0.043281
30
0.0
11
-0.004918
21
0.042373
31
0.0
0
LINE
8
0
6
CONTINUOUS
10
-0.035000
20
-0.065234
30
0.0
11
-0.035000
21
-0.065500
31
0.0
0
LINE
8
0
6
CONTINUOUS
10
-0.035000
20
-0.065500
30
0.0
11
-0.034122
21
-0.065500
31
0.0
0
LINE
8
0
6
CONTINUOUS
10
-0.034122
20
-0.065500
30
0.0
11
-0.031534
21
-0.065500
31
0.0
0
LINE
8
0
6
CONTINUOUS
10
-0.031534
20
-0.065500
30
0.0
11
-0.027364
21
-0.065500
31
0.0
0
LINE
8
0
6
CONTINUOUS
10
-0.027364
20
-0.065500
30
0.0
11
-0.021822
21
-0.065500
31
0.0
0
LINE
8
0
6
CONTINUOUS
10
-0.021822
20
-0.065500
30
0.0
11
-0.015186
21
-0.065500
31
0.0
0
LINE
8
0
6
CONTINUOUS
10
-0.015186
20
-0.065500
30
0.0
11
-0.007788
21
-0.065500
31
0.0
0
LINE
8
0
6
CONTINUOUS
10
-0.007788
20
-0.065500
30
0.0
11
0.000000
21
-0.065500
31
0.0
0
LINE
8
0
6
CONTINUOUS
10
0.000000
20
-0.065500
30
0.0
11
0.007788
21
-0.065500
31
0.0
0
LINE
8
0
6
CONTINUOUS
10
0.007788
20
-0.065500
30
0.0
11
0.015186
21
-0.065500
31
0.0
0
LINE
8
0
6
CONTINUOUS
10
0.015186
20
-0.065500
30
0.0
11
0.021822
21
-0.065500
31
0.0
0
LINE
8
0
6
CONTINUOUS
10
0.021822
20
-0.065500
30
0.0
11
0.027364
21
-0.065500
31
0.0
0
LINE
8
0
6
CONTINUOUS
10
0.027364
20
-0.065500
30
0.0
11
0.031534
21
-0.065500
31
0.0
0
LINE
8
0
6
CONTINUOUS
10
0.031534
20
-0.065500
30
0.0
11
0.034123
21
-0.065500
31
0.0
0
LINE
8
0
6
CONTINUOUS
10
0.035000
20
-0.065500
30
0.0
11
0.035000
21
-0.065234
31
0.0
0
LINE
8
0
6
CONTINUOUS
10
0.034123
20
-0.065500
30
0.0
11
0.035000
21
-0.065500
31
0.0
0
LINE
8
0
6
CONTINUOUS
10
-0.034122
20
-0.059500
30
0.0
11
-0.035000
21
-0.059500
31
0.0
0
LINE
8
0
6
CONTINUOUS
10
-0.035000
20
-0.059500
30
0.0
11
-0.035000
21
-0.059766
31
0.0
0
LINE
8
0
6
CONTINUOUS
10
-0.031534
20
-0.059500
30
0.0
11
-0.034122
21
-0.059500
31
0.0
0
LINE
8
0
6
CONTINUOUS
10
-0.027364
20
-0.059500
30
0.0
11
-0.031534
21
-0.059500
31
0.0
0
LINE
8
0
6
CONTINUOUS
10
-0.021822
20
-0.059500
30
0.0
11
-0.027364
21
-0.059500
31
0.0
0
LINE
8
0
6
CONTINUOUS
10
-0.015186
20
-0.059500
30
0.0
11
-0.021822
21
-0.059500
31
0.0
0
LINE
8
0
6
CONTINUOUS
10
-0.007788
20
-0.059500
30
0.0
11
-0.015186
21
-0.059500
31
0.0
0
LINE
8
0
6
CONTINUOUS
10
0.000000
20
-0.059500
30
0.0
11
-0.007788
21
-0.059500
31
0.0
0
LINE
8
0
6
CONTINUOUS
10
0.007788
20
-0.059500
30
0.0
11
0.000000
21
-0.059500
31
0.0
0
LINE
8
0
6
CONTINUOUS
10
0.015186
20
-0.059500
30
0.0
11
0.007788
21
-0.059500
31
0.0
0
LINE
8
0
6
CONTINUOUS
10
0.021822
20
-0.059500
30
0.0
11
0.015186
21
-0.059500
31
0.0
0
LINE
8
0
6
CONTINUOUS
10
0.027364
20
-0.059500
30
0.0
11
0.021822
21
-0.059500
31
0.0
0
LINE
8
0
6
CONTINUOUS
10
0.031534
20
-0.059500
30
0.0
11
0.027364
21
-0.059500
31
0.0
0
LINE
8
0
6
CONTINUOUS
10
0.034123
20
-0.059500
30
0.0
11
0.031534
21
-0.059500
31
0.0
0
LINE
8
0
6
CONTINUOUS
10
0.035000
20
-0.059500
30
0.0
11
0.034123
21
-0.059500
31
0.0
0
LINE
8
0
6
CONTINUOUS
10
0.035000
20
-0.059766
30
0.0
11
0.035000
21
-0.059500
31
0.0
0
LINE
8
0
6
CONTINUOUS
10
0.035000
20
-0.065234
30
0.0
11
0.035000
21
-0.059766
31
0.0
0
LINE
8
0
6
CONTINUOUS
10
-0.035000
20
-0.059766
30
0.0
11
-0.035000
21
-0.065234
31
0.0
0
LINE
8
0
6
CONTINUOUS
10
0.139968
20
-0.056542
30
0.0
11
0.139969
21
-0.019162
31
0.0
0
LINE
8
0
6
CONTINUOUS
10
0.110064
20
-0.057057
30
0.0
11
0.110064
21
-0.059500
31
0.0
0
LINE
8
0
6
CONTINUOUS
10
0.110064
20
-0.013337
30
0.0
11
0.110064
21
-0.019162
31
0.0
0
LINE
8
0
6
CONTINUOUS
10
0.195700
20
-0.000168
30
0.0
11
0.197000
21
0.000827
31
0.0
0
LINE
8
0
6
CONTINUOUS
10
0.168611
20
-0.004682
30
0.0
11
0.178893
21
-0.003580
31
0.0
0
LINE
8
0
6
CONTINUOUS
10
0.161691
20
-0.005127
30
0.0
11
0.168611
21
-0.004682
31
0.0
0
LINE
8
0
6
CONTINUOUS
10
0.174789
20
-0.002447
30
0.0
11
0.163470
21
-0.003209
31
0.0
0
LINE
8
0
6
CONTINUOUS
10
0.156810
20
0.002499
30
0.0
11
0.150781
21
0.002499
31
0.0
0
LINE
8
0
6
CONTINUOUS
10
0.140925
20
-0.014446
30
0.0
11
0.142281
21
-0.011787
31
0.0
0
LINE
8
0
6
CONTINUOUS
10
0.142281
20
-0.011787
30
0.0
11
0.144234
21
-0.009454
31
0.0
0
LINE
8
0
6
CONTINUOUS
10
0.146591
20
-0.007844
30
0.0
11
0.149007
21
-0.006675
31
0.0
0
LINE
8
0
6
CONTINUOUS
10
0.150193
20
-0.003776
30
0.0
11
0.139152
21
-0.006675
31
0.0
0
LINE
8
0
6
CONTINUOUS
10
0.139152
20
-0.006675
30
0.0
11
0.143731
21
-0.006675
31
0.0
0
LINE
8
0
6
CONTINUOUS
10
0.152870
20
-0.005805
30
0.0
11
0.143731
21
-0.006675
31
0.0
0
LINE
8
0
6
CONTINUOUS
10
0.143731
20
-0.006675
30
0.0
11
0.146608
21
-0.006675
31
0.0
0
LINE
8
0
6
CONTINUOUS
10
0.146608
20
-0.006675
30
0.0
11
0.148375
21
-0.006675
31
0.0
0
LINE
8
0
6
CONTINUOUS
10
0.190337
20
0.002499
30
0.0
11
0.179984
21
0.002499
31
0.0
0
LINE
8
0
6
CONTINUOUS
10
0.169631
20
0.002499
30
0.0
11
0.162840
21
0.002499
31
0.0
0
LINE
8
0
6
CONTINUOUS
10
0.167590
20
-0.001443
30
0.0
11
0.177336
21
-0.000660
31
0.0
0
LINE
8
0
6
CONTINUOUS
10
0.189255
20
-0.002332
30
0.0
11
0.193394
21
-0.001318
31
0.0
0
LINE
8
0
6
CONTINUOUS
10
0.193394
20
-0.001318
30
0.0
11
0.195806
21
-0.000143
31
0.0
0
LINE
8
0
6
CONTINUOUS
10
0.195806
20
-0.000143
30
0.0
11
0.197000
21
0.000827
31
0.0
0
LINE
8
0
6
CONTINUOUS
10
0.186171
20
-0.001983
30
0.0
11
0.192746
21
-0.001076
31
0.0
0
LINE
8
0
6
CONTINUOUS
10
0.110064
20
0.002065
30
0.0
11
0.110064
21
-0.001901
31
0.0
0
LINE
8
0
6
CONTINUOUS
10
0.150781
20
0.002499
30
0.0
11
0.141652
21
0.002499
31
0.0
0
LINE
8
0
6
CONTINUOUS
10
0.141652
20
0.002499
30
0.0
11
0.150781
21
0.002499
31
0.0
0
LINE
8
0
6
CONTINUOUS
10
0.110064
20
-0.008900
30
0.0
11
0.110064
21
-0.011119
31
0.0
0
LINE
8
0
6
CONTINUOUS
10
0.110064
20
-0.011119
30
0.0
11
0.110064
21
-0.013337
31
0.0
0
LINE
8
0
6
CONTINUOUS
10
0.110064
20
-0.004464
30
0.0
11
0.110064
21
-0.006675
31
0.0
0
LINE
8
0
6
CONTINUOUS
10
0.195067
20
-0.000294
30
0.0
11
0.195533
21
0.000483
31
0.0
0
LINE
8
0
6
CONTINUOUS
10
0.195067
20
-0.000294
30
0.0
11
0.192746
21
-0.001076
31
0.0
0
LINE
8
0
6
CONTINUOUS
10
0.110064
20
-0.006675
30
0.0
11
0.110064
21
-0.008900
31
0.0
0
LINE
8
0
6
CONTINUOUS
10
0.144234
20
-0.009454
30
0.0
11
0.146591
21
-0.007844
31
0.0
0
LINE
8
0
6
CONTINUOUS
10
0.169630
20
0.002499
30
0.0
11
0.162841
21
0.002499
31
0.0
0
LINE
8
0
6
CONTINUOUS
10
0.179987
20
0.002499
30
0.0
11
0.169631
21
0.002499
31
0.0
0
LINE
8
0
6
CONTINUOUS
10
0.125016
20
0.002499
30
0.0
11
0.117540
21
0.002499
31
0.0
0
LINE
8
0
6
CONTINUOUS
10
0.195533
20
0.000483
30
0.0
11
0.197000
21
0.000827
31
0.0
0
LINE
8
0
6
CONTINUOUS
10
0.195533
20
0.000483
30
0.0
11
0.196005
21
0.002049
31
0.0
0
LINE
8
0
6
CONTINUOUS
10
0.192809
20
-0.000040
30
0.0
11
0.195533
21
0.000483
31
0.0
0
LINE
8
0
6
CONTINUOUS
10
0.195386
20
0.002499
30
0.0
11
0.190337
21
0.002499
31
0.0
0
LINE
8
0
6
CONTINUOUS
10
0.196263
20
0.002499
30
0.0
11
0.190337
21
0.002499
31
0.0
0
LINE
8
0
6
CONTINUOUS
10
0.119730
20
0.002499
30
0.0
11
0.114889
21
0.002499
31
0.0
0
LINE
8
0
6
CONTINUOUS
10
0.117540
20
0.002499
30
0.0
11
0.110516
21
0.002499
31
0.0
0
LINE
8
0
6
CONTINUOUS
10
0.125016
20
0.002499
30
0.0
11
0.119730
21
0.002499
31
0.0
0
LINE
8
0
6
CONTINUOUS
10
0.192809
20
-0.000040
30
0.0
11
0.193618
21
0.002052
31
0.0
0
LINE
8
0
6
CONTINUOUS
10
0.186941
20
-0.000559
30
0.0
11
0.192809
21
-0.000040
31
0.0
0
LINE
8
0
6
CONTINUOUS
10
0.179984
20
0.002499
30
0.0
11
0.169630
21
0.002499
31
0.0
0
LINE
8
0
6
CONTINUOUS
10
0.178893
20
-0.003580
30
0.0
11
0.189317
21
-0.002332
31
0.0
0
LINE
8
0
6
CONTINUOUS
10
0.174789
20
-0.002447
30
0.0
11
0.186171
21
-0.001983
31
0.0
0
LINE
8
0
6
CONTINUOUS
10
0.186941
20
-0.000559
30
0.0
11
0.177336
21
-0.000660
31
0.0
0
LINE
8
0
6
CONTINUOUS
10
0.197000
20
0.002034
30
0.0
11
0.197000
21
0.000827
31
0.0
0
LINE
8
0
6
CONTINUOUS
10
0.156811
20
0.002499
30
0.0
11
0.150781
21
0.002499
31
0.0
0
LINE
8
0
6
CONTINUOUS
10
0.150781
20
0.002499
30
0.0
11
0.156810
21
0.002499
31
0.0
0
LINE
8
0
6
CONTINUOUS
10
0.110064
20
0.002499
30
0.0
11
0.110064
21
0.002065
31
0.0
0
LINE
8
0
6
CONTINUOUS
10
0.110064
20
0.002499
30
0.0
11
0.110574
21
0.002499
31
0.0
0
LINE
8
0
6
CONTINUOUS
10
0.112067
20
0.002499
30
0.0
11
0.110574
21
0.002499
31
0.0
0
LINE
8
0
6
CONTINUOUS
10
0.114444
20
0.002499
30
0.0
11
0.112067
21
0.002499
31
0.0
0
LINE
8
0
6
CONTINUOUS
10
0.117540
20
0.002499
30
0.0
11
0.114444
21
0.002499
31
0.0
0
LINE
8
0
6
CONTINUOUS
10
0.121147
20
0.002499
30
0.0
11
0.117540
21
0.002499
31
0.0
0
LINE
8
0
6
CONTINUOUS
10
0.125016
20
0.002499
30
0.0
11
0.121147
21
0.002499
31
0.0
0
LINE
8
0
6
CONTINUOUS
10
0.197000
20
0.002499
30
0.0
11
0.196125
21
0.002499
31
0.0
0
LINE
8
0
6
CONTINUOUS
10
0.196005
20
0.002049
30
0.0
11
0.196125
21
0.002499
31
0.0
0
LINE
8
0
6
CONTINUOUS
10
0.196125
20
0.002499
30
0.0
11
0.193709
21
0.002499
31
0.0
0
LINE
8
0
6
CONTINUOUS
10
0.128900
20
0.002499
30
0.0
11
0.125016
21
0.002499
31
0.0
0
LINE
8
0
6
CONTINUOUS
10
0.150781
20
0.002499
30
0.0
11
0.141652
21
0.002499
31
0.0
0
LINE
8
0
6
CONTINUOUS
10
0.179989
20
0.002499
30
0.0
11
0.169641
21
0.002499
31
0.0
0
LINE
8
0
6
CONTINUOUS
10
0.156827
20
0.002499
30
0.0
11
0.150800
21
0.002499
31
0.0
0
LINE
8
0
6
CONTINUOUS
10
0.193709
20
0.002499
30
0.0
11
0.190337
21
0.002499
31
0.0
0
LINE
8
0
6
CONTINUOUS
10
0.193618
20
0.002052
30
0.0
11
0.193709
21
0.002499
31
0.0
0
LINE
8
0
6
CONTINUOUS
10
0.190337
20
0.002499
30
0.0
11
0.179989
21
0.002499
31
0.0
0
LINE
8
0
6
CONTINUOUS
10
0.162853
20
0.002499
30
0.0
11
0.156827
21
0.002499
31
0.0
0
LINE
8
0
6
CONTINUOUS
10
0.169641
20
0.002499
30
0.0
11
0.162853
21
0.002499
31
0.0
0
LINE
8
0
6
CONTINUOUS
10
0.156841
20
-0.003474
30
0.0
11
0.163470
21
-0.003209
31
0.0
0
LINE
8
0
6
CONTINUOUS
10
0.162841
20
0.002499
30
0.0
11
0.156811
21
0.002499
31
0.0
0
LINE
8
0
6
CONTINUOUS
10
0.156810
20
0.002499
30
0.0
11
0.162840
21
0.002499
31
0.0
0
LINE
8
0
6
CONTINUOUS
10
0.162840
20
0.002499
30
0.0
11
0.156810
21
0.002499
31
0.0
0
LINE
8
0
6
CONTINUOUS
10
0.160383
20
-0.001524
30
0.0
11
0.167590
21
-0.001443
31
0.0
0
LINE
8
0
6
CONTINUOUS
10
0.156841
20
-0.003474
30
0.0
11
0.150193
21
-0.003776
31
0.0
0
LINE
8
0
6
CONTINUOUS
10
0.155455
20
-0.005958
30
0.0
11
0.161691
21
-0.005127
31
0.0
0
LINE
8
0
6
CONTINUOUS
10
0.110064
20
-0.001901
30
0.0
11
0.110064
21
-0.004464
31
0.0
0
LINE
8
0
6
CONTINUOUS
10
0.141662
20
0.002499
30
0.0
11
0.128900
21
0.002499
31
0.0
0
LINE
8
0
6
CONTINUOUS
10
0.128900
20
0.002499
30
0.0
11
0.125016
21
0.002499
31
0.0
0
LINE
8
0
6
CONTINUOUS
10
0.150800
20
0.002499
30
0.0
11
0.141662
21
0.002499
31
0.0
0
LINE
8
0
6
CONTINUOUS
10
0.141652
20
0.002499
30
0.0
11
0.128900
21
0.002499
31
0.0
0
LINE
8
0
6
CONTINUOUS
10
0.139969
20
-0.019162
30
0.0
11
0.140925
21
-0.014446
31
0.0
0
LINE
8
0
6
CONTINUOUS
10
0.149007
20
-0.006675
30
0.0
11
0.155455
21
-0.005958
31
0.0
0
LINE
8
0
6
CONTINUOUS
10
0.195386
20
0.002499
30
0.0
11
0.190337
21
0.002499
31
0.0
0
LINE
8
0
6
CONTINUOUS
10
0.195806
20
-0.000143
30
0.0
11
0.197000
21
0.000827
31
0.0
0
LINE
8
0
6
CONTINUOUS
10
0.169631
20
0.002499
30
0.0
11
0.162840
21
0.002499
31
0.0
0
LINE
8
0
6
CONTINUOUS
10
0.125016
20
0.002499
30
0.0
11
0.119730
21
0.002499
31
0.0
0
LINE
8
0
6
CONTINUOUS
10
0.119730
20
0.002499
30
0.0
11
0.114889
21
0.002499
31
0.0
0
LINE
8
0
6
CONTINUOUS
10
0.179987
20
0.002499
30
0.0
11
0.169631
21
0.002499
31
0.0
0
LINE
8
0
6
CONTINUOUS
10
0.162840
20
0.002499
30
0.0
11
0.156810
21
0.002499
31
0.0
0
LINE
8
0
6
CONTINUOUS
10
0.156810
20
0.002499
30
0.0
11
0.162840
21
0.002499
31
0.0
0
LINE
8
0
6
CONTINUOUS
10
0.128900
20
0.002499
30
0.0
11
0.125016
21
0.002499
31
0.0
0
LINE
8
0
6
CONTINUOUS
10
0.125016
20
0.002499
30
0.0
11
0.128900
21
0.002499
31
0.0
0
LINE
8
0
6
CONTINUOUS
10
0.141652
20
0.002499
30
0.0
11
0.128900
21
0.002499
31
0.0
0
LINE
8
0
6
CONTINUOUS
10
0.128900
20
0.002499
30
0.0
11
0.141652
21
0.002499
31
0.0
0
LINE
8
0
6
CONTINUOUS
10
0.110064
20
-0.019162
30
0.0
11
0.110064
21
-0.056542
31
0.0
0
LINE
8
0
6
CONTINUOUS
10
0.139968
20
-0.056670
30
0.0
11
0.139968
21
-0.056542
31
0.0
0
LINE
8
0
6
CONTINUOUS
10
0.139468
20
-0.056799
30
0.0
11
0.139968
21
-0.056670
31
0.0
0
LINE
8
0
6
CONTINUOUS
10
0.139968
20
-0.056670
30
0.0
11
0.139459
21
-0.056670
31
0.0
0
LINE
8
0
6
CONTINUOUS
10
0.139968
20
-0.056928
30
0.0
11
0.139468
21
-0.056799
31
0.0
0
LINE
8
0
6
CONTINUOUS
10
0.139468
20
-0.056799
30
0.0
11
0.138976
21
-0.056799
31
0.0
0
LINE
8
0
6
CONTINUOUS
10
0.139968
20
-0.057057
30
0.0
11
0.139968
21
-0.056928
31
0.0
0
LINE
8
0
6
CONTINUOUS
10
0.139968
20
-0.056928
30
0.0
11
0.139459
21
-0.056928
31
0.0
0
LINE
8
0
6
CONTINUOUS
10
0.114443
20
-0.056670
30
0.0
11
0.112066
21
-0.056670
31
0.0
0
LINE
8
0
6
CONTINUOUS
10
0.114797
20
-0.056799
30
0.0
11
0.112499
21
-0.056799
31
0.0
0
LINE
8
0
6
CONTINUOUS
10
0.114443
20
-0.056928
30
0.0
11
0.112066
21
-0.056928
31
0.0
0
LINE
8
0
6
CONTINUOUS
10
0.125010
20
-0.056670
30
0.0
11
0.121152
21
-0.056670
31
0.0
0
LINE
8
0
6
CONTINUOUS
10
0.125010
20
-0.056799
30
0.0
11
0.121281
21
-0.056799
31
0.0
0
LINE
8
0
6
CONTINUOUS
10
0.125010
20
-0.056928
30
0.0
11
0.121152
21
-0.056928
31
0.0
0
LINE
8
0
6
CONTINUOUS
10
0.132492
20
-0.056670
30
0.0
11
0.128899
21
-0.056670
31
0.0
0
LINE
8
0
6
CONTINUOUS
10
0.132242
20
-0.056799
30
0.0
11
0.128770
21
-0.056799
31
0.0
0
LINE
8
0
6
CONTINUOUS
10
0.132492
20
-0.056928
30
0.0
11
0.128899
21
-0.056928
31
0.0
0
LINE
8
0
6
CONTINUOUS
10
0.137965
20
-0.056670
30
0.0
11
0.135589
21
-0.056670
31
0.0
0
LINE
8
0
6
CONTINUOUS
10
0.137532
20
-0.056799
30
0.0
11
0.135235
21
-0.056799
31
0.0
0
LINE
8
0
6
CONTINUOUS
10
0.137965
20
-0.056928
30
0.0
11
0.135589
21
-0.056928
31
0.0
0
LINE
8
0
6
CONTINUOUS
10
0.117542
20
-0.056670
30
0.0
11
0.114443
21
-0.056670
31
0.0
0
LINE
8
0
6
CONTINUOUS
10
0.117792
20
-0.056799
30
0.0
11
0.114797
21
-0.056799
31
0.0
0
LINE
8
0
6
CONTINUOUS
10
0.117542
20
-0.056928
30
0.0
11
0.114443
21
-0.056928
31
0.0
0
LINE
8
0
6
CONTINUOUS
10
0.139459
20
-0.056670
30
0.0
11
0.137965
21
-0.056670
31
0.0
0
LINE
8
0
6
CONTINUOUS
10
0.138976
20
-0.056799
30
0.0
11
0.137532
21
-0.056799
31
0.0
0
LINE
8
0
6
CONTINUOUS
10
0.139459
20
-0.056928
30
0.0
11
0.137965
21
-0.056928
31
0.0
0
LINE
8
0
6
CONTINUOUS
10
0.128899
20
-0.056670
30
0.0
11
0.125010
21
-0.056670
31
0.0
0
LINE
8
0
6
CONTINUOUS
10
0.128770
20
-0.056799
30
0.0
11
0.125010
21
-0.056799
31
0.0
0
LINE
8
0
6
CONTINUOUS
10
0.128899
20
-0.056928
30
0.0
11
0.125010
21
-0.056928
31
0.0
0
LINE
8
0
6
CONTINUOUS
10
0.112066
20
-0.056670
30
0.0
11
0.110572
21
-0.056670
31
0.0
0
LINE
8
0
6
CONTINUOUS
10
0.112499
20
-0.056799
30
0.0
11
0.111055
21
-0.056799
31
0.0
0
LINE
8
0
6
CONTINUOUS
10
0.112066
20
-0.056928
30
0.0
11
0.110572
21
-0.056928
31
0.0
0
LINE
8
0
6
CONTINUOUS
10
0.110064
20
-0.056542
30
0.0
11
0.110064
21
-0.056670
31
0.0
0
LINE
8
0
6
CONTINUOUS
10
0.110064
20
-0.056670
30
0.0
11
0.110564
21
-0.056799
31
0.0
0
LINE
8
0
6
CONTINUOUS
10
0.110572
20
-0.056670
30
0.0
11
0.110064
21
-0.056670
31
0.0
0
LINE
8
0
6
CONTINUOUS
10
0.110564
20
-0.056799
30
0.0
11
0.110064
21
-0.056928
31
0.0
0
LINE
8
0
6
CONTINUOUS
10
0.111055
20
-0.056799
30
0.0
11
0.110564
21
-0.056799
31
0.0
0
LINE
8
0
6
CONTINUOUS
10
0.110064
20
-0.056928
30
0.0
11
0.110064
21
-0.057057
31
0.0
0
LINE
8
0
6
CONTINUOUS
10
0.110572
20
-0.056928
30
0.0
11
0.110064
21
-0.056928
31
0.0
0
LINE
8
0
6
CONTINUOUS
10
0.135589
20
-0.056670
30
0.0
11
0.132492
21
-0.056670
31
0.0
0
LINE
8
0
6
CONTINUOUS
10
0.135235
20
-0.056799
30
0.0
11
0.132242
21
-0.056799
31
0.0
0
LINE
8
0
6
CONTINUOUS
10
0.135589
20
-0.056928
30
0.0
11
0.132492
21
-0.056928
31
0.0
0
LINE
8
0
6
CONTINUOUS
10
0.121152
20
-0.056670
30
0.0
11
0.117542
21
-0.056670
31
0.0
0
LINE
8
0
6
CONTINUOUS
10
0.121281
20
-0.056799
30
0.0
11
0.117792
21
-0.056799
31
0.0
0
LINE
8
0
6
CONTINUOUS
10
0.121152
20
-0.056928
30
0.0
11
0.117542
21
-0.056928
31
0.0
0
LINE
8
0
6
CONTINUOUS
10
0.139968
20
-0.059500
30
0.0
11
0.139968
21
-0.057057
31
0.0
0
LINE
8
0
6
CONTINUOUS
10
-0.190337
20
0.002499
30
0.0
11
-0.195386
21
0.002499
31
0.0
0
LINE
8
0
6
CONTINUOUS
10
-0.162840
20
0.002499
30
0.0
11
-0.169631
21
0.002499
31
0.0
0
LINE
8
0
6
CONTINUOUS
10
-0.119730
20
0.002499
30
0.0
11
-0.125016
21
0.002499
31
0.0
0
LINE
8
0
6
CONTINUOUS
10
-0.114889
20
0.002499
30
0.0
11
-0.119730
21
0.002499
31
0.0
0
LINE
8
0
6
CONTINUOUS
10
-0.169631
20
0.002499
30
0.0
11
-0.179987
21
0.002499
31
0.0
0
LINE
8
0
6
CONTINUOUS
10
-0.162840
20
0.002499
30
0.0
11
-0.156810
21
0.002499
31
0.0
0
LINE
8
0
6
CONTINUOUS
10
-0.156810
20
0.002499
30
0.0
11
-0.162840
21
0.002499
31
0.0
0
LINE
8
0
6
CONTINUOUS
10
-0.128900
20
0.002499
30
0.0
11
-0.125016
21
0.002499
31
0.0
0
LINE
8
0
6
CONTINUOUS
10
-0.125016
20
0.002499
30
0.0
11
-0.128900
21
0.002499
31
0.0
0
LINE
8
0
6
CONTINUOUS
10
-0.141652
20
0.002499
30
0.0
11
-0.128900
21
0.002499
31
0.0
0
LINE
8
0
6
CONTINUOUS
10
-0.128900
20
0.002499
30
0.0
11
-0.141652
21
0.002499
31
0.0
0
LINE
8
0
6
CONTINUOUS
10
-0.110064
20
-0.059500
30
0.0
11
-0.110064
21
-0.057057
31
0.0
0
LINE
8
0
6
CONTINUOUS
10
-0.110064
20
-0.019162
30
0.0
11
-0.110064
21
-0.013337
31
0.0
0
LINE
8
0
6
CONTINUOUS
10
-0.178893
20
-0.003580
30
0.0
11
-0.168611
21
-0.004682
31
0.0
0
LINE
8
0
6
CONTINUOUS
10
-0.168611
20
-0.004682
30
0.0
11
-0.161691
21
-0.005127
31
0.0
0
LINE
8
0
6
CONTINUOUS
10
-0.163470
20
-0.003209
30
0.0
11
-0.174789
21
-0.002447
31
0.0
0
LINE
8
0
6
CONTINUOUS
10
-0.150781
20
0.002499
30
0.0
11
-0.156810
21
0.002499
31
0.0
0
LINE
8
0
6
CONTINUOUS
10
-0.142281
20
-0.011787
30
0.0
11
-0.140925
21
-0.014446
31
0.0
0
LINE
8
0
6
CONTINUOUS
10
-0.144234
20
-0.009454
30
0.0
11
-0.142281
21
-0.011787
31
0.0
0
LINE
8
0
6
CONTINUOUS
10
-0.149007
20
-0.006675
30
0.0
11
-0.146591
21
-0.007844
31
0.0
0
LINE
8
0
6
CONTINUOUS
10
-0.143685
20
-0.006675
30
0.0
11
-0.139080
21
-0.006675
31
0.0
0
LINE
8
0
6
CONTINUOUS
10
-0.150164
20
-0.003776
30
0.0
11
-0.139080
21
-0.006675
31
0.0
0
LINE
8
0
6
CONTINUOUS
10
-0.146582
20
-0.006675
30
0.0
11
-0.143685
21
-0.006675
31
0.0
0
LINE
8
0
6
CONTINUOUS
10
-0.152850
20
-0.005805
30
0.0
11
-0.143685
21
-0.006675
31
0.0
0
LINE
8
0
6
CONTINUOUS
10
-0.148364
20
-0.006675
30
0.0
11
-0.146582
21
-0.006675
31
0.0
0
LINE
8
0
6
CONTINUOUS
10
-0.179984
20
0.002499
30
0.0
11
-0.190337
21
0.002499
31
0.0
0
LINE
8
0
6
CONTINUOUS
10
-0.162840
20
0.002499
30
0.0
11
-0.169631
21
0.002499
31
0.0
0
LINE
8
0
6
CONTINUOUS
10
-0.177336
20
-0.000660
30
0.0
11
-0.167590
21
-0.001443
31
0.0
0
LINE
8
0
6
CONTINUOUS
10
-0.193394
20
-0.001318
30
0.0
11
-0.189255
21
-0.002332
31
0.0
0
LINE
8
0
6
CONTINUOUS
10
-0.195806
20
-0.000143
30
0.0
11
-0.193394
21
-0.001318
31
0.0
0
LINE
8
0
6
CONTINUOUS
10
-0.192746
20
-0.001076
30
0.0
11
-0.186171
21
-0.001983
31
0.0
0
LINE
8
0
6
CONTINUOUS
10
-0.110064
20
-0.001901
30
0.0
11
-0.110064
21
0.002065
31
0.0
0
LINE
8
0
6
CONTINUOUS
10
-0.150781
20
0.002499
30
0.0
11
-0.141652
21
0.002499
31
0.0
0
LINE
8
0
6
CONTINUOUS
10
-0.141652
20
0.002499
30
0.0
11
-0.150781
21
0.002499
31
0.0
0
LINE
8
0
6
CONTINUOUS
10
-0.110064
20
-0.011119
30
0.0
11
-0.110064
21
-0.008900
31
0.0
0
LINE
8
0
6
CONTINUOUS
10
-0.110064
20
-0.013337
30
0.0
11
-0.110064
21
-0.011119
31
0.0
0
LINE
8
0
6
CONTINUOUS
10
-0.110064
20
-0.006675
30
0.0
11
-0.110064
21
-0.004464
31
0.0
0
LINE
8
0
6
CONTINUOUS
10
-0.195533
20
0.000483
30
0.0
11
-0.195067
21
-0.000294
31
0.0
0
LINE
8
0
6
CONTINUOUS
10
-0.192746
20
-0.001076
30
0.0
11
-0.195067
21
-0.000294
31
0.0
0
LINE
8
0
6
CONTINUOUS
10
-0.110064
20
-0.008900
30
0.0
11
-0.110064
21
-0.006675
31
0.0
0
LINE
8
0
6
CONTINUOUS
10
-0.146591
20
-0.007844
30
0.0
11
-0.144234
21
-0.009454
31
0.0
0
LINE
8
0
6
CONTINUOUS
10
-0.162841
20
0.002499
30
0.0
11
-0.169630
21
0.002499
31
0.0
0
LINE
8
0
6
CONTINUOUS
10
-0.169631
20
0.002499
30
0.0
11
-0.179987
21
0.002499
31
0.0
0
LINE
8
0
6
CONTINUOUS
10
-0.117540
20
0.002499
30
0.0
11
-0.125016
21
0.002499
31
0.0
0
LINE
8
0
6
CONTINUOUS
10
-0.197000
20
0.000827
30
0.0
11
-0.195533
21
0.000483
31
0.0
0
LINE
8
0
6
CONTINUOUS
10
-0.195533
20
0.000483
30
0.0
11
-0.192809
21
-0.000040
31
0.0
0
LINE
8
0
6
CONTINUOUS
10
-0.196005
20
0.002049
30
0.0
11
-0.195533
21
0.000483
31
0.0
0
LINE
8
0
6
CONTINUOUS
10
-0.190337
20
0.002499
30
0.0
11
-0.195386
21
0.002499
31
0.0
0
LINE
8
0
6
CONTINUOUS
10
-0.190337
20
0.002499
30
0.0
11
-0.196263
21
0.002499
31
0.0
0
LINE
8
0
6
CONTINUOUS
10
-0.114889
20
0.002499
30
0.0
11
-0.119730
21
0.002499
31
0.0
0
LINE
8
0
6
CONTINUOUS
10
-0.110516
20
0.002499
30
0.0
11
-0.117540
21
0.002499
31
0.0
0
LINE
8
0
6
CONTINUOUS
10
-0.119730
20
0.002499
30
0.0
11
-0.125016
21
0.002499
31
0.0
0
LINE
8
0
6
CONTINUOUS
10
-0.192809
20
-0.000040
30
0.0
11
-0.186941
21
-0.000559
31
0.0
0
LINE
8
0
6
CONTINUOUS
10
-0.193618
20
0.002052
30
0.0
11
-0.192809
21
-0.000040
31
0.0
0
LINE
8
0
6
CONTINUOUS
10
-0.169630
20
0.002499
30
0.0
11
-0.179984
21
0.002499
31
0.0
0
LINE
8
0
6
CONTINUOUS
10
-0.189317
20
-0.002332
30
0.0
11
-0.178893
21
-0.003580
31
0.0
0
LINE
8
0
6
CONTINUOUS
10
-0.177336
20
-0.000660
30
0.0
11
-0.186941
21
-0.000559
31
0.0
0
LINE
8
0
6
CONTINUOUS
10
-0.186171
20
-0.001983
30
0.0
11
-0.174789
21
-0.002447
31
0.0
0
LINE
8
0
6
CONTINUOUS
10
-0.197000
20
0.000827
30
0.0
11
-0.197000
21
0.002034
31
0.0
0
LINE
8
0
6
CONTINUOUS
10
-0.156810
20
0.002499
30
0.0
11
-0.150781
21
0.002499
31
0.0
0
LINE
8
0
6
CONTINUOUS
10
-0.150781
20
0.002499
30
0.0
11
-0.156811
21
0.002499
31
0.0
0
LINE
8
0
6
CONTINUOUS
10
-0.110064
20
0.002065
30
0.0
11
-0.110064
21
0.002499
31
0.0
0
LINE
8
0
6
CONTINUOUS
10
-0.110574
20
0.002499
30
0.0
11
-0.110064
21
0.002499
31
0.0
0
LINE
8
0
6
CONTINUOUS
10
-0.110574
20
0.002499
30
0.0
11
-0.112067
21
0.002499
31
0.0
0
LINE
8
0
6
CONTINUOUS
10
-0.112067
20
0.002499
30
0.0
11
-0.114444
21
0.002499
31
0.0
0
LINE
8
0
6
CONTINUOUS
10
-0.114444
20
0.002499
30
0.0
11
-0.117540
21
0.002499
31
0.0
0
LINE
8
0
6
CONTINUOUS
10
-0.117540
20
0.002499
30
0.0
11
-0.121147
21
0.002499
31
0.0
0
LINE
8
0
6
CONTINUOUS
10
-0.121147
20
0.002499
30
0.0
11
-0.125016
21
0.002499
31
0.0
0
LINE
8
0
6
CONTINUOUS
10
-0.196125
20
0.002499
30
0.0
11
-0.197000
21
0.002499
31
0.0
0
LINE
8
0
6
CONTINUOUS
10
-0.193709
20
0.002499
30
0.0
11
-0.196125
21
0.002499
31
0.0
0
LINE
8
0
6
CONTINUOUS
10
-0.196125
20
0.002499
30
0.0
11
-0.196005
21
0.002049
31
0.0
0
LINE
8
0
6
CONTINUOUS
10
-0.125016
20
0.002499
30
0.0
11
-0.128900
21
0.002499
31
0.0
0
LINE
8
0
6
CONTINUOUS
10
-0.141652
20
0.002499
30
0.0
11
-0.150781
21
0.002499
31
0.0
0
LINE
8
0
6
CONTINUOUS
10
-0.169641
20
0.002499
30
0.0
11
-0.179989
21
0.002499
31
0.0
0
LINE
8
0
6
CONTINUOUS
10
-0.150801
20
0.002499
30
0.0
11
-0.156827
21
0.002499
31
0.0
0
LINE
8
0
6
CONTINUOUS
10
-0.193709
20
0.002499
30
0.0
11
-0.193618
21
0.002052
31
0.0
0
LINE
8
0
6
CONTINUOUS
10
-0.190337
20
0.002499
30
0.0
11
-0.193709
21
0.002499
31
0.0
0
LINE
8
0
6
CONTINUOUS
10
-0.179989
20
0.002499
30
0.0
11
-0.190337
21
0.002499
31
0.0
0
LINE
8
0
6
CONTINUOUS
10
-0.156827
20
0.002499
30
0.0
11
-0.162853
21
0.002499
31
0.0
0
LINE
8
0
6
CONTINUOUS
10
-0.162853
20
0.002499
30
0.0
11
-0.169641
21
0.002499
31
0.0
0
LINE
8
0
6
CONTINUOUS
10
-0.163470
20
-0.003209
30
0.0
11
-0.156828
21
-0.003474
31
0.0
0
LINE
8
0
6
CONTINUOUS
10
-0.162840
20
0.002499
30
0.0
11
-0.156810
21
0.002499
31
0.0
0
LINE
8
0
6
CONTINUOUS
10
-0.156811
20
0.002499
30
0.0
11
-0.162841
21
0.002499
31
0.0
0
LINE
8
0
6
CONTINUOUS
10
-0.156810
20
0.002499
30
0.0
11
-0.162840
21
0.002499
31
0.0
0
LINE
8
0
6
CONTINUOUS
10
-0.167590
20
-0.001443
30
0.0
11
-0.160380
21
-0.001524
31
0.0
0
LINE
8
0
6
CONTINUOUS
10
-0.150164
20
-0.003776
30
0.0
11
-0.156828
21
-0.003474
31
0.0
0
LINE
8
0
6
CONTINUOUS
10
-0.161691
20
-0.005127
30
0.0
11
-0.155455
21
-0.005958
31
0.0
0
LINE
8
0
6
CONTINUOUS
10
-0.110064
20
-0.004464
30
0.0
11
-0.110064
21
-0.001901
31
0.0
0
LINE
8
0
6
CONTINUOUS
10
-0.128900
20
0.002499
30
0.0
11
-0.141662
21
0.002499
31
0.0
0
LINE
8
0
6
CONTINUOUS
10
-0.125016
20
0.002499
30
0.0
11
-0.128900
21
0.002499
31
0.0
0
LINE
8
0
6
CONTINUOUS
10
-0.141662
20
0.002499
30
0.0
11
-0.150801
21
0.002499
31
0.0
0
LINE
8
0
6
CONTINUOUS
10
-0.128900
20
0.002499
30
0.0
11
-0.141652
21
0.002499
31
0.0
0
LINE
8
0
6
CONTINUOUS
10
-0.140925
20
-0.014446
30
0.0
11
-0.139969
21
-0.019162
31
0.0
0
LINE
8
0
6
CONTINUOUS
10
-0.155455
20
-0.005958
30
0.0
11
-0.149007
21
-0.006675
31
0.0
0
LINE
8
0
6
CONTINUOUS
10
-0.139969
20
-0.019162
30
0.0
11
-0.139968
21
-0.056542
31
0.0
0
LINE
8
0
6
CONTINUOUS
10
-0.139968
20
-0.057057
30
0.0
11
-0.139968
21
-0.059500
31
0.0
0
LINE
8
0
6
CONTINUOUS
10
-0.110064
20
-0.056542
30
0.0
11
-0.110064
21
-0.019162
31
0.0
0
LINE
8
0
6
CONTINUOUS
10
-0.139968
20
-0.056542
30
0.0
11
-0.139968
21
-0.056670
31
0.0
0
LINE
8
0
6
CONTINUOUS
10
-0.139968
20
-0.056670
30
0.0
11
-0.139468
21
-0.056799
31
0.0
0
LINE
8
0
6
CONTINUOUS
10
-0.139459
20
-0.056670
30
0.0
11
-0.139968
21
-0.056670
31
0.0
0
LINE
8
0
6
CONTINUOUS
10
-0.139468
20
-0.056799
30
0.0
11
-0.139968
21
-0.056928
31
0.0
0
LINE
8
0
6
CONTINUOUS
10
-0.138976
20
-0.056799
30
0.0
11
-0.139468
21
-0.056799
31
0.0
0
LINE
8
0
6
CONTINUOUS
10
-0.139968
20
-0.056928
30
0.0
11
-0.139968
21
-0.057057
31
0.0
0
LINE
8
0
6
CONTINUOUS
10
-0.139459
20
-0.056928
30
0.0
11
-0.139968
21
-0.056928
31
0.0
0
LINE
8
0
6
CONTINUOUS
10
-0.112066
20
-0.056670
30
0.0
11
-0.114443
21
-0.056670
31
0.0
0
LINE
8
0
6
CONTINUOUS
10
-0.112499
20
-0.056799
30
0.0
11
-0.114797
21
-0.056799
31
0.0
0
LINE
8
0
6
CONTINUOUS
10
-0.112066
20
-0.056928
30
0.0
11
-0.114443
21
-0.056928
31
0.0
0
LINE
8
0
6
CONTINUOUS
10
-0.121152
20
-0.056670
30
0.0
11
-0.125010
21
-0.056670
31
0.0
0
LINE
8
0
6
CONTINUOUS
10
-0.121281
20
-0.056799
30
0.0
11
-0.125010
21
-0.056799
31
0.0
0
LINE
8
0
6
CONTINUOUS
10
-0.121152
20
-0.056928
30
0.0
11
-0.125010
21
-0.056928
31
0.0
0
LINE
8
0
6
CONTINUOUS
10
-0.128899
20
-0.056670
30
0.0
11
-0.132492
21
-0.056670
31
0.0
0
LINE
8
0
6
CONTINUOUS
10
-0.128770
20
-0.056799
30
0.0
11
-0.132242
21
-0.056799
31
0.0
0
LINE
8
0
6
CONTINUOUS
10
-0.128899
20
-0.056928
30
0.0
11
-0.132492
21
-0.056928
31
0.0
0
LINE
8
0
6
CONTINUOUS
10
-0.135589
20
-0.056670
30
0.0
11
-0.137965
21
-0.056670
31
0.0
0
LINE
8
0
6
CONTINUOUS
10
-0.135235
20
-0.056799
30
0.0
11
-0.137532
21
-0.056799
31
0.0
0
LINE
8
0
6
CONTINUOUS
10
-0.135589
20
-0.056928
30
0.0
11
-0.137965
21
-0.056928
31
0.0
0
LINE
8
0
6
CONTINUOUS
10
-0.114443
20
-0.056670
30
0.0
11
-0.117542
21
-0.056670
31
0.0
0
LINE
8
0
6
CONTINUOUS
10
-0.114797
20
-0.056799
30
0.0
11
-0.117792
21
-0.056799
31
0.0
0
LINE
8
0
6
CONTINUOUS
10
-0.114443
20
-0.056928
30
0.0
11
-0.117542
21
-0.056928
31
0.0
0
LINE
8
0
6
CONTINUOUS
10
-0.137965
20
-0.056670
30
0.0
11
-0.139459
21
-0.056670
31
0.0
0
LINE
8
0
6
CONTINUOUS
10
-0.137532
20
-0.056799
30
0.0
11
-0.138976
21
-0.056799
31
0.0
0
LINE
8
0
6
CONTINUOUS
10
-0.137965
20
-0.056928
30
0.0
11
-0.139459
21
-0.056928
31
0.0
0
LINE
8
0
6
CONTINUOUS
10
-0.125010
20
-0.056670
30
0.0
11
-0.128899
21
-0.056670
31
0.0
0
LINE
8
0
6
CONTINUOUS
10
-0.125010
20
-0.056799
30
0.0
11
-0.128770
21
-0.056799
31
0.0
0
LINE
8
0
6
CONTINUOUS
10
-0.125010
20
-0.056928
30
0.0
11
-0.128899
21
-0.056928
31
0.0
0
LINE
8
0
6
CONTINUOUS
10
-0.110572
20
-0.056670
30
0.0
11
-0.112066
21
-0.056670
31
0.0
0
LINE
8
0
6
CONTINUOUS
10
-0.111055
20
-0.056799
30
0.0
11
-0.112499
21
-0.056799
31
0.0
0
LINE
8
0
6
CONTINUOUS
10
-0.110572
20
-0.056928
30
0.0
11
-0.112066
21
-0.056928
31
0.0
0
LINE
8
0
6
CONTINUOUS
10
-0.110064
20
-0.056670
30
0.0
11
-0.110064
21
-0.056542
31
0.0
0
LINE
8
0
6
CONTINUOUS
10
-0.110564
20
-0.056799
30
0.0
11
-0.110064
21
-0.056670
31
0.0
0
LINE
8
0
6
CONTINUOUS
10
-0.110064
20
-0.056670
30
0.0
11
-0.110572
21
-0.056670
31
0.0
0
LINE
8
0
6
CONTINUOUS
10
-0.110064
20
-0.056928
30
0.0
11
-0.110564
21
-0.056799
31
0.0
0
LINE
8
0
6
CONTINUOUS
10
-0.110564
20
-0.056799
30
0.0
11
-0.111055
21
-0.056799
31
0.0
0
LINE
8
0
6
CONTINUOUS
10
-0.110064
20
-0.057057
30
0.0
11
-0.110064
21
-0.056928
31
0.0
0
LINE
8
0
6
CONTINUOUS
10
-0.110064
20
-0.056928
30
0.0
11
-0.110572
21
-0.056928
31
0.0
0
LINE
8
0
6
CONTINUOUS
10
-0.132492
20
-0.056670
30
0.0
11
-0.135589
21
-0.056670
31
0.0
0
LINE
8
0
6
CONTINUOUS
10
-0.132242
20
-0.056799
30
0.0
11
-0.135235
21
-0.056799
31
0.0
0
LINE
8
0
6
CONTINUOUS
10
-0.132492
20
-0.056928
30
0.0
11
-0.135589
21
-0.056928
31
0.0
0
LINE
8
0
6
CONTINUOUS
10
-0.117542
20
-0.056670
30
0.0
11
-0.121152
21
-0.056670
31
0.0
0
LINE
8
0
6
CONTINUOUS
10
-0.117792
20
-0.056799
30
0.0
11
-0.121281
21
-0.056799
31
0.0
0
LINE
8
0
6
CONTINUOUS
10
-0.117542
20
-0.056928
30
0.0
11
-0.121152
21
-0.056928
31
0.0
0
LINE
8
0
6
CONTINUOUS
10
0.095000
20
-0.065234
30
0.0
11
0.095000
21
-0.065500
31
0.0
0
LINE
8
0
6
CONTINUOUS
10
0.095000
20
-0.065500
30
0.0
11
0.095752
21
-0.065500
31
0.0
0
LINE
8
0
6
CONTINUOUS
10
0.095752
20
-0.065500
30
0.0
11
0.097971
21
-0.065500
31
0.0
0
LINE
8
0
6
CONTINUOUS
10
0.097971
20
-0.065500
30
0.0
11
0.101545
21
-0.065500
31
0.0
0
LINE
8
0
6
CONTINUOUS
10
0.101545
20
-0.065500
30
0.0
11
0.106295
21
-0.065500
31
0.0
0
LINE
8
0
6
CONTINUOUS
10
0.106295
20
-0.065500
30
0.0
11
0.111984
21
-0.065500
31
0.0
0
LINE
8
0
6
CONTINUOUS
10
0.111984
20
-0.065500
30
0.0
11
0.118325
21
-0.065500
31
0.0
0
LINE
8
0
6
CONTINUOUS
10
0.118325
20
-0.065500
30
0.0
11
0.125000
21
-0.065500
31
0.0
0
LINE
8
0
6
CONTINUOUS
10
0.125000
20
-0.065500
30
0.0
11
0.131676
21
-0.065500
31
0.0
0
LINE
8
0
6
CONTINUOUS
10
0.131676
20
-0.065500
30
0.0
11
0.138017
21
-0.065500
31
0.0
0
LINE
8
0
6
CONTINUOUS
10
0.138017
20
-0.065500
30
0.0
11
0.143705
21
-0.065500
31
0.0
0
LINE
8
0
6
CONTINUOUS
10
0.143705
20
-0.065500
30
0.0
11
0.148455
21
-0.065500
31
0.0
0
LINE
8
0
6
CONTINUOUS
10
0.148455
20
-0.065500
30
0.0
11
0.152029
21
-0.065500
31
0.0
0
LINE
8
0
6
CONTINUOUS
10
0.152029
20
-0.065500
30
0.0
11
0.154248
21
-0.065500
31
0.0
0
LINE
8
0
6
CONTINUOUS
10
0.155000
20
-0.065500
30
0.0
11
0.155000
21
-0.065234
31
0.0
0
LINE
8
0
6
CONTINUOUS
10
0.154248
20
-0.065500
30
0.0
11
0.155000
21
-0.065500
31
0.0
0
LINE
8
0
6
CONTINUOUS
10
0.095752
20
-0.059500
30
0.0
11
0.095000
21
-0.059500
31
0.0
0
LINE
8
0
6
CONTINUOUS
10
0.095000
20
-0.059500
30
0.0
11
0.095000
21
-0.059766
31
0.0
0
LINE
8
0
6
CONTINUOUS
10
0.097971
20
-0.059500
30
0.0
11
0.095752
21
-0.059500
31
0.0
0
LINE
8
0
6
CONTINUOUS
10
0.101545
20
-0.059500
30
0.0
11
0.097971
21
-0.059500
31
0.0
0
LINE
8
0
6
CONTINUOUS
10
0.106295
20
-0.059500
30
0.0
11
0.101545
21
-0.059500
31
0.0
0
LINE
8
0
6
CONTINUOUS
10
0.111984
20
-0.059500
30
0.0
11
0.106295
21
-0.059500
31
0.0
0
LINE
8
0
6
CONTINUOUS
10
0.118325
20
-0.059500
30
0.0
11
0.111984
21
-0.059500
31
0.0
0
LINE
8
0
6
CONTINUOUS
10
0.125000
20
-0.059500
30
0.0
11
0.118325
21
-0.059500
31
0.0
0
LINE
8
0
6
CONTINUOUS
10
0.131676
20
-0.059500
30
0.0
11
0.125000
21
-0.059500
31
0.0
0
LINE
8
0
6
CONTINUOUS
10
0.138017
20
-0.059500
30
0.0
11
0.131676
21
-0.059500
31
0.0
0
LINE
8
0
6
CONTINUOUS
10
0.143705
20
-0.059500
30
0.0
11
0.138017
21
-0.059500
31
0.0
0
LINE
8
0
6
CONTINUOUS
10
0.148455
20
-0.059500
30
0.0
11
0.143705
21
-0.059500
31
0.0
0
LINE
8
0
6
CONTINUOUS
10
0.152029
20
-0.059500
30
0.0
11
0.148455
21
-0.059500
31
0.0
0
LINE
8
0
6
CONTINUOUS
10
0.154248
20
-0.059500
30
0.0
11
0.152029
21
-0.059500
31
0.0
0
LINE
8
0
6
CONTINUOUS
10
0.155000
20
-0.059500
30
0.0
11
0.154248
21
-0.059500
31
0.0
0
LINE
8
0
6
CONTINUOUS
10
0.155000
20
-0.059766
30
0.0
11
0.155000
21
-0.059500
31
0.0
0
LINE
8
0
6
CONTINUOUS
10
0.155000
20
-0.065234
30
0.0
11
0.155000
21
-0.059766
31
0.0
0
LINE
8
0
6
CONTINUOUS
10
0.095000
20
-0.059766
30
0.0
11
0.095000
21
-0.065234
31
0.0
0
LINE
8
0
6
CONTINUOUS
10
-0.155000
20
-0.065234
30
0.0
11
-0.155000
21
-0.065500
31
0.0
0
LINE
8
0
6
CONTINUOUS
10
-0.155000
20
-0.065500
30
0.0
11
-0.154248
21
-0.065500
31
0.0
0
LINE
8
0
6
CONTINUOUS
10
-0.154248
20
-0.065500
30
0.0
11
-0.152029
21
-0.065500
31
0.0
0
LINE
8
0
6
CONTINUOUS
10
-0.152029
20
-0.065500
30
0.0
11
-0.148455
21
-0.065500
31
0.0
0
LINE
8
0
6
CONTINUOUS
10
-0.148455
20
-0.065500
30
0.0
11
-0.143705
21
-0.065500
31
0.0
0
LINE
8
0
6
CONTINUOUS
10
-0.143705
20
-0.065500
30
0.0
11
-0.138016
21
-0.065500
31
0.0
0
LINE
8
0
6
CONTINUOUS
10
-0.138016
20
-0.065500
30
0.0
11
-0.131675
21
-0.065500
31
0.0
0
LINE
8
0
6
CONTINUOUS
10
-0.131675
20
-0.065500
30
0.0
11
-0.125000
21
-0.065500
31
0.0
0
LINE
8
0
6
CONTINUOUS
10
-0.125000
20
-0.065500
30
0.0
11
-0.118324
21
-0.065500
31
0.0
0
LINE
8
0
6
CONTINUOUS
10
-0.118324
20
-0.065500
30
0.0
11
-0.111983
21
-0.065500
31
0.0
0
LINE
8
0
6
CONTINUOUS
10
-0.111983
20
-0.065500
30
0.0
11
-0.106295
21
-0.065500
31
0.0
0
LINE
8
0
6
CONTINUOUS
10
-0.106295
20
-0.065500
30
0.0
11
-0.101545
21
-0.065500
31
0.0
0
LINE
8
0
6
CONTINUOUS
10
-0.101545
20
-0.065500
30
0.0
11
-0.097971
21
-0.065500
31
0.0
0
LINE
8
0
6
CONTINUOUS
10
-0.097971
20
-0.065500
30
0.0
11
-0.095752
21
-0.065500
31
0.0
0
LINE
8
0
6
CONTINUOUS
10
-0.095000
20
-0.065500
30
0.0
11
-0.095000
21
-0.065234
31
0.0
0
LINE
8
0
6
CONTINUOUS
10
-0.095752
20
-0.065500
30
0.0
11
-0.095000
21
-0.065500
31
0.0
0
LINE
8
0
6
CONTINUOUS
10
-0.154248
20
-0.059500
30
0.0
11
-0.155000
21
-0.059500
31
0.0
0
LINE
8
0
6
CONTINUOUS
10
-0.155000
20
-0.059500
30
0.0
11
-0.155000
21
-0.059766
31
0.0
0
LINE
8
0
6
CONTINUOUS
10
-0.152029
20
-0.059500
30
0.0
11
-0.154248
21
-0.059500
31
0.0
0
LINE
8
0
6
CONTINUOUS
10
-0.148455
20
-0.059500
30
0.0
11
-0.152029
21
-0.059500
31
0.0
0
LINE
8
0
6
CONTINUOUS
10
-0.143705
20
-0.059500
30
0.0
11
-0.148455
21
-0.059500
31
0.0
0
LINE
8
0
6
CONTINUOUS
10
-0.138016
20
-0.059500
30
0.0
11
-0.143705
21
-0.059500
31
0.0
0
LINE
8
0
6
CONTINUOUS
10
-0.131675
20
-0.059500
30
0.0
11
-0.138016
21
-0.059500
31
0.0
0
LINE
8
0
6
CONTINUOUS
10
-0.125000
20
-0.059500
30
0.0
11
-0.131675
21
-0.059500
31
0.0
0
LINE
8
0
6
CONTINUOUS
10
-0.118324
20
-0.059500
30
0.0
11
-0.125000
21
-0.059500
31
0.0
0
LINE
8
0
6
CONTINUOUS
10
-0.111983
20
-0.059500
30
0.0
11
-0.118324
21
-0.059500
31
0.0
0
LINE
8
0
6
CONTINUOUS
10
-0.106295
20
-0.059500
30
0.0
11
-0.111983
21
-0.059500
31
0.0
0
LINE
8
0
6
CONTINUOUS
10
-0.101545
20
-0.059500
30
0.0
11
-0.106295
21
-0.059500
31
0.0
0
LINE
8
0
6
CONTINUOUS
10
-0.097971
20
-0.059500
30
0.0
11
-0.101545
21
-0.059500
31
0.0
0
LINE
8
0
6
CONTINUOUS
10
-0.095752
20
-0.059500
30
0.0
11
-0.097971
21
-0.059500
31
0.0
0
LINE
8
0
6
CONTINUOUS
10
-0.095000
20
-0.059500
30
0.0
11
-0.095752
21
-0.059500
31
0.0
0
LINE
8
0
6
CONTINUOUS
10
-0.095000
20
-0.059766
30
0.0
11
-0.095000
21
-0.059500
31
0.0
0
LINE
8
0
6
CONTINUOUS
10
-0.095000
20
-0.065234
30
0.0
11
-0.095000
21
-0.059766
31
0.0
0
LINE
8
0
6
CONTINUOUS
10
-0.155000
20
-0.059766
30
0.0
11
-0.155000
21
-0.065234
31
0.0
0
LINE
8
0
6
CONTINUOUS
10
0.010760
20
0.050017
30
0.0
11
0.010794
21
0.049910
31
0.0
0
LINE
8
0
6
CONTINUOUS
10
0.010722
20
0.050152
30
0.0
11
0.010760
21
0.050017
31
0.0
0
LINE
8
0
6
CONTINUOUS
10
-0.009120
20
0.051919
30
0.0
11
-0.010722
21
0.050152
31
0.0
0
LINE
8
0
6
CONTINUOUS
10
-0.010760
20
0.050017
30
0.0
11
-0.010793
21
0.049910
31
0.0
0
LINE
8
0
6
CONTINUOUS
10
0.006627
20
0.053370
30
0.0
11
0.007191
21
0.053004
31
0.0
0
LINE
8
0
6
CONTINUOUS
10
0.007191
20
0.053004
30
0.0
11
0.009121
21
0.051919
31
0.0
0
LINE
8
0
6
CONTINUOUS
10
-0.007190
20
0.053004
30
0.0
11
-0.006626
21
0.053370
31
0.0
0
LINE
8
0
6
CONTINUOUS
10
-0.009120
20
0.051919
30
0.0
11
-0.007190
21
0.053004
31
0.0
0
LINE
8
0
6
CONTINUOUS
10
-0.010722
20
0.050152
30
0.0
11
-0.010760
21
0.050017
31
0.0
0
ENDSEC
0
EOF
