999
Erzeugt mit innoplus bad 
0
SECTION
2
HEADER
9
$ACADVER
1
AC1009
9
$DWGCODEPAGE
3
ISO8859-1
0
ENDSEC
0
SECTION
2
TABLES
0
TABLE
2
LAYER
70
1
0
LAYER
2
0
70
0
62
7
6
CONTINUOUS
0
ENDTAB
0
ENDSEC
0
SECTION
2
ENTITIES
0
LINE
8
0
6
CONTINUOUS
10
-0.075000
20
0.016000
30
0.0
11
-0.074206
21
0.016000
31
0.0
0
LINE
8
0
6
CONTINUOUS
10
-0.075000
20
0.017000
30
0.0
11
-0.075000
21
0.016000
31
0.0
0
LINE
8
0
6
CONTINUOUS
10
0.052941
20
0.016000
30
0.0
11
0.059382
21
0.016000
31
0.0
0
LINE
8
0
6
CONTINUOUS
10
0.037324
20
0.016000
30
0.0
11
0.045618
21
0.016000
31
0.0
0
LINE
8
0
6
CONTINUOUS
10
-0.072265
20
0.016000
30
0.0
11
-0.069176
21
0.016000
31
0.0
0
LINE
8
0
6
CONTINUOUS
10
0.059382
20
0.016000
30
0.0
11
0.064941
21
0.016000
31
0.0
0
LINE
8
0
6
CONTINUOUS
10
-0.009794
20
0.016000
30
0.0
11
0.000000
21
0.016000
31
0.0
0
LINE
8
0
6
CONTINUOUS
10
0.045618
20
0.016000
30
0.0
11
0.052941
21
0.016000
31
0.0
0
LINE
8
0
6
CONTINUOUS
10
-0.064941
20
0.016000
30
0.0
11
-0.059382
21
0.016000
31
0.0
0
LINE
8
0
6
CONTINUOUS
10
0.069176
20
0.016000
30
0.0
11
0.072265
21
0.016000
31
0.0
0
LINE
8
0
6
CONTINUOUS
10
0.072265
20
0.016000
30
0.0
11
0.074206
21
0.016000
31
0.0
0
LINE
8
0
6
CONTINUOUS
10
-0.052941
20
0.016000
30
0.0
11
-0.045618
21
0.016000
31
0.0
0
LINE
8
0
6
CONTINUOUS
10
-0.059382
20
0.016000
30
0.0
11
-0.052941
21
0.016000
31
0.0
0
LINE
8
0
6
CONTINUOUS
10
0.009794
20
0.016000
30
0.0
11
0.019324
21
0.016000
31
0.0
0
LINE
8
0
6
CONTINUOUS
10
0.000000
20
0.016000
30
0.0
11
0.009794
21
0.016000
31
0.0
0
LINE
8
0
6
CONTINUOUS
10
-0.028677
20
0.016000
30
0.0
11
-0.019324
21
0.016000
31
0.0
0
LINE
8
0
6
CONTINUOUS
10
0.028676
20
0.016000
30
0.0
11
0.037324
21
0.016000
31
0.0
0
LINE
8
0
6
CONTINUOUS
10
0.075000
20
0.016000
30
0.0
11
0.075000
21
0.017000
31
0.0
0
LINE
8
0
6
CONTINUOUS
10
0.074206
20
0.016000
30
0.0
11
0.075000
21
0.016000
31
0.0
0
LINE
8
0
6
CONTINUOUS
10
0.019324
20
0.016000
30
0.0
11
0.028676
21
0.016000
31
0.0
0
LINE
8
0
6
CONTINUOUS
10
-0.037323
20
0.016000
30
0.0
11
-0.028677
21
0.016000
31
0.0
0
LINE
8
0
6
CONTINUOUS
10
-0.019324
20
0.016000
30
0.0
11
-0.009794
21
0.016000
31
0.0
0
LINE
8
0
6
CONTINUOUS
10
-0.045618
20
0.016000
30
0.0
11
-0.037323
21
0.016000
31
0.0
0
LINE
8
0
6
CONTINUOUS
10
-0.074206
20
0.016000
30
0.0
11
-0.072265
21
0.016000
31
0.0
0
LINE
8
0
6
CONTINUOUS
10
-0.069176
20
0.016000
30
0.0
11
-0.064941
21
0.016000
31
0.0
0
LINE
8
0
6
CONTINUOUS
10
0.064941
20
0.016000
30
0.0
11
0.069176
21
0.016000
31
0.0
0
LINE
8
0
6
CONTINUOUS
10
-0.075000
20
0.030000
30
0.0
11
-0.075000
21
0.029000
31
0.0
0
LINE
8
0
6
CONTINUOUS
10
-0.074206
20
0.030000
30
0.0
11
-0.075000
21
0.030000
31
0.0
0
LINE
8
0
6
CONTINUOUS
10
0.059382
20
0.030000
30
0.0
11
0.052941
21
0.030000
31
0.0
0
LINE
8
0
6
CONTINUOUS
10
0.045618
20
0.030000
30
0.0
11
0.037324
21
0.030000
31
0.0
0
LINE
8
0
6
CONTINUOUS
10
-0.069176
20
0.030000
30
0.0
11
-0.072265
21
0.030000
31
0.0
0
LINE
8
0
6
CONTINUOUS
10
0.064941
20
0.030000
30
0.0
11
0.059382
21
0.030000
31
0.0
0
LINE
8
0
6
CONTINUOUS
10
0.000000
20
0.030000
30
0.0
11
-0.009794
21
0.030000
31
0.0
0
LINE
8
0
6
CONTINUOUS
10
0.052941
20
0.030000
30
0.0
11
0.045618
21
0.030000
31
0.0
0
LINE
8
0
6
CONTINUOUS
10
-0.059382
20
0.030000
30
0.0
11
-0.064941
21
0.030000
31
0.0
0
LINE
8
0
6
CONTINUOUS
10
0.072265
20
0.030000
30
0.0
11
0.069176
21
0.030000
31
0.0
0
LINE
8
0
6
CONTINUOUS
10
0.074206
20
0.030000
30
0.0
11
0.072265
21
0.030000
31
0.0
0
LINE
8
0
6
CONTINUOUS
10
-0.045618
20
0.030000
30
0.0
11
-0.052941
21
0.030000
31
0.0
0
LINE
8
0
6
CONTINUOUS
10
-0.052941
20
0.030000
30
0.0
11
-0.059382
21
0.030000
31
0.0
0
LINE
8
0
6
CONTINUOUS
10
0.019324
20
0.030000
30
0.0
11
0.009794
21
0.030000
31
0.0
0
LINE
8
0
6
CONTINUOUS
10
0.009794
20
0.030000
30
0.0
11
0.000000
21
0.030000
31
0.0
0
LINE
8
0
6
CONTINUOUS
10
-0.019324
20
0.030000
30
0.0
11
-0.028677
21
0.030000
31
0.0
0
LINE
8
0
6
CONTINUOUS
10
0.037324
20
0.030000
30
0.0
11
0.028676
21
0.030000
31
0.0
0
LINE
8
0
6
CONTINUOUS
10
0.075000
20
0.030000
30
0.0
11
0.074206
21
0.030000
31
0.0
0
LINE
8
0
6
CONTINUOUS
10
0.075000
20
0.029000
30
0.0
11
0.075000
21
0.030000
31
0.0
0
LINE
8
0
6
CONTINUOUS
10
0.028676
20
0.030000
30
0.0
11
0.019324
21
0.030000
31
0.0
0
LINE
8
0
6
CONTINUOUS
10
-0.028677
20
0.030000
30
0.0
11
-0.037323
21
0.030000
31
0.0
0
LINE
8
0
6
CONTINUOUS
10
-0.009794
20
0.030000
30
0.0
11
-0.019324
21
0.030000
31
0.0
0
LINE
8
0
6
CONTINUOUS
10
-0.037323
20
0.030000
30
0.0
11
-0.045618
21
0.030000
31
0.0
0
LINE
8
0
6
CONTINUOUS
10
-0.072265
20
0.030000
30
0.0
11
-0.074206
21
0.030000
31
0.0
0
LINE
8
0
6
CONTINUOUS
10
-0.064941
20
0.030000
30
0.0
11
-0.069176
21
0.030000
31
0.0
0
LINE
8
0
6
CONTINUOUS
10
0.069176
20
0.030000
30
0.0
11
0.064941
21
0.030000
31
0.0
0
LINE
8
0
6
CONTINUOUS
10
0.075000
20
0.017000
30
0.0
11
0.075000
21
0.029000
31
0.0
0
LINE
8
0
6
CONTINUOUS
10
-0.075000
20
0.029000
30
0.0
11
-0.075000
21
0.017000
31
0.0
0
LINE
8
0
6
CONTINUOUS
10
0.022069
20
0.006004
30
0.0
11
0.021317
21
0.006004
31
0.0
0
LINE
8
0
6
CONTINUOUS
10
0.022069
20
0.005453
30
0.0
11
0.022069
21
0.006004
31
0.0
0
LINE
8
0
6
CONTINUOUS
10
0.015605
20
0.006004
30
0.0
11
0.011034
21
0.006004
31
0.0
0
LINE
8
0
6
CONTINUOUS
10
0.019112
20
0.006004
30
0.0
11
0.015605
21
0.006004
31
0.0
0
LINE
8
0
6
CONTINUOUS
10
0.021317
20
0.006004
30
0.0
11
0.019112
21
0.006004
31
0.0
0
LINE
8
0
6
CONTINUOUS
10
0.011034
20
0.006004
30
0.0
11
0.007981
21
0.006004
31
0.0
0
LINE
8
0
6
CONTINUOUS
10
0.021317
20
-0.030000
30
0.0
11
0.022069
21
-0.030000
31
0.0
0
LINE
8
0
6
CONTINUOUS
10
0.022069
20
-0.030000
30
0.0
11
0.022069
21
-0.029449
31
0.0
0
LINE
8
0
6
CONTINUOUS
10
0.019112
20
-0.030000
30
0.0
11
0.021317
21
-0.030000
31
0.0
0
LINE
8
0
6
CONTINUOUS
10
0.015605
20
-0.030000
30
0.0
11
0.019112
21
-0.030000
31
0.0
0
LINE
8
0
6
CONTINUOUS
10
0.011034
20
-0.030000
30
0.0
11
0.015605
21
-0.030000
31
0.0
0
LINE
8
0
6
CONTINUOUS
10
0.005712
20
-0.030000
30
0.0
11
0.011034
21
-0.030000
31
0.0
0
LINE
8
0
6
CONTINUOUS
10
0.000000
20
-0.030000
30
0.0
11
0.005712
21
-0.030000
31
0.0
0
LINE
8
0
6
CONTINUOUS
10
0.022069
20
-0.019425
30
0.0
11
0.022069
21
-0.016772
31
0.0
0
LINE
8
0
6
CONTINUOUS
10
0.022069
20
-0.024856
30
0.0
11
0.022069
21
-0.022690
31
0.0
0
LINE
8
0
6
CONTINUOUS
10
0.022069
20
-0.011465
30
0.0
11
0.022069
21
-0.006930
31
0.0
0
LINE
8
0
6
CONTINUOUS
10
0.022069
20
-0.016772
30
0.0
11
0.022069
21
-0.014118
31
0.0
0
LINE
8
0
6
CONTINUOUS
10
0.022069
20
-0.021414
30
0.0
11
0.022069
21
-0.019425
31
0.0
0
LINE
8
0
6
CONTINUOUS
10
0.022069
20
-0.022690
30
0.0
11
0.022069
21
-0.021414
31
0.0
0
LINE
8
0
6
CONTINUOUS
10
0.022069
20
-0.006930
30
0.0
11
0.022069
21
0.005453
31
0.0
0
LINE
8
0
6
CONTINUOUS
10
0.022069
20
-0.014118
30
0.0
11
0.022069
21
-0.011465
31
0.0
0
LINE
8
0
6
CONTINUOUS
10
0.022069
20
-0.029449
30
0.0
11
0.022069
21
-0.024856
31
0.0
0
LINE
8
0
6
CONTINUOUS
10
-0.022069
20
0.006004
30
0.0
11
-0.022069
21
0.005453
31
0.0
0
LINE
8
0
6
CONTINUOUS
10
-0.021317
20
0.006004
30
0.0
11
-0.022069
21
0.006004
31
0.0
0
LINE
8
0
6
CONTINUOUS
10
-0.011034
20
0.006004
30
0.0
11
-0.015605
21
0.006004
31
0.0
0
LINE
8
0
6
CONTINUOUS
10
-0.015605
20
0.006004
30
0.0
11
-0.019112
21
0.006004
31
0.0
0
LINE
8
0
6
CONTINUOUS
10
-0.019112
20
0.006004
30
0.0
11
-0.021317
21
0.006004
31
0.0
0
LINE
8
0
6
CONTINUOUS
10
-0.007981
20
0.006004
30
0.0
11
-0.011034
21
0.006004
31
0.0
0
LINE
8
0
6
CONTINUOUS
10
-0.022069
20
-0.029449
30
0.0
11
-0.022069
21
-0.030000
31
0.0
0
LINE
8
0
6
CONTINUOUS
10
-0.022069
20
-0.030000
30
0.0
11
-0.021317
21
-0.030000
31
0.0
0
LINE
8
0
6
CONTINUOUS
10
-0.021317
20
-0.030000
30
0.0
11
-0.019112
21
-0.030000
31
0.0
0
LINE
8
0
6
CONTINUOUS
10
-0.019112
20
-0.030000
30
0.0
11
-0.015605
21
-0.030000
31
0.0
0
LINE
8
0
6
CONTINUOUS
10
-0.015605
20
-0.030000
30
0.0
11
-0.011034
21
-0.030000
31
0.0
0
LINE
8
0
6
CONTINUOUS
10
-0.011034
20
-0.030000
30
0.0
11
-0.005712
21
-0.030000
31
0.0
0
LINE
8
0
6
CONTINUOUS
10
-0.005712
20
-0.030000
30
0.0
11
0.000000
21
-0.030000
31
0.0
0
LINE
8
0
6
CONTINUOUS
10
-0.022069
20
-0.016772
30
0.0
11
-0.022069
21
-0.019425
31
0.0
0
LINE
8
0
6
CONTINUOUS
10
-0.022069
20
-0.022690
30
0.0
11
-0.022069
21
-0.024856
31
0.0
0
LINE
8
0
6
CONTINUOUS
10
-0.022069
20
-0.006930
30
0.0
11
-0.022069
21
-0.011465
31
0.0
0
LINE
8
0
6
CONTINUOUS
10
-0.022069
20
-0.014118
30
0.0
11
-0.022069
21
-0.016772
31
0.0
0
LINE
8
0
6
CONTINUOUS
10
-0.022069
20
-0.019425
30
0.0
11
-0.022069
21
-0.021414
31
0.0
0
LINE
8
0
6
CONTINUOUS
10
-0.022069
20
-0.021414
30
0.0
11
-0.022069
21
-0.022690
31
0.0
0
LINE
8
0
6
CONTINUOUS
10
-0.022069
20
0.005453
30
0.0
11
-0.022069
21
-0.006930
31
0.0
0
LINE
8
0
6
CONTINUOUS
10
-0.022069
20
-0.011465
30
0.0
11
-0.022069
21
-0.014118
31
0.0
0
LINE
8
0
6
CONTINUOUS
10
-0.022069
20
-0.024856
30
0.0
11
-0.022069
21
-0.029449
31
0.0
0
LINE
8
0
6
CONTINUOUS
10
-0.006729
20
-0.018428
30
0.0
11
-0.004251
21
-0.020743
31
0.0
0
LINE
8
0
6
CONTINUOUS
10
-0.005638
20
0.010624
30
0.0
11
-0.006637
21
0.010623
31
0.0
0
LINE
8
0
6
CONTINUOUS
10
-0.005475
20
0.010623
30
0.0
11
-0.005638
21
0.010624
31
0.0
0
LINE
8
0
6
CONTINUOUS
10
0.004251
20
-0.020743
30
0.0
11
0.006729
21
-0.018428
31
0.0
0
LINE
8
0
6
CONTINUOUS
10
-0.003946
20
0.010624
30
0.0
11
-0.004647
21
0.010623
31
0.0
0
LINE
8
0
6
CONTINUOUS
10
-0.002819
20
0.010623
30
0.0
11
-0.003946
21
0.010624
31
0.0
0
LINE
8
0
6
CONTINUOUS
10
-0.007088
20
0.016000
30
0.0
11
-0.007088
21
0.013211
31
0.0
0
LINE
8
0
6
CONTINUOUS
10
0.007088
20
0.013211
30
0.0
11
0.007088
21
0.016000
31
0.0
0
LINE
8
0
6
CONTINUOUS
10
0.007088
20
0.012730
30
0.0
11
0.007088
21
0.013211
31
0.0
0
LINE
8
0
6
CONTINUOUS
10
0.009291
20
-0.000032
30
0.0
11
0.007050
21
0.010292
31
0.0
0
LINE
8
0
6
CONTINUOUS
10
0.001409
20
0.010623
30
0.0
11
0.000000
21
0.010624
31
0.0
0
LINE
8
0
6
CONTINUOUS
10
0.006637
20
0.010623
30
0.0
11
0.005638
21
0.010624
31
0.0
0
LINE
8
0
6
CONTINUOUS
10
-0.007088
20
0.013211
30
0.0
11
-0.007088
21
0.012730
31
0.0
0
LINE
8
0
6
CONTINUOUS
10
-0.007050
20
0.010292
30
0.0
11
-0.009291
21
-0.000032
31
0.0
0
LINE
8
0
6
CONTINUOUS
10
0.000000
20
0.012730
30
0.0
11
-0.001772
21
0.012730
31
0.0
0
LINE
8
0
6
CONTINUOUS
10
-0.004962
20
0.012730
30
0.0
11
-0.006143
21
0.012730
31
0.0
0
LINE
8
0
6
CONTINUOUS
10
0.004962
20
0.012730
30
0.0
11
0.003544
21
0.012730
31
0.0
0
LINE
8
0
6
CONTINUOUS
10
0.003544
20
0.012730
30
0.0
11
0.001772
21
0.012730
31
0.0
0
LINE
8
0
6
CONTINUOUS
10
-0.007088
20
0.012730
30
0.0
11
-0.006805
21
0.012370
31
0.0
0
LINE
8
0
6
CONTINUOUS
10
-0.006852
20
0.012730
30
0.0
11
-0.007088
21
0.012730
31
0.0
0
LINE
8
0
6
CONTINUOUS
10
-0.003544
20
0.012730
30
0.0
11
-0.004962
21
0.012730
31
0.0
0
LINE
8
0
6
CONTINUOUS
10
0.006143
20
0.012730
30
0.0
11
0.004962
21
0.012730
31
0.0
0
LINE
8
0
6
CONTINUOUS
10
-0.001772
20
0.012730
30
0.0
11
-0.003544
21
0.012730
31
0.0
0
LINE
8
0
6
CONTINUOUS
10
0.006852
20
0.012730
30
0.0
11
0.006143
21
0.012730
31
0.0
0
LINE
8
0
6
CONTINUOUS
10
0.001772
20
0.012730
30
0.0
11
0.000000
21
0.012730
31
0.0
0
LINE
8
0
6
CONTINUOUS
10
0.007088
20
0.012730
30
0.0
11
0.006852
21
0.012730
31
0.0
0
LINE
8
0
6
CONTINUOUS
10
0.006805
20
0.012370
30
0.0
11
0.007088
21
0.012730
31
0.0
0
LINE
8
0
6
CONTINUOUS
10
-0.006143
20
0.012730
30
0.0
11
-0.006852
21
0.012730
31
0.0
0
LINE
8
0
6
CONTINUOUS
10
0.003946
20
0.010624
30
0.0
11
0.002819
21
0.010623
31
0.0
0
LINE
8
0
6
CONTINUOUS
10
0.004647
20
0.010623
30
0.0
11
0.003946
21
0.010624
31
0.0
0
LINE
8
0
6
CONTINUOUS
10
-0.004647
20
0.010623
30
0.0
11
-0.005807
21
0.010623
31
0.0
0
LINE
8
0
6
CONTINUOUS
10
-0.006105
20
0.010623
30
0.0
11
-0.004884
21
0.010623
31
0.0
0
LINE
8
0
6
CONTINUOUS
10
0.006803
20
0.010623
30
0.0
11
0.006105
21
0.010623
31
0.0
0
LINE
8
0
6
CONTINUOUS
10
-0.001744
20
0.010623
30
0.0
11
0.000000
21
0.010623
31
0.0
0
LINE
8
0
6
CONTINUOUS
10
0.006978
20
0.010623
30
0.0
11
0.006637
21
0.010623
31
0.0
0
LINE
8
0
6
CONTINUOUS
10
0.007050
20
0.010292
30
0.0
11
0.006978
21
0.010623
31
0.0
0
LINE
8
0
6
CONTINUOUS
10
0.006978
20
0.010623
30
0.0
11
0.006803
21
0.010623
31
0.0
0
LINE
8
0
6
CONTINUOUS
10
-0.001744
20
0.010623
30
0.0
11
-0.003489
21
0.010623
31
0.0
0
LINE
8
0
6
CONTINUOUS
10
0.004884
20
0.010623
30
0.0
11
0.003489
21
0.010623
31
0.0
0
LINE
8
0
6
CONTINUOUS
10
-0.006637
20
0.010623
30
0.0
11
-0.006978
21
0.010623
31
0.0
0
LINE
8
0
6
CONTINUOUS
10
-0.006978
20
0.010623
30
0.0
11
-0.007050
21
0.010292
31
0.0
0
LINE
8
0
6
CONTINUOUS
10
-0.006803
20
0.010623
30
0.0
11
-0.006978
21
0.010623
31
0.0
0
LINE
8
0
6
CONTINUOUS
10
0.005807
20
0.010623
30
0.0
11
0.004647
21
0.010623
31
0.0
0
LINE
8
0
6
CONTINUOUS
10
0.006105
20
0.010623
30
0.0
11
0.004884
21
0.010623
31
0.0
0
LINE
8
0
6
CONTINUOUS
10
-0.006105
20
0.010623
30
0.0
11
-0.006803
21
0.010623
31
0.0
0
LINE
8
0
6
CONTINUOUS
10
-0.003489
20
0.010623
30
0.0
11
-0.004884
21
0.010623
31
0.0
0
LINE
8
0
6
CONTINUOUS
10
0.001744
20
0.010623
30
0.0
11
0.000000
21
0.010623
31
0.0
0
LINE
8
0
6
CONTINUOUS
10
0.003489
20
0.010623
30
0.0
11
0.001744
21
0.010623
31
0.0
0
LINE
8
0
6
CONTINUOUS
10
0.000000
20
0.010624
30
0.0
11
-0.001409
21
0.010623
31
0.0
0
LINE
8
0
6
CONTINUOUS
10
0.009444
20
-0.000737
30
0.0
11
0.009291
21
-0.000032
31
0.0
0
LINE
8
0
6
CONTINUOUS
10
-0.009291
20
-0.000032
30
0.0
11
-0.009444
21
-0.000737
31
0.0
0
LINE
8
0
6
CONTINUOUS
10
0.006729
20
-0.018428
30
0.0
11
0.009110
21
-0.014998
31
0.0
0
LINE
8
0
6
CONTINUOUS
10
-0.009110
20
-0.014998
30
0.0
11
-0.006729
21
-0.018428
31
0.0
0
LINE
8
0
6
CONTINUOUS
10
0.003644
20
-0.020743
30
0.0
11
0.003037
21
-0.020743
31
0.0
0
LINE
8
0
6
CONTINUOUS
10
0.004130
20
-0.020743
30
0.0
11
0.003644
21
-0.020743
31
0.0
0
LINE
8
0
6
CONTINUOUS
10
0.004251
20
-0.020743
30
0.0
11
0.004130
21
-0.020743
31
0.0
0
LINE
8
0
6
CONTINUOUS
10
0.000000
20
-0.021892
30
0.0
11
0.004251
21
-0.020743
31
0.0
0
LINE
8
0
6
CONTINUOUS
10
-0.002065
20
-0.020743
30
0.0
11
-0.003037
21
-0.020743
31
0.0
0
LINE
8
0
6
CONTINUOUS
10
-0.003037
20
-0.020743
30
0.0
11
-0.003644
21
-0.020743
31
0.0
0
LINE
8
0
6
CONTINUOUS
10
0.010932
20
-0.009252
30
0.0
11
0.012072
21
-0.001227
31
0.0
0
LINE
8
0
6
CONTINUOUS
10
0.009110
20
-0.014998
30
0.0
11
0.010932
21
-0.009252
31
0.0
0
LINE
8
0
6
CONTINUOUS
10
0.005638
20
0.010624
30
0.0
11
0.006805
21
0.012370
31
0.0
0
LINE
8
0
6
CONTINUOUS
10
-0.012072
20
-0.001227
30
0.0
11
-0.010932
21
-0.009252
31
0.0
0
LINE
8
0
6
CONTINUOUS
10
-0.010932
20
-0.009252
30
0.0
11
-0.009110
21
-0.014998
31
0.0
0
LINE
8
0
6
CONTINUOUS
10
-0.006805
20
0.012370
30
0.0
11
-0.005638
21
0.010624
31
0.0
0
LINE
8
0
6
CONTINUOUS
10
-0.005638
20
0.010624
30
0.0
11
-0.005475
21
0.010623
31
0.0
0
LINE
8
0
6
CONTINUOUS
10
-0.003946
20
0.010624
30
0.0
11
-0.002819
21
0.010623
31
0.0
0
LINE
8
0
6
CONTINUOUS
10
-0.001409
20
0.010623
30
0.0
11
0.000000
21
0.010624
31
0.0
0
LINE
8
0
6
CONTINUOUS
10
0.000000
20
0.010624
30
0.0
11
0.001409
21
0.010623
31
0.0
0
LINE
8
0
6
CONTINUOUS
10
0.001093
20
-0.020743
30
0.0
11
0.000000
21
-0.020743
31
0.0
0
LINE
8
0
6
CONTINUOUS
10
0.002065
20
-0.020743
30
0.0
11
0.001093
21
-0.020743
31
0.0
0
LINE
8
0
6
CONTINUOUS
10
0.003037
20
-0.020743
30
0.0
11
0.002065
21
-0.020743
31
0.0
0
LINE
8
0
6
CONTINUOUS
10
0.000000
20
-0.020743
30
0.0
11
-0.001093
21
-0.020743
31
0.0
0
LINE
8
0
6
CONTINUOUS
10
-0.001093
20
-0.020743
30
0.0
11
-0.002065
21
-0.020743
31
0.0
0
LINE
8
0
6
CONTINUOUS
10
-0.003644
20
-0.020743
30
0.0
11
-0.004130
21
-0.020743
31
0.0
0
LINE
8
0
6
CONTINUOUS
10
-0.004130
20
-0.020743
30
0.0
11
-0.004251
21
-0.020743
31
0.0
0
LINE
8
0
6
CONTINUOUS
10
-0.004251
20
-0.020743
30
0.0
11
0.000000
21
-0.021892
31
0.0
0
LINE
8
0
6
CONTINUOUS
10
-0.012146
20
-0.000737
30
0.0
11
-0.012072
21
-0.001227
31
0.0
0
LINE
8
0
6
CONTINUOUS
10
-0.011660
20
-0.000737
30
0.0
11
-0.012146
21
-0.000737
31
0.0
0
LINE
8
0
6
CONTINUOUS
10
0.008624
20
-0.000737
30
0.0
11
0.006073
21
-0.000737
31
0.0
0
LINE
8
0
6
CONTINUOUS
10
-0.006073
20
-0.000737
30
0.0
11
-0.008624
21
-0.000737
31
0.0
0
LINE
8
0
6
CONTINUOUS
10
-0.003158
20
-0.000737
30
0.0
11
-0.006073
21
-0.000737
31
0.0
0
LINE
8
0
6
CONTINUOUS
10
0.000000
20
-0.000737
30
0.0
11
-0.003158
21
-0.000737
31
0.0
0
LINE
8
0
6
CONTINUOUS
10
-0.010567
20
-0.000737
30
0.0
11
-0.011660
21
-0.000737
31
0.0
0
LINE
8
0
6
CONTINUOUS
10
-0.008624
20
-0.000737
30
0.0
11
-0.010567
21
-0.000737
31
0.0
0
LINE
8
0
6
CONTINUOUS
10
0.010567
20
-0.000737
30
0.0
11
0.008624
21
-0.000737
31
0.0
0
LINE
8
0
6
CONTINUOUS
10
0.011660
20
-0.000737
30
0.0
11
0.010567
21
-0.000737
31
0.0
0
LINE
8
0
6
CONTINUOUS
10
0.000000
20
-0.000737
30
0.0
11
0.003158
21
-0.000737
31
0.0
0
LINE
8
0
6
CONTINUOUS
10
0.012146
20
-0.000737
30
0.0
11
0.011660
21
-0.000737
31
0.0
0
LINE
8
0
6
CONTINUOUS
10
0.012072
20
-0.001227
30
0.0
11
0.012146
21
-0.000737
31
0.0
0
LINE
8
0
6
CONTINUOUS
10
0.006073
20
-0.000737
30
0.0
11
0.003158
21
-0.000737
31
0.0
0
LINE
8
0
6
CONTINUOUS
10
-0.025026
20
0.016000
30
0.0
11
-0.025026
21
0.009773
31
0.0
0
LINE
8
0
6
CONTINUOUS
10
0.025026
20
0.009500
30
0.0
11
0.025026
21
0.009773
31
0.0
0
LINE
8
0
6
CONTINUOUS
10
0.025026
20
0.009773
30
0.0
11
0.025026
21
0.016000
31
0.0
0
LINE
8
0
6
CONTINUOUS
10
-0.025026
20
0.009773
30
0.0
11
-0.025026
21
0.009500
31
0.0
0
LINE
8
0
6
CONTINUOUS
10
-0.012417
20
0.009500
30
0.0
11
-0.017615
21
0.009500
31
0.0
0
LINE
8
0
6
CONTINUOUS
10
-0.017257
20
0.008676
30
0.0
11
-0.012137
21
0.008662
31
0.0
0
LINE
8
0
6
CONTINUOUS
10
0.024160
20
0.009500
30
0.0
11
0.021657
21
0.009500
31
0.0
0
LINE
8
0
6
CONTINUOUS
10
0.021192
20
0.008662
30
0.0
11
0.023586
21
0.008683
31
0.0
0
LINE
8
0
6
CONTINUOUS
10
-0.025026
20
0.009500
30
0.0
11
-0.024448
21
0.008680
31
0.0
0
LINE
8
0
6
CONTINUOUS
10
-0.024160
20
0.009500
30
0.0
11
-0.025026
21
0.009500
31
0.0
0
LINE
8
0
6
CONTINUOUS
10
-0.024448
20
0.008680
30
0.0
11
-0.023586
21
0.008683
31
0.0
0
LINE
8
0
6
CONTINUOUS
10
-0.021657
20
0.009500
30
0.0
11
-0.024160
21
0.009500
31
0.0
0
LINE
8
0
6
CONTINUOUS
10
-0.023586
20
0.008683
30
0.0
11
-0.021192
21
0.008662
31
0.0
0
LINE
8
0
6
CONTINUOUS
10
-0.017615
20
0.009500
30
0.0
11
-0.021657
21
0.009500
31
0.0
0
LINE
8
0
6
CONTINUOUS
10
-0.021192
20
0.008662
30
0.0
11
-0.017257
21
0.008676
31
0.0
0
LINE
8
0
6
CONTINUOUS
10
0.012417
20
0.009500
30
0.0
11
0.007222
21
0.009500
31
0.0
0
LINE
8
0
6
CONTINUOUS
10
0.007400
20
0.008679
30
0.0
11
0.012137
21
0.008662
31
0.0
0
LINE
8
0
6
CONTINUOUS
10
0.017615
20
0.009500
30
0.0
11
0.012417
21
0.009500
31
0.0
0
LINE
8
0
6
CONTINUOUS
10
0.012137
20
0.008662
30
0.0
11
0.017257
21
0.008676
31
0.0
0
LINE
8
0
6
CONTINUOUS
10
0.025026
20
0.009500
30
0.0
11
0.024160
21
0.009500
31
0.0
0
LINE
8
0
6
CONTINUOUS
10
0.024448
20
0.008680
30
0.0
11
0.025026
21
0.009500
31
0.0
0
LINE
8
0
6
CONTINUOUS
10
0.023586
20
0.008683
30
0.0
11
0.024448
21
0.008680
31
0.0
0
LINE
8
0
6
CONTINUOUS
10
-0.007222
20
0.009500
30
0.0
11
-0.012417
21
0.009500
31
0.0
0
LINE
8
0
6
CONTINUOUS
10
-0.012137
20
0.008662
30
0.0
11
-0.007400
21
0.008679
31
0.0
0
LINE
8
0
6
CONTINUOUS
10
0.021657
20
0.009500
30
0.0
11
0.017615
21
0.009500
31
0.0
0
LINE
8
0
6
CONTINUOUS
10
0.017257
20
0.008676
30
0.0
11
0.021192
21
0.008662
31
0.0
0
LINE
8
0
6
CONTINUOUS
10
0.020377
20
0.005790
30
0.0
11
0.021086
21
0.008662
31
0.0
0
LINE
8
0
6
CONTINUOUS
10
-0.021086
20
0.008662
30
0.0
11
-0.020377
21
0.005790
31
0.0
0
LINE
8
0
6
CONTINUOUS
10
0.033871
20
0.015526
30
0.0
11
0.035441
21
0.015526
31
0.0
0
LINE
8
0
6
CONTINUOUS
10
0.032540
20
0.015526
30
0.0
11
0.033871
21
0.015526
31
0.0
0
LINE
8
0
6
CONTINUOUS
10
0.031651
20
0.015526
30
0.0
11
0.032540
21
0.015526
31
0.0
0
LINE
8
0
6
CONTINUOUS
10
0.032540
20
0.015526
30
0.0
11
0.032540
21
0.015864
31
0.0
0
LINE
8
0
6
CONTINUOUS
10
0.031339
20
0.015526
30
0.0
11
0.031651
21
0.015526
31
0.0
0
LINE
8
0
6
CONTINUOUS
10
0.031339
20
0.015864
30
0.0
11
0.031339
21
0.015526
31
0.0
0
LINE
8
0
6
CONTINUOUS
10
0.039231
20
0.015526
30
0.0
11
0.039543
21
0.015526
31
0.0
0
LINE
8
0
6
CONTINUOUS
10
0.039543
20
0.015526
30
0.0
11
0.039543
21
0.015864
31
0.0
0
LINE
8
0
6
CONTINUOUS
10
0.038342
20
0.015526
30
0.0
11
0.039231
21
0.015526
31
0.0
0
LINE
8
0
6
CONTINUOUS
10
0.035441
20
0.015526
30
0.0
11
0.037011
21
0.015526
31
0.0
0
LINE
8
0
6
CONTINUOUS
10
0.035441
20
0.015864
30
0.0
11
0.035441
21
0.015526
31
0.0
0
LINE
8
0
6
CONTINUOUS
10
0.037011
20
0.015526
30
0.0
11
0.038342
21
0.015526
31
0.0
0
LINE
8
0
6
CONTINUOUS
10
0.038342
20
0.015526
30
0.0
11
0.038342
21
0.015864
31
0.0
0
LINE
8
0
6
CONTINUOUS
10
0.038342
20
0.016000
30
0.0
11
0.038342
21
0.015864
31
0.0
0
LINE
8
0
6
CONTINUOUS
10
0.039543
20
0.015864
30
0.0
11
0.039543
21
0.016000
31
0.0
0
LINE
8
0
6
CONTINUOUS
10
0.031339
20
0.016000
30
0.0
11
0.031339
21
0.015864
31
0.0
0
LINE
8
0
6
CONTINUOUS
10
0.032540
20
0.016000
30
0.0
11
0.032540
21
0.015864
31
0.0
0
LINE
8
0
6
CONTINUOUS
10
0.035441
20
0.015864
30
0.0
11
0.035441
21
0.016000
31
0.0
0
LINE
8
0
6
CONTINUOUS
10
-0.035441
20
0.015526
30
0.0
11
-0.033871
21
0.015526
31
0.0
0
LINE
8
0
6
CONTINUOUS
10
-0.033871
20
0.015526
30
0.0
11
-0.032540
21
0.015526
31
0.0
0
LINE
8
0
6
CONTINUOUS
10
-0.032540
20
0.015526
30
0.0
11
-0.031651
21
0.015526
31
0.0
0
LINE
8
0
6
CONTINUOUS
10
-0.032540
20
0.015864
30
0.0
11
-0.032540
21
0.015526
31
0.0
0
LINE
8
0
6
CONTINUOUS
10
-0.031339
20
0.015526
30
0.0
11
-0.031339
21
0.015864
31
0.0
0
LINE
8
0
6
CONTINUOUS
10
-0.031651
20
0.015526
30
0.0
11
-0.031339
21
0.015526
31
0.0
0
LINE
8
0
6
CONTINUOUS
10
-0.039543
20
0.015526
30
0.0
11
-0.039231
21
0.015526
31
0.0
0
LINE
8
0
6
CONTINUOUS
10
-0.039543
20
0.015864
30
0.0
11
-0.039543
21
0.015526
31
0.0
0
LINE
8
0
6
CONTINUOUS
10
-0.039231
20
0.015526
30
0.0
11
-0.038342
21
0.015526
31
0.0
0
LINE
8
0
6
CONTINUOUS
10
-0.035441
20
0.015526
30
0.0
11
-0.035441
21
0.015864
31
0.0
0
LINE
8
0
6
CONTINUOUS
10
-0.037011
20
0.015526
30
0.0
11
-0.035441
21
0.015526
31
0.0
0
LINE
8
0
6
CONTINUOUS
10
-0.038342
20
0.015526
30
0.0
11
-0.037011
21
0.015526
31
0.0
0
LINE
8
0
6
CONTINUOUS
10
-0.038342
20
0.015864
30
0.0
11
-0.038342
21
0.015526
31
0.0
0
LINE
8
0
6
CONTINUOUS
10
-0.038342
20
0.015864
30
0.0
11
-0.038342
21
0.016000
31
0.0
0
LINE
8
0
6
CONTINUOUS
10
-0.039543
20
0.016000
30
0.0
11
-0.039543
21
0.015864
31
0.0
0
LINE
8
0
6
CONTINUOUS
10
-0.031339
20
0.015864
30
0.0
11
-0.031339
21
0.016000
31
0.0
0
LINE
8
0
6
CONTINUOUS
10
-0.032540
20
0.015864
30
0.0
11
-0.032540
21
0.016000
31
0.0
0
LINE
8
0
6
CONTINUOUS
10
-0.035441
20
0.016000
30
0.0
11
-0.035441
21
0.015864
31
0.0
0
ENDSEC
0
EOF
