999
Erzeugt mit innoplus bad 
0
SECTION
2
HEADER
9
$ACADVER
1
AC1009
9
$DWGCODEPAGE
3
ISO8859-1
0
ENDSEC
0
SECTION
2
TABLES
0
TABLE
2
LAYER
70
1
0
LAYER
2
0
70
0
62
7
6
CONTINUOUS
0
ENDTAB
0
ENDSEC
0
SECTION
2
ENTITIES
0
LINE
8
0
6
CONTINUOUS
10
-0.064941
20
-0.062324
30
0.0
11
-0.069176
21
-0.053677
31
0.0
0
LINE
8
0
6
CONTINUOUS
10
-0.028677
20
-0.094177
30
0.0
11
-0.019324
21
-0.097265
31
0.0
0
LINE
8
0
6
CONTINUOUS
10
0.069176
20
-0.053677
30
0.0
11
0.072265
21
-0.044324
31
0.0
0
LINE
8
0
6
CONTINUOUS
10
-0.074206
20
0.034794
30
0.0
11
-0.075000
21
0.025000
31
0.0
0
LINE
8
0
6
CONTINUOUS
10
0.059382
20
0.070618
30
0.0
11
0.052941
21
0.077941
31
0.0
0
LINE
8
0
6
CONTINUOUS
10
-0.075000
20
-0.025000
30
0.0
11
-0.074206
21
-0.034794
31
0.0
0
LINE
8
0
6
CONTINUOUS
10
0.000000
20
-0.100000
30
0.0
11
0.009794
21
-0.099206
31
0.0
0
LINE
8
0
6
CONTINUOUS
10
0.045618
20
0.084382
30
0.0
11
0.037324
21
0.089941
31
0.0
0
LINE
8
0
6
CONTINUOUS
10
-0.072265
20
-0.044324
30
0.0
11
-0.069176
21
-0.053677
31
0.0
0
LINE
8
0
6
CONTINUOUS
10
-0.059382
20
-0.070618
30
0.0
11
-0.052941
21
-0.077941
31
0.0
0
LINE
8
0
6
CONTINUOUS
10
-0.072265
20
0.044324
30
0.0
11
-0.069176
21
0.053676
31
0.0
0
LINE
8
0
6
CONTINUOUS
10
0.075000
20
-0.025000
30
0.0
11
0.075000
21
0.025000
31
0.0
0
LINE
8
0
6
CONTINUOUS
10
0.074206
20
-0.034794
30
0.0
11
0.075000
21
-0.025000
31
0.0
0
LINE
8
0
6
CONTINUOUS
10
0.064941
20
0.062324
30
0.0
11
0.059382
21
0.070618
31
0.0
0
LINE
8
0
6
CONTINUOUS
10
0.009794
20
-0.099206
30
0.0
11
0.019324
21
-0.097265
31
0.0
0
LINE
8
0
6
CONTINUOUS
10
0.000000
20
0.100000
30
0.0
11
-0.009794
21
0.099206
31
0.0
0
LINE
8
0
6
CONTINUOUS
10
0.052941
20
0.077941
30
0.0
11
0.045618
21
0.084382
31
0.0
0
LINE
8
0
6
CONTINUOUS
10
0.045618
20
-0.084382
30
0.0
11
0.052941
21
-0.077941
31
0.0
0
LINE
8
0
6
CONTINUOUS
10
-0.064941
20
-0.062324
30
0.0
11
-0.059382
21
-0.070618
31
0.0
0
LINE
8
0
6
CONTINUOUS
10
0.064941
20
-0.062324
30
0.0
11
0.069176
21
-0.053677
31
0.0
0
LINE
8
0
6
CONTINUOUS
10
-0.059382
20
0.070618
30
0.0
11
-0.064941
21
0.062324
31
0.0
0
LINE
8
0
6
CONTINUOUS
10
0.072265
20
0.044324
30
0.0
11
0.069176
21
0.053676
31
0.0
0
LINE
8
0
6
CONTINUOUS
10
0.052941
20
-0.077941
30
0.0
11
0.059382
21
-0.070618
31
0.0
0
LINE
8
0
6
CONTINUOUS
10
-0.075000
20
0.025000
30
0.0
11
-0.075000
21
-0.025000
31
0.0
0
LINE
8
0
6
CONTINUOUS
10
-0.019324
20
-0.097265
30
0.0
11
-0.009794
21
-0.099206
31
0.0
0
LINE
8
0
6
CONTINUOUS
10
-0.045618
20
-0.084382
30
0.0
11
-0.037323
21
-0.089941
31
0.0
0
LINE
8
0
6
CONTINUOUS
10
0.059382
20
-0.070618
30
0.0
11
0.064941
21
-0.062324
31
0.0
0
LINE
8
0
6
CONTINUOUS
10
0.074206
20
0.034794
30
0.0
11
0.072265
21
0.044324
31
0.0
0
LINE
8
0
6
CONTINUOUS
10
-0.045618
20
0.084382
30
0.0
11
-0.052941
21
0.077941
31
0.0
0
LINE
8
0
6
CONTINUOUS
10
-0.009794
20
-0.099206
30
0.0
11
0.000000
21
-0.100000
31
0.0
0
LINE
8
0
6
CONTINUOUS
10
-0.052941
20
0.077941
30
0.0
11
-0.059382
21
0.070618
31
0.0
0
LINE
8
0
6
CONTINUOUS
10
0.019324
20
0.097265
30
0.0
11
0.009794
21
0.099206
31
0.0
0
LINE
8
0
6
CONTINUOUS
10
0.009794
20
0.099206
30
0.0
11
0.000000
21
0.100000
31
0.0
0
LINE
8
0
6
CONTINUOUS
10
-0.074206
20
-0.034794
30
0.0
11
-0.072265
21
-0.044324
31
0.0
0
LINE
8
0
6
CONTINUOUS
10
0.037324
20
-0.089941
30
0.0
11
0.045618
21
-0.084382
31
0.0
0
LINE
8
0
6
CONTINUOUS
10
-0.019324
20
0.097265
30
0.0
11
-0.028677
21
0.094176
31
0.0
0
LINE
8
0
6
CONTINUOUS
10
0.019324
20
-0.097265
30
0.0
11
0.028676
21
-0.094177
31
0.0
0
LINE
8
0
6
CONTINUOUS
10
0.037324
20
0.089941
30
0.0
11
0.028676
21
0.094176
31
0.0
0
LINE
8
0
6
CONTINUOUS
10
0.075000
20
0.025000
30
0.0
11
0.074206
21
0.034794
31
0.0
0
LINE
8
0
6
CONTINUOUS
10
0.028676
20
0.094176
30
0.0
11
0.019324
21
0.097265
31
0.0
0
LINE
8
0
6
CONTINUOUS
10
-0.028677
20
0.094176
30
0.0
11
-0.037323
21
0.089941
31
0.0
0
LINE
8
0
6
CONTINUOUS
10
-0.009794
20
0.099206
30
0.0
11
-0.019324
21
0.097265
31
0.0
0
LINE
8
0
6
CONTINUOUS
10
-0.037323
20
-0.089941
30
0.0
11
-0.028677
21
-0.094177
31
0.0
0
LINE
8
0
6
CONTINUOUS
10
0.072265
20
-0.044324
30
0.0
11
0.074206
21
-0.034794
31
0.0
0
LINE
8
0
6
CONTINUOUS
10
-0.037323
20
0.089941
30
0.0
11
-0.045618
21
0.084382
31
0.0
0
LINE
8
0
6
CONTINUOUS
10
-0.072265
20
0.044324
30
0.0
11
-0.074206
21
0.034794
31
0.0
0
LINE
8
0
6
CONTINUOUS
10
-0.052941
20
-0.077941
30
0.0
11
-0.045618
21
-0.084382
31
0.0
0
LINE
8
0
6
CONTINUOUS
10
0.028676
20
-0.094177
30
0.0
11
0.037324
21
-0.089941
31
0.0
0
LINE
8
0
6
CONTINUOUS
10
-0.069176
20
0.053676
30
0.0
11
-0.064941
21
0.062324
31
0.0
0
LINE
8
0
6
CONTINUOUS
10
0.069176
20
0.053676
30
0.0
11
0.064941
21
0.062324
31
0.0
0
LINE
8
0
6
CONTINUOUS
10
0.020782
20
-0.035768
30
0.0
11
0.019495
21
-0.051467
31
0.0
0
LINE
8
0
6
CONTINUOUS
10
0.014933
20
-0.093970
30
0.0
11
0.016351
21
-0.089829
31
0.0
0
LINE
8
0
6
CONTINUOUS
10
0.019495
20
-0.051467
30
0.0
11
0.018476
21
-0.063900
31
0.0
0
LINE
8
0
6
CONTINUOUS
10
0.000000
20
-0.098011
30
0.0
11
0.003735
21
-0.098011
31
0.0
0
LINE
8
0
6
CONTINUOUS
10
0.018476
20
-0.063900
30
0.0
11
0.016351
21
-0.089829
31
0.0
0
LINE
8
0
6
CONTINUOUS
10
0.020782
20
-0.035768
30
0.0
11
0.022069
21
-0.020069
31
0.0
0
LINE
8
0
6
CONTINUOUS
10
0.003735
20
-0.098011
30
0.0
11
0.007471
21
-0.098011
31
0.0
0
LINE
8
0
6
CONTINUOUS
10
0.011714
20
-0.096936
30
0.0
11
0.014933
21
-0.093970
31
0.0
0
LINE
8
0
6
CONTINUOUS
10
0.007471
20
-0.098011
30
0.0
11
0.011714
21
-0.096936
31
0.0
0
LINE
8
0
6
CONTINUOUS
10
0.022069
20
-0.020069
30
0.0
11
0.021317
21
-0.014357
31
0.0
0
LINE
8
0
6
CONTINUOUS
10
0.021317
20
-0.014357
30
0.0
11
0.019112
21
-0.009034
31
0.0
0
LINE
8
0
6
CONTINUOUS
10
0.019112
20
-0.009034
30
0.0
11
0.015605
21
-0.004464
31
0.0
0
LINE
8
0
6
CONTINUOUS
10
0.015605
20
-0.004464
30
0.0
11
0.011034
21
-0.000957
31
0.0
0
LINE
8
0
6
CONTINUOUS
10
0.011034
20
-0.000957
30
0.0
11
0.005712
21
0.001248
31
0.0
0
LINE
8
0
6
CONTINUOUS
10
0.005712
20
0.001248
30
0.0
11
0.000000
21
0.002000
31
0.0
0
LINE
8
0
6
CONTINUOUS
10
-0.020782
20
-0.035768
30
0.0
11
-0.019495
21
-0.051467
31
0.0
0
LINE
8
0
6
CONTINUOUS
10
-0.016351
20
-0.089829
30
0.0
11
-0.014933
21
-0.093970
31
0.0
0
LINE
8
0
6
CONTINUOUS
10
-0.019495
20
-0.051467
30
0.0
11
-0.018476
21
-0.063900
31
0.0
0
LINE
8
0
6
CONTINUOUS
10
-0.003735
20
-0.098011
30
0.0
11
0.000000
21
-0.098011
31
0.0
0
LINE
8
0
6
CONTINUOUS
10
-0.016351
20
-0.089829
30
0.0
11
-0.018476
21
-0.063900
31
0.0
0
LINE
8
0
6
CONTINUOUS
10
-0.022069
20
-0.020069
30
0.0
11
-0.020782
21
-0.035768
31
0.0
0
LINE
8
0
6
CONTINUOUS
10
-0.007471
20
-0.098011
30
0.0
11
-0.003735
21
-0.098011
31
0.0
0
LINE
8
0
6
CONTINUOUS
10
-0.014933
20
-0.093970
30
0.0
11
-0.011714
21
-0.096936
31
0.0
0
LINE
8
0
6
CONTINUOUS
10
-0.011714
20
-0.096936
30
0.0
11
-0.007471
21
-0.098011
31
0.0
0
LINE
8
0
6
CONTINUOUS
10
-0.021317
20
-0.014357
30
0.0
11
-0.022069
21
-0.020069
31
0.0
0
LINE
8
0
6
CONTINUOUS
10
-0.019112
20
-0.009034
30
0.0
11
-0.021317
21
-0.014357
31
0.0
0
LINE
8
0
6
CONTINUOUS
10
-0.015605
20
-0.004464
30
0.0
11
-0.019112
21
-0.009034
31
0.0
0
LINE
8
0
6
CONTINUOUS
10
-0.011034
20
-0.000957
30
0.0
11
-0.015605
21
-0.004464
31
0.0
0
LINE
8
0
6
CONTINUOUS
10
-0.005712
20
0.001248
30
0.0
11
-0.011034
21
-0.000957
31
0.0
0
LINE
8
0
6
CONTINUOUS
10
0.000000
20
0.002000
30
0.0
11
-0.005712
21
0.001248
31
0.0
0
LINE
8
0
6
CONTINUOUS
10
0.003644
20
0.040357
30
0.0
11
0.003037
21
0.041328
31
0.0
0
LINE
8
0
6
CONTINUOUS
10
0.004130
20
0.039385
30
0.0
11
0.003644
21
0.040357
31
0.0
0
LINE
8
0
6
CONTINUOUS
10
0.004251
20
0.038292
30
0.0
11
0.004130
21
0.039385
31
0.0
0
LINE
8
0
6
CONTINUOUS
10
0.000000
20
0.034041
30
0.0
11
0.001093
21
0.034162
31
0.0
0
LINE
8
0
6
CONTINUOUS
10
0.001093
20
0.034162
30
0.0
11
0.002065
21
0.034648
31
0.0
0
LINE
8
0
6
CONTINUOUS
10
-0.001093
20
0.034162
30
0.0
11
0.000000
21
0.034041
31
0.0
0
LINE
8
0
6
CONTINUOUS
10
-0.002065
20
0.041936
30
0.0
11
-0.003037
21
0.041328
31
0.0
0
LINE
8
0
6
CONTINUOUS
10
-0.003037
20
0.041328
30
0.0
11
-0.003644
21
0.040357
31
0.0
0
LINE
8
0
6
CONTINUOUS
10
0.001093
20
0.042422
30
0.0
11
0.000000
21
0.042543
31
0.0
0
LINE
8
0
6
CONTINUOUS
10
0.002065
20
0.041936
30
0.0
11
0.001093
21
0.042422
31
0.0
0
LINE
8
0
6
CONTINUOUS
10
0.003037
20
0.041328
30
0.0
11
0.002065
21
0.041936
31
0.0
0
LINE
8
0
6
CONTINUOUS
10
0.002065
20
0.034648
30
0.0
11
0.003037
21
0.035255
31
0.0
0
LINE
8
0
6
CONTINUOUS
10
0.003037
20
0.035255
30
0.0
11
0.003644
21
0.036227
31
0.0
0
LINE
8
0
6
CONTINUOUS
10
0.003644
20
0.036227
30
0.0
11
0.004130
21
0.037199
31
0.0
0
LINE
8
0
6
CONTINUOUS
10
0.004130
20
0.037199
30
0.0
11
0.004251
21
0.038292
31
0.0
0
LINE
8
0
6
CONTINUOUS
10
-0.002065
20
0.034648
30
0.0
11
-0.001093
21
0.034162
31
0.0
0
LINE
8
0
6
CONTINUOUS
10
-0.003037
20
0.035255
30
0.0
11
-0.002065
21
0.034648
31
0.0
0
LINE
8
0
6
CONTINUOUS
10
-0.003644
20
0.036227
30
0.0
11
-0.003037
21
0.035255
31
0.0
0
LINE
8
0
6
CONTINUOUS
10
-0.004130
20
0.037199
30
0.0
11
-0.003644
21
0.036227
31
0.0
0
LINE
8
0
6
CONTINUOUS
10
-0.004251
20
0.038292
30
0.0
11
-0.004130
21
0.037199
31
0.0
0
LINE
8
0
6
CONTINUOUS
10
0.000000
20
0.042543
30
0.0
11
-0.001093
21
0.042422
31
0.0
0
LINE
8
0
6
CONTINUOUS
10
-0.001093
20
0.042422
30
0.0
11
-0.002065
21
0.041936
31
0.0
0
LINE
8
0
6
CONTINUOUS
10
-0.003644
20
0.040357
30
0.0
11
-0.004130
21
0.039385
31
0.0
0
LINE
8
0
6
CONTINUOUS
10
-0.004130
20
0.039385
30
0.0
11
-0.004251
21
0.038292
31
0.0
0
LINE
8
0
6
CONTINUOUS
10
-0.011660
20
0.041450
30
0.0
11
-0.012146
21
0.038292
31
0.0
0
LINE
8
0
6
CONTINUOUS
10
0.008624
20
0.046916
30
0.0
11
0.006073
21
0.048859
31
0.0
0
LINE
8
0
6
CONTINUOUS
10
0.010567
20
0.032219
30
0.0
11
0.011660
21
0.035134
31
0.0
0
LINE
8
0
6
CONTINUOUS
10
-0.006073
20
0.048859
30
0.0
11
-0.008624
21
0.046916
31
0.0
0
LINE
8
0
6
CONTINUOUS
10
-0.003158
20
0.049952
30
0.0
11
-0.006073
21
0.048859
31
0.0
0
LINE
8
0
6
CONTINUOUS
10
0.000000
20
0.050438
30
0.0
11
-0.003158
21
0.049952
31
0.0
0
LINE
8
0
6
CONTINUOUS
10
0.000000
20
0.026146
30
0.0
11
0.003158
21
0.026631
31
0.0
0
LINE
8
0
6
CONTINUOUS
10
-0.010567
20
0.044365
30
0.0
11
-0.011660
21
0.041450
31
0.0
0
LINE
8
0
6
CONTINUOUS
10
-0.008624
20
0.046916
30
0.0
11
-0.010567
21
0.044365
31
0.0
0
LINE
8
0
6
CONTINUOUS
10
0.006073
20
0.027725
30
0.0
11
0.008624
21
0.029668
31
0.0
0
LINE
8
0
6
CONTINUOUS
10
-0.010567
20
0.032219
30
0.0
11
-0.008624
21
0.029668
31
0.0
0
LINE
8
0
6
CONTINUOUS
10
0.011660
20
0.035134
30
0.0
11
0.012146
21
0.038292
31
0.0
0
LINE
8
0
6
CONTINUOUS
10
0.010567
20
0.044365
30
0.0
11
0.008624
21
0.046916
31
0.0
0
LINE
8
0
6
CONTINUOUS
10
0.011660
20
0.041450
30
0.0
11
0.010567
21
0.044365
31
0.0
0
LINE
8
0
6
CONTINUOUS
10
0.003158
20
0.026631
30
0.0
11
0.006073
21
0.027725
31
0.0
0
LINE
8
0
6
CONTINUOUS
10
0.003158
20
0.049952
30
0.0
11
0.000000
21
0.050438
31
0.0
0
LINE
8
0
6
CONTINUOUS
10
-0.006073
20
0.027725
30
0.0
11
-0.003158
21
0.026631
31
0.0
0
LINE
8
0
6
CONTINUOUS
10
0.012146
20
0.038292
30
0.0
11
0.011660
21
0.041450
31
0.0
0
LINE
8
0
6
CONTINUOUS
10
0.008624
20
0.029668
30
0.0
11
0.010567
21
0.032219
31
0.0
0
LINE
8
0
6
CONTINUOUS
10
-0.011660
20
0.035134
30
0.0
11
-0.010567
21
0.032219
31
0.0
0
LINE
8
0
6
CONTINUOUS
10
-0.008624
20
0.029668
30
0.0
11
-0.006073
21
0.027725
31
0.0
0
LINE
8
0
6
CONTINUOUS
10
0.006073
20
0.048859
30
0.0
11
0.003158
21
0.049952
31
0.0
0
LINE
8
0
6
CONTINUOUS
10
-0.012146
20
0.038292
30
0.0
11
-0.011660
21
0.035134
31
0.0
0
LINE
8
0
6
CONTINUOUS
10
-0.003158
20
0.026631
30
0.0
11
0.000000
21
0.026146
31
0.0
0
LINE
8
0
6
CONTINUOUS
10
-0.012417
20
0.001657
30
0.0
11
-0.017615
21
-0.002385
31
0.0
0
LINE
8
0
6
CONTINUOUS
10
0.024160
20
-0.013551
30
0.0
11
0.021657
21
-0.007583
31
0.0
0
LINE
8
0
6
CONTINUOUS
10
-0.024160
20
-0.013551
30
0.0
11
-0.025026
21
-0.020000
31
0.0
0
LINE
8
0
6
CONTINUOUS
10
-0.024448
20
-0.020000
30
0.0
11
-0.023586
21
-0.013729
31
0.0
0
LINE
8
0
6
CONTINUOUS
10
-0.012137
20
0.001192
30
0.0
11
-0.017257
21
-0.002743
31
0.0
0
LINE
8
0
6
CONTINUOUS
10
0.021657
20
-0.032417
30
0.0
11
0.024160
21
-0.026449
31
0.0
0
LINE
8
0
6
CONTINUOUS
10
0.023586
20
-0.026271
30
0.0
11
0.021192
21
-0.032137
31
0.0
0
LINE
8
0
6
CONTINUOUS
10
-0.025026
20
-0.020000
30
0.0
11
-0.024160
21
-0.026449
31
0.0
0
LINE
8
0
6
CONTINUOUS
10
-0.023586
20
-0.026271
30
0.0
11
-0.024448
21
-0.020000
31
0.0
0
LINE
8
0
6
CONTINUOUS
10
-0.021657
20
-0.007583
30
0.0
11
-0.024160
21
-0.013551
31
0.0
0
LINE
8
0
6
CONTINUOUS
10
-0.023586
20
-0.013729
30
0.0
11
-0.021192
21
-0.007863
31
0.0
0
LINE
8
0
6
CONTINUOUS
10
-0.017615
20
-0.002385
30
0.0
11
-0.021657
21
-0.007583
31
0.0
0
LINE
8
0
6
CONTINUOUS
10
-0.021192
20
-0.007863
30
0.0
11
-0.017257
21
-0.002743
31
0.0
0
LINE
8
0
6
CONTINUOUS
10
0.024160
20
-0.026449
30
0.0
11
0.025026
21
-0.020000
31
0.0
0
LINE
8
0
6
CONTINUOUS
10
0.024448
20
-0.020000
30
0.0
11
0.023586
21
-0.026271
31
0.0
0
LINE
8
0
6
CONTINUOUS
10
0.012417
20
0.001657
30
0.0
11
0.006449
21
0.004160
31
0.0
0
LINE
8
0
6
CONTINUOUS
10
0.006271
20
0.003586
30
0.0
11
0.012137
21
0.001192
31
0.0
0
LINE
8
0
6
CONTINUOUS
10
0.023586
20
-0.013729
30
0.0
11
0.021192
21
-0.007863
31
0.0
0
LINE
8
0
6
CONTINUOUS
10
0.017615
20
-0.002385
30
0.0
11
0.012417
21
0.001657
31
0.0
0
LINE
8
0
6
CONTINUOUS
10
0.012137
20
0.001192
30
0.0
11
0.017257
21
-0.002743
31
0.0
0
LINE
8
0
6
CONTINUOUS
10
-0.024160
20
-0.026449
30
0.0
11
-0.021657
21
-0.032417
31
0.0
0
LINE
8
0
6
CONTINUOUS
10
-0.021192
20
-0.032137
30
0.0
11
-0.023586
21
-0.026271
31
0.0
0
LINE
8
0
6
CONTINUOUS
10
-0.021657
20
-0.032417
30
0.0
11
-0.020986
21
-0.033280
31
0.0
0
LINE
8
0
6
CONTINUOUS
10
-0.021066
20
-0.032300
30
0.0
11
-0.021192
21
-0.032137
31
0.0
0
LINE
8
0
6
CONTINUOUS
10
0.020986
20
-0.033280
30
0.0
11
0.021657
21
-0.032417
31
0.0
0
LINE
8
0
6
CONTINUOUS
10
0.021192
20
-0.032137
30
0.0
11
0.021066
21
-0.032300
31
0.0
0
LINE
8
0
6
CONTINUOUS
10
0.025026
20
-0.020000
30
0.0
11
0.024160
21
-0.013551
31
0.0
0
LINE
8
0
6
CONTINUOUS
10
0.023586
20
-0.013729
30
0.0
11
0.024448
21
-0.020000
31
0.0
0
LINE
8
0
6
CONTINUOUS
10
0.000000
20
0.005026
30
0.0
11
-0.006449
21
0.004160
31
0.0
0
LINE
8
0
6
CONTINUOUS
10
-0.006271
20
0.003586
30
0.0
11
0.000000
21
0.004448
31
0.0
0
LINE
8
0
6
CONTINUOUS
10
-0.006449
20
0.004160
30
0.0
11
-0.012417
21
0.001657
31
0.0
0
LINE
8
0
6
CONTINUOUS
10
-0.012137
20
0.001192
30
0.0
11
-0.006271
21
0.003586
31
0.0
0
LINE
8
0
6
CONTINUOUS
10
0.006449
20
0.004160
30
0.0
11
0.000000
21
0.005026
31
0.0
0
LINE
8
0
6
CONTINUOUS
10
0.000000
20
0.004448
30
0.0
11
0.006271
21
0.003586
31
0.0
0
LINE
8
0
6
CONTINUOUS
10
0.021657
20
-0.007583
30
0.0
11
0.017615
21
-0.002385
31
0.0
0
LINE
8
0
6
CONTINUOUS
10
0.017257
20
-0.002743
30
0.0
11
0.021192
21
-0.007863
31
0.0
0
LINE
8
0
6
CONTINUOUS
10
0.035441
20
0.002402
30
0.0
11
0.033871
21
0.002090
31
0.0
0
LINE
8
0
6
CONTINUOUS
10
0.033871
20
0.002090
30
0.0
11
0.032540
21
0.001201
31
0.0
0
LINE
8
0
6
CONTINUOUS
10
0.032540
20
0.001201
30
0.0
11
0.031651
21
-0.000130
31
0.0
0
LINE
8
0
6
CONTINUOUS
10
0.031651
20
-0.000130
30
0.0
11
0.031339
21
-0.001700
31
0.0
0
LINE
8
0
6
CONTINUOUS
10
0.031339
20
-0.001700
30
0.0
11
0.031651
21
-0.003270
31
0.0
0
LINE
8
0
6
CONTINUOUS
10
0.031651
20
-0.003270
30
0.0
11
0.032540
21
-0.004601
31
0.0
0
LINE
8
0
6
CONTINUOUS
10
0.032540
20
-0.004601
30
0.0
11
0.033871
21
-0.005490
31
0.0
0
LINE
8
0
6
CONTINUOUS
10
0.033871
20
-0.005490
30
0.0
11
0.035441
21
-0.005802
31
0.0
0
LINE
8
0
6
CONTINUOUS
10
0.035441
20
-0.005802
30
0.0
11
0.037011
21
-0.005490
31
0.0
0
LINE
8
0
6
CONTINUOUS
10
0.037011
20
-0.005490
30
0.0
11
0.038342
21
-0.004601
31
0.0
0
LINE
8
0
6
CONTINUOUS
10
0.038342
20
-0.004601
30
0.0
11
0.039231
21
-0.003270
31
0.0
0
LINE
8
0
6
CONTINUOUS
10
0.039231
20
-0.003270
30
0.0
11
0.039543
21
-0.001700
31
0.0
0
LINE
8
0
6
CONTINUOUS
10
0.039543
20
-0.001700
30
0.0
11
0.039231
21
-0.000130
31
0.0
0
LINE
8
0
6
CONTINUOUS
10
0.039231
20
-0.000130
30
0.0
11
0.038342
21
0.001201
31
0.0
0
LINE
8
0
6
CONTINUOUS
10
0.038342
20
0.001201
30
0.0
11
0.037011
21
0.002090
31
0.0
0
LINE
8
0
6
CONTINUOUS
10
0.037011
20
0.002090
30
0.0
11
0.035441
21
0.002402
31
0.0
0
LINE
8
0
6
CONTINUOUS
10
-0.033871
20
0.002090
30
0.0
11
-0.035441
21
0.002402
31
0.0
0
LINE
8
0
6
CONTINUOUS
10
-0.032540
20
0.001201
30
0.0
11
-0.033871
21
0.002090
31
0.0
0
LINE
8
0
6
CONTINUOUS
10
-0.031651
20
-0.000130
30
0.0
11
-0.032540
21
0.001201
31
0.0
0
LINE
8
0
6
CONTINUOUS
10
-0.031339
20
-0.001700
30
0.0
11
-0.031651
21
-0.000130
31
0.0
0
LINE
8
0
6
CONTINUOUS
10
-0.031651
20
-0.003270
30
0.0
11
-0.031339
21
-0.001700
31
0.0
0
LINE
8
0
6
CONTINUOUS
10
-0.032540
20
-0.004601
30
0.0
11
-0.031651
21
-0.003270
31
0.0
0
LINE
8
0
6
CONTINUOUS
10
-0.033871
20
-0.005490
30
0.0
11
-0.032540
21
-0.004601
31
0.0
0
LINE
8
0
6
CONTINUOUS
10
-0.035441
20
-0.005802
30
0.0
11
-0.033871
21
-0.005490
31
0.0
0
LINE
8
0
6
CONTINUOUS
10
-0.037011
20
-0.005490
30
0.0
11
-0.035441
21
-0.005802
31
0.0
0
LINE
8
0
6
CONTINUOUS
10
-0.038342
20
-0.004601
30
0.0
11
-0.037011
21
-0.005490
31
0.0
0
LINE
8
0
6
CONTINUOUS
10
-0.039231
20
-0.003270
30
0.0
11
-0.038342
21
-0.004601
31
0.0
0
LINE
8
0
6
CONTINUOUS
10
-0.039543
20
-0.001700
30
0.0
11
-0.039231
21
-0.003270
31
0.0
0
LINE
8
0
6
CONTINUOUS
10
-0.039231
20
-0.000130
30
0.0
11
-0.039543
21
-0.001700
31
0.0
0
LINE
8
0
6
CONTINUOUS
10
-0.038342
20
0.001201
30
0.0
11
-0.039231
21
-0.000130
31
0.0
0
LINE
8
0
6
CONTINUOUS
10
-0.037011
20
0.002090
30
0.0
11
-0.038342
21
0.001201
31
0.0
0
LINE
8
0
6
CONTINUOUS
10
-0.035441
20
0.002402
30
0.0
11
-0.037011
21
0.002090
31
0.0
0
ENDSEC
0
EOF
