999
Erzeugt mit innoplus bad 
0
SECTION
2
HEADER
9
$ACADVER
1
AC1009
9
$DWGCODEPAGE
3
ISO8859-1
0
ENDSEC
0
SECTION
2
TABLES
0
TABLE
2
LAYER
70
1
0
LAYER
2
0
70
0
62
7
6
CONTINUOUS
0
ENDTAB
0
ENDSEC
0
SECTION
2
ENTITIES
0
LINE
8
0
6
CONTINUOUS
10
0.011505
20
0.009075
30
0.0
11
0.011651
21
0.009996
31
0.0
0
LINE
8
0
6
CONTINUOUS
10
0.011651
20
0.010191
30
0.0
11
0.011651
21
0.014500
31
0.0
0
LINE
8
0
6
CONTINUOUS
10
-0.000038
20
0.008154
30
0.0
11
-0.002864
21
0.008154
31
0.0
0
LINE
8
0
6
CONTINUOUS
10
0.009836
20
0.007233
30
0.0
11
0.010998
21
0.008154
31
0.0
0
LINE
8
0
6
CONTINUOUS
10
-0.011727
20
0.010191
30
0.0
11
-0.011727
21
0.009996
31
0.0
0
LINE
8
0
6
CONTINUOUS
10
-0.011075
20
0.008154
30
0.0
11
-0.009912
21
0.007233
31
0.0
0
LINE
8
0
6
CONTINUOUS
10
0.007776
20
0.008154
30
0.0
11
0.009541
21
0.008154
31
0.0
0
LINE
8
0
6
CONTINUOUS
10
0.005436
20
0.008154
30
0.0
11
0.007776
21
0.008154
31
0.0
0
LINE
8
0
6
CONTINUOUS
10
0.010998
20
0.008154
30
0.0
11
0.011505
21
0.009075
31
0.0
0
LINE
8
0
6
CONTINUOUS
10
0.010601
20
0.008154
30
0.0
11
0.010998
21
0.008154
31
0.0
0
LINE
8
0
6
CONTINUOUS
10
0.002787
20
0.008154
30
0.0
11
0.005436
21
0.008154
31
0.0
0
LINE
8
0
6
CONTINUOUS
10
-0.000038
20
0.008154
30
0.0
11
0.002787
21
0.008154
31
0.0
0
LINE
8
0
6
CONTINUOUS
10
0.011777
20
-0.021408
30
0.0
11
0.011781
21
-0.021118
31
0.0
0
LINE
8
0
6
CONTINUOUS
10
0.011494
20
-0.022500
30
0.0
11
0.011777
21
-0.021408
31
0.0
0
LINE
8
0
6
CONTINUOUS
10
0.011070
20
-0.022500
30
0.0
11
0.011494
21
-0.022500
31
0.0
0
LINE
8
0
6
CONTINUOUS
10
-0.012002
20
-0.006717
30
0.0
11
-0.011997
21
-0.006991
31
0.0
0
LINE
8
0
6
CONTINUOUS
10
-0.010517
20
0.004225
30
0.0
11
-0.010517
21
0.003901
31
0.0
0
LINE
8
0
6
CONTINUOUS
10
-0.010138
20
0.004225
30
0.0
11
-0.010517
21
0.004225
31
0.0
0
LINE
8
0
6
CONTINUOUS
10
-0.010418
20
-0.006717
30
0.0
11
-0.008498
21
-0.006717
31
0.0
0
LINE
8
0
6
CONTINUOUS
10
-0.003074
20
-0.006717
30
0.0
11
-0.000002
21
-0.006717
31
0.0
0
LINE
8
0
6
CONTINUOUS
10
-0.010517
20
-0.003694
30
0.0
11
-0.010647
21
-0.004459
31
0.0
0
LINE
8
0
6
CONTINUOUS
10
-0.008498
20
-0.006717
30
0.0
11
-0.005954
21
-0.006717
31
0.0
0
LINE
8
0
6
CONTINUOUS
10
-0.000002
20
-0.022500
30
0.0
11
0.002967
21
-0.022500
31
0.0
0
LINE
8
0
6
CONTINUOUS
10
0.002967
20
-0.022500
30
0.0
11
0.005699
21
-0.022500
31
0.0
0
LINE
8
0
6
CONTINUOUS
10
0.005699
20
-0.022500
30
0.0
11
0.008102
21
-0.022500
31
0.0
0
LINE
8
0
6
CONTINUOUS
10
0.008102
20
-0.022500
30
0.0
11
0.009939
21
-0.022500
31
0.0
0
LINE
8
0
6
CONTINUOUS
10
0.009939
20
-0.022500
30
0.0
11
0.011070
21
-0.022500
31
0.0
0
LINE
8
0
6
CONTINUOUS
10
-0.002970
20
-0.022500
30
0.0
11
-0.000002
21
-0.022500
31
0.0
0
LINE
8
0
6
CONTINUOUS
10
-0.005702
20
-0.022500
30
0.0
11
-0.002970
21
-0.022500
31
0.0
0
LINE
8
0
6
CONTINUOUS
10
-0.008105
20
-0.022500
30
0.0
11
-0.005702
21
-0.022500
31
0.0
0
LINE
8
0
6
CONTINUOUS
10
-0.009942
20
-0.022500
30
0.0
11
-0.008105
21
-0.022500
31
0.0
0
LINE
8
0
6
CONTINUOUS
10
-0.011073
20
-0.022500
30
0.0
11
-0.009942
21
-0.022500
31
0.0
0
LINE
8
0
6
CONTINUOUS
10
-0.011497
20
-0.022500
30
0.0
11
-0.011073
21
-0.022500
31
0.0
0
LINE
8
0
6
CONTINUOUS
10
-0.011780
20
-0.021408
30
0.0
11
-0.011497
21
-0.022500
31
0.0
0
LINE
8
0
6
CONTINUOUS
10
-0.007447
20
0.004225
30
0.0
11
-0.009129
21
0.004225
31
0.0
0
LINE
8
0
6
CONTINUOUS
10
0.009126
20
0.004225
30
0.0
11
0.007443
21
0.004225
31
0.0
0
LINE
8
0
6
CONTINUOUS
10
0.005214
20
0.004225
30
0.0
11
0.002690
21
0.004225
31
0.0
0
LINE
8
0
6
CONTINUOUS
10
0.002690
20
0.004225
30
0.0
11
-0.000002
21
0.004225
31
0.0
0
LINE
8
0
6
CONTINUOUS
10
0.007443
20
0.004225
30
0.0
11
0.005214
21
0.004225
31
0.0
0
LINE
8
0
6
CONTINUOUS
10
-0.005217
20
0.004225
30
0.0
11
-0.007447
21
0.004225
31
0.0
0
LINE
8
0
6
CONTINUOUS
10
-0.000002
20
0.004225
30
0.0
11
-0.002693
21
0.004225
31
0.0
0
LINE
8
0
6
CONTINUOUS
10
-0.002693
20
0.004225
30
0.0
11
-0.005217
21
0.004225
31
0.0
0
LINE
8
0
6
CONTINUOUS
10
-0.009129
20
0.004225
30
0.0
11
-0.010138
21
0.004225
31
0.0
0
LINE
8
0
6
CONTINUOUS
10
0.010514
20
0.004225
30
0.0
11
0.010136
21
0.004225
31
0.0
0
LINE
8
0
6
CONTINUOUS
10
0.010514
20
0.003901
30
0.0
11
0.010514
21
0.004225
31
0.0
0
LINE
8
0
6
CONTINUOUS
10
0.010136
20
0.004225
30
0.0
11
0.009126
21
0.004225
31
0.0
0
LINE
8
0
6
CONTINUOUS
10
-0.010517
20
0.003901
30
0.0
11
-0.010517
21
-0.003460
31
0.0
0
LINE
8
0
6
CONTINUOUS
10
0.010514
20
-0.003460
30
0.0
11
0.010514
21
0.003901
31
0.0
0
LINE
8
0
6
CONTINUOUS
10
0.009541
20
0.008154
30
0.0
11
0.010601
21
0.008154
31
0.0
0
LINE
8
0
6
CONTINUOUS
10
-0.005512
20
0.008154
30
0.0
11
-0.002864
21
0.008154
31
0.0
0
LINE
8
0
6
CONTINUOUS
10
-0.007852
20
0.008154
30
0.0
11
-0.005512
21
0.008154
31
0.0
0
LINE
8
0
6
CONTINUOUS
10
-0.009618
20
0.008154
30
0.0
11
-0.007852
21
0.008154
31
0.0
0
LINE
8
0
6
CONTINUOUS
10
-0.010678
20
0.008154
30
0.0
11
-0.009618
21
0.008154
31
0.0
0
LINE
8
0
6
CONTINUOUS
10
-0.011727
20
0.009996
30
0.0
11
-0.011581
21
0.009075
31
0.0
0
LINE
8
0
6
CONTINUOUS
10
-0.011075
20
0.008154
30
0.0
11
-0.010678
21
0.008154
31
0.0
0
LINE
8
0
6
CONTINUOUS
10
-0.011581
20
0.009075
30
0.0
11
-0.011075
21
0.008154
31
0.0
0
LINE
8
0
6
CONTINUOUS
10
0.010644
20
-0.004459
30
0.0
11
0.010514
21
-0.003694
31
0.0
0
LINE
8
0
6
CONTINUOUS
10
-0.011630
20
-0.005962
30
0.0
11
-0.012002
21
-0.006717
31
0.0
0
LINE
8
0
6
CONTINUOUS
10
-0.012002
20
-0.006717
30
0.0
11
-0.011570
21
-0.006717
31
0.0
0
LINE
8
0
6
CONTINUOUS
10
-0.011009
20
-0.005198
30
0.0
11
-0.011630
21
-0.005962
31
0.0
0
LINE
8
0
6
CONTINUOUS
10
-0.010647
20
-0.004459
30
0.0
11
-0.011009
21
-0.005198
31
0.0
0
LINE
8
0
6
CONTINUOUS
10
-0.011570
20
-0.006717
30
0.0
11
-0.010418
21
-0.006717
31
0.0
0
LINE
8
0
6
CONTINUOUS
10
-0.005954
20
-0.006717
30
0.0
11
-0.003074
21
-0.006717
31
0.0
0
LINE
8
0
6
CONTINUOUS
10
0.011998
20
-0.006717
30
0.0
11
0.011627
21
-0.005962
31
0.0
0
LINE
8
0
6
CONTINUOUS
10
0.011627
20
-0.005962
30
0.0
11
0.011006
21
-0.005198
31
0.0
0
LINE
8
0
6
CONTINUOUS
10
0.011006
20
-0.005198
30
0.0
11
0.010644
21
-0.004459
31
0.0
0
LINE
8
0
6
CONTINUOUS
10
0.011781
20
-0.021118
30
0.0
11
0.011994
21
-0.006991
31
0.0
0
LINE
8
0
6
CONTINUOUS
10
-0.011784
20
-0.021118
30
0.0
11
-0.011780
21
-0.021408
31
0.0
0
LINE
8
0
6
CONTINUOUS
10
-0.011997
20
-0.006991
30
0.0
11
-0.011784
21
-0.021118
31
0.0
0
LINE
8
0
6
CONTINUOUS
10
0.003070
20
-0.006717
30
0.0
11
-0.000002
21
-0.006717
31
0.0
0
LINE
8
0
6
CONTINUOUS
10
0.005950
20
-0.006717
30
0.0
11
0.003070
21
-0.006717
31
0.0
0
LINE
8
0
6
CONTINUOUS
10
0.008494
20
-0.006717
30
0.0
11
0.005950
21
-0.006717
31
0.0
0
LINE
8
0
6
CONTINUOUS
10
0.010414
20
-0.006717
30
0.0
11
0.008494
21
-0.006717
31
0.0
0
LINE
8
0
6
CONTINUOUS
10
0.011566
20
-0.006717
30
0.0
11
0.010414
21
-0.006717
31
0.0
0
LINE
8
0
6
CONTINUOUS
10
0.011998
20
-0.006717
30
0.0
11
0.011566
21
-0.006717
31
0.0
0
LINE
8
0
6
CONTINUOUS
10
0.011994
20
-0.006991
30
0.0
11
0.011998
21
-0.006717
31
0.0
0
LINE
8
0
6
CONTINUOUS
10
-0.010517
20
-0.003460
30
0.0
11
-0.010517
21
-0.003694
31
0.0
0
LINE
8
0
6
CONTINUOUS
10
0.010514
20
-0.003694
30
0.0
11
0.010514
21
-0.003460
31
0.0
0
LINE
8
0
6
CONTINUOUS
10
-0.004252
20
0.004963
30
0.0
11
-0.004252
21
0.004835
31
0.0
0
LINE
8
0
6
CONTINUOUS
10
0.004175
20
0.004835
30
0.0
11
0.004175
21
0.004963
31
0.0
0
LINE
8
0
6
CONTINUOUS
10
0.011651
20
0.009996
30
0.0
11
0.011651
21
0.010191
31
0.0
0
LINE
8
0
6
CONTINUOUS
10
-0.011727
20
0.014500
30
0.0
11
-0.011727
21
0.010191
31
0.0
0
LINE
8
0
6
CONTINUOUS
10
0.009667
20
0.007165
30
0.0
11
0.009836
21
0.007233
31
0.0
0
LINE
8
0
6
CONTINUOUS
10
-0.009912
20
0.007233
30
0.0
11
-0.009744
21
0.007165
31
0.0
0
LINE
8
0
6
CONTINUOUS
10
-0.000038
20
0.004963
30
0.0
11
0.001040
21
0.004963
31
0.0
0
LINE
8
0
6
CONTINUOUS
10
0.001040
20
0.004963
30
0.0
11
0.002052
21
0.004963
31
0.0
0
LINE
8
0
6
CONTINUOUS
10
0.002052
20
0.004963
30
0.0
11
0.002945
21
0.004963
31
0.0
0
LINE
8
0
6
CONTINUOUS
10
0.002945
20
0.004963
30
0.0
11
0.003619
21
0.004963
31
0.0
0
LINE
8
0
6
CONTINUOUS
10
0.003619
20
0.004963
30
0.0
11
0.004023
21
0.004963
31
0.0
0
LINE
8
0
6
CONTINUOUS
10
0.004023
20
0.004963
30
0.0
11
0.004175
21
0.004963
31
0.0
0
LINE
8
0
6
CONTINUOUS
10
0.004175
20
0.004963
30
0.0
11
0.004417
21
0.005060
31
0.0
0
LINE
8
0
6
CONTINUOUS
10
-0.001117
20
0.004963
30
0.0
11
-0.000038
21
0.004963
31
0.0
0
LINE
8
0
6
CONTINUOUS
10
-0.002128
20
0.004963
30
0.0
11
-0.001117
21
0.004963
31
0.0
0
LINE
8
0
6
CONTINUOUS
10
-0.003021
20
0.004963
30
0.0
11
-0.002128
21
0.004963
31
0.0
0
LINE
8
0
6
CONTINUOUS
10
-0.003696
20
0.004963
30
0.0
11
-0.003021
21
0.004963
31
0.0
0
LINE
8
0
6
CONTINUOUS
10
-0.004100
20
0.004963
30
0.0
11
-0.003696
21
0.004963
31
0.0
0
LINE
8
0
6
CONTINUOUS
10
-0.004252
20
0.004963
30
0.0
11
-0.004100
21
0.004963
31
0.0
0
LINE
8
0
6
CONTINUOUS
10
-0.004494
20
0.005060
30
0.0
11
-0.004252
21
0.004963
31
0.0
0
LINE
8
0
6
CONTINUOUS
10
0.004417
20
0.005060
30
0.0
11
0.009667
21
0.007165
31
0.0
0
LINE
8
0
6
CONTINUOUS
10
-0.009744
20
0.007165
30
0.0
11
-0.004494
21
0.005060
31
0.0
0
LINE
8
0
6
CONTINUOUS
10
0.056144
20
0.029500
30
0.0
11
0.052068
21
0.029500
31
0.0
0
LINE
8
0
6
CONTINUOUS
10
0.076873
20
0.029500
30
0.0
11
0.076171
21
0.029500
31
0.0
0
LINE
8
0
6
CONTINUOUS
10
0.074454
20
0.029500
30
0.0
11
0.073306
21
0.029500
31
0.0
0
LINE
8
0
6
CONTINUOUS
10
0.071798
20
0.029500
30
0.0
11
0.069697
21
0.029500
31
0.0
0
LINE
8
0
6
CONTINUOUS
10
0.077270
20
0.029500
30
0.0
11
0.076873
21
0.029500
31
0.0
0
LINE
8
0
6
CONTINUOUS
10
0.077500
20
0.029500
30
0.0
11
0.077270
21
0.029500
31
0.0
0
LINE
8
0
6
CONTINUOUS
10
0.077500
20
0.029124
30
0.0
11
0.077500
21
0.029500
31
0.0
0
LINE
8
0
6
CONTINUOUS
10
0.073306
20
0.029500
30
0.0
11
0.071798
21
0.029500
31
0.0
0
LINE
8
0
6
CONTINUOUS
10
0.040227
20
0.029500
30
0.0
11
0.029102
21
0.029500
31
0.0
0
LINE
8
0
6
CONTINUOUS
10
0.063759
20
0.029500
30
0.0
11
0.060091
21
0.029500
31
0.0
0
LINE
8
0
6
CONTINUOUS
10
0.067038
20
0.029500
30
0.0
11
0.063759
21
0.029500
31
0.0
0
LINE
8
0
6
CONTINUOUS
10
0.047903
20
0.029500
30
0.0
11
0.040227
21
0.029500
31
0.0
0
LINE
8
0
6
CONTINUOUS
10
0.052068
20
0.029500
30
0.0
11
0.047903
21
0.029500
31
0.0
0
LINE
8
0
6
CONTINUOUS
10
0.075247
20
0.029500
30
0.0
11
0.074454
21
0.029500
31
0.0
0
LINE
8
0
6
CONTINUOUS
10
0.076171
20
0.029500
30
0.0
11
0.075247
21
0.029500
31
0.0
0
LINE
8
0
6
CONTINUOUS
10
0.029102
20
0.029500
30
0.0
11
0.016409
21
0.029500
31
0.0
0
LINE
8
0
6
CONTINUOUS
10
0.060091
20
0.029500
30
0.0
11
0.056144
21
0.029500
31
0.0
0
LINE
8
0
6
CONTINUOUS
10
0.069697
20
0.029500
30
0.0
11
0.067038
21
0.029500
31
0.0
0
LINE
8
0
6
CONTINUOUS
10
0.016409
20
0.029500
30
0.0
11
-0.000000
21
0.029500
31
0.0
0
LINE
8
0
6
CONTINUOUS
10
-0.052068
20
0.029500
30
0.0
11
-0.056144
21
0.029500
31
0.0
0
LINE
8
0
6
CONTINUOUS
10
-0.076171
20
0.029500
30
0.0
11
-0.076873
21
0.029500
31
0.0
0
LINE
8
0
6
CONTINUOUS
10
-0.073306
20
0.029500
30
0.0
11
-0.074454
21
0.029500
31
0.0
0
LINE
8
0
6
CONTINUOUS
10
-0.069697
20
0.029500
30
0.0
11
-0.071798
21
0.029500
31
0.0
0
LINE
8
0
6
CONTINUOUS
10
-0.076873
20
0.029500
30
0.0
11
-0.077270
21
0.029500
31
0.0
0
LINE
8
0
6
CONTINUOUS
10
-0.077500
20
0.029500
30
0.0
11
-0.077500
21
0.029124
31
0.0
0
LINE
8
0
6
CONTINUOUS
10
-0.077270
20
0.029500
30
0.0
11
-0.077500
21
0.029500
31
0.0
0
LINE
8
0
6
CONTINUOUS
10
-0.071798
20
0.029500
30
0.0
11
-0.073306
21
0.029500
31
0.0
0
LINE
8
0
6
CONTINUOUS
10
-0.029102
20
0.029500
30
0.0
11
-0.040227
21
0.029500
31
0.0
0
LINE
8
0
6
CONTINUOUS
10
-0.060091
20
0.029500
30
0.0
11
-0.063759
21
0.029500
31
0.0
0
LINE
8
0
6
CONTINUOUS
10
-0.063759
20
0.029500
30
0.0
11
-0.067038
21
0.029500
31
0.0
0
LINE
8
0
6
CONTINUOUS
10
-0.040227
20
0.029500
30
0.0
11
-0.047903
21
0.029500
31
0.0
0
LINE
8
0
6
CONTINUOUS
10
-0.047903
20
0.029500
30
0.0
11
-0.052068
21
0.029500
31
0.0
0
LINE
8
0
6
CONTINUOUS
10
-0.074454
20
0.029500
30
0.0
11
-0.075247
21
0.029500
31
0.0
0
LINE
8
0
6
CONTINUOUS
10
-0.075247
20
0.029500
30
0.0
11
-0.076171
21
0.029500
31
0.0
0
LINE
8
0
6
CONTINUOUS
10
-0.016409
20
0.029500
30
0.0
11
-0.029102
21
0.029500
31
0.0
0
LINE
8
0
6
CONTINUOUS
10
-0.056144
20
0.029500
30
0.0
11
-0.060091
21
0.029500
31
0.0
0
LINE
8
0
6
CONTINUOUS
10
-0.067038
20
0.029500
30
0.0
11
-0.069697
21
0.029500
31
0.0
0
LINE
8
0
6
CONTINUOUS
10
-0.000000
20
0.029500
30
0.0
11
-0.016409
21
0.029500
31
0.0
0
LINE
8
0
6
CONTINUOUS
10
0.077500
20
0.015500
30
0.0
11
0.077500
21
0.015876
31
0.0
0
LINE
8
0
6
CONTINUOUS
10
0.063759
20
0.015500
30
0.0
11
0.060091
21
0.015500
31
0.0
0
LINE
8
0
6
CONTINUOUS
10
0.069697
20
0.015500
30
0.0
11
0.067038
21
0.015500
31
0.0
0
LINE
8
0
6
CONTINUOUS
10
0.068941
20
0.014500
30
0.0
11
0.070952
21
0.014500
31
0.0
0
LINE
8
0
6
CONTINUOUS
10
0.073306
20
0.015500
30
0.0
11
0.071798
21
0.015500
31
0.0
0
LINE
8
0
6
CONTINUOUS
10
0.077270
20
0.015500
30
0.0
11
0.076873
21
0.015500
31
0.0
0
LINE
8
0
6
CONTINUOUS
10
0.077500
20
0.015876
30
0.0
11
0.077500
21
0.029124
31
0.0
0
LINE
8
0
6
CONTINUOUS
10
0.070952
20
0.014500
30
0.0
11
0.072434
21
0.014500
31
0.0
0
LINE
8
0
6
CONTINUOUS
10
0.073009
20
0.014800
30
0.0
11
0.071521
21
0.014800
31
0.0
0
LINE
8
0
6
CONTINUOUS
10
0.072434
20
0.014500
30
0.0
11
0.073518
21
0.014500
31
0.0
0
LINE
8
0
6
CONTINUOUS
10
0.073518
20
0.014500
30
0.0
11
0.074407
21
0.014500
31
0.0
0
LINE
8
0
6
CONTINUOUS
10
0.075279
20
0.014500
30
0.0
11
0.075949
21
0.014500
31
0.0
0
LINE
8
0
6
CONTINUOUS
10
0.075949
20
0.014500
30
0.0
11
0.076291
21
0.014500
31
0.0
0
LINE
8
0
6
CONTINUOUS
10
0.076935
20
0.014800
30
0.0
11
0.076565
21
0.014800
31
0.0
0
LINE
8
0
6
CONTINUOUS
10
0.063070
20
0.014500
30
0.0
11
0.066330
21
0.014500
31
0.0
0
LINE
8
0
6
CONTINUOUS
10
0.071798
20
0.015500
30
0.0
11
0.069697
21
0.015500
31
0.0
0
LINE
8
0
6
CONTINUOUS
10
0.069428
20
0.014800
30
0.0
11
0.071521
21
0.014800
31
0.0
0
LINE
8
0
6
CONTINUOUS
10
0.051544
20
0.014500
30
0.0
11
0.055563
21
0.014500
31
0.0
0
LINE
8
0
6
CONTINUOUS
10
0.047467
20
0.014500
30
0.0
11
0.051544
21
0.014500
31
0.0
0
LINE
8
0
6
CONTINUOUS
10
0.077500
20
0.015500
30
0.0
11
0.077270
21
0.015500
31
0.0
0
LINE
8
0
6
CONTINUOUS
10
0.077200
20
0.014800
30
0.0
11
0.077500
21
0.015500
31
0.0
0
LINE
8
0
6
CONTINUOUS
10
0.067038
20
0.015500
30
0.0
11
0.063759
21
0.015500
31
0.0
0
LINE
8
0
6
CONTINUOUS
10
0.063551
20
0.014800
30
0.0
11
0.066776
21
0.014800
31
0.0
0
LINE
8
0
6
CONTINUOUS
10
0.060091
20
0.015500
30
0.0
11
0.056144
21
0.015500
31
0.0
0
LINE
8
0
6
CONTINUOUS
10
0.056144
20
0.015500
30
0.0
11
0.052068
21
0.015500
31
0.0
0
LINE
8
0
6
CONTINUOUS
10
0.051888
20
0.014800
30
0.0
11
0.055946
21
0.014800
31
0.0
0
LINE
8
0
6
CONTINUOUS
10
0.040227
20
0.015500
30
0.0
11
0.029102
21
0.015500
31
0.0
0
LINE
8
0
6
CONTINUOUS
10
0.029102
20
0.015500
30
0.0
11
0.016409
21
0.015500
31
0.0
0
LINE
8
0
6
CONTINUOUS
10
-0.000000
20
0.014500
30
0.0
11
0.016213
21
0.014500
31
0.0
0
LINE
8
0
6
CONTINUOUS
10
0.077200
20
0.014800
30
0.0
11
0.076935
21
0.014800
31
0.0
0
LINE
8
0
6
CONTINUOUS
10
0.076500
20
0.014500
30
0.0
11
0.077200
21
0.014800
31
0.0
0
LINE
8
0
6
CONTINUOUS
10
0.076291
20
0.014500
30
0.0
11
0.076500
21
0.014500
31
0.0
0
LINE
8
0
6
CONTINUOUS
10
0.059452
20
0.014500
30
0.0
11
0.063070
21
0.014500
31
0.0
0
LINE
8
0
6
CONTINUOUS
10
0.063551
20
0.014800
30
0.0
11
0.059870
21
0.014800
31
0.0
0
LINE
8
0
6
CONTINUOUS
10
0.073009
20
0.014800
30
0.0
11
0.074143
21
0.014800
31
0.0
0
LINE
8
0
6
CONTINUOUS
10
0.074454
20
0.015500
30
0.0
11
0.073306
21
0.015500
31
0.0
0
LINE
8
0
6
CONTINUOUS
10
0.074143
20
0.014800
30
0.0
11
0.074923
21
0.014800
31
0.0
0
LINE
8
0
6
CONTINUOUS
10
0.075247
20
0.015500
30
0.0
11
0.074454
21
0.015500
31
0.0
0
LINE
8
0
6
CONTINUOUS
10
0.076171
20
0.015500
30
0.0
11
0.075247
21
0.015500
31
0.0
0
LINE
8
0
6
CONTINUOUS
10
0.075806
20
0.014800
30
0.0
11
0.076565
21
0.014800
31
0.0
0
LINE
8
0
6
CONTINUOUS
10
0.076873
20
0.015500
30
0.0
11
0.076171
21
0.015500
31
0.0
0
LINE
8
0
6
CONTINUOUS
10
0.066330
20
0.014500
30
0.0
11
0.068941
21
0.014500
31
0.0
0
LINE
8
0
6
CONTINUOUS
10
0.069428
20
0.014800
30
0.0
11
0.066776
21
0.014800
31
0.0
0
LINE
8
0
6
CONTINUOUS
10
0.074407
20
0.014500
30
0.0
11
0.075279
21
0.014500
31
0.0
0
LINE
8
0
6
CONTINUOUS
10
0.075806
20
0.014800
30
0.0
11
0.074923
21
0.014800
31
0.0
0
LINE
8
0
6
CONTINUOUS
10
0.059870
20
0.014800
30
0.0
11
0.055946
21
0.014800
31
0.0
0
LINE
8
0
6
CONTINUOUS
10
0.055563
20
0.014500
30
0.0
11
0.059452
21
0.014500
31
0.0
0
LINE
8
0
6
CONTINUOUS
10
0.039822
20
0.014500
30
0.0
11
0.047467
21
0.014500
31
0.0
0
LINE
8
0
6
CONTINUOUS
10
0.040025
20
0.014800
30
0.0
11
0.028962
21
0.014800
31
0.0
0
LINE
8
0
6
CONTINUOUS
10
0.028654
20
0.014500
30
0.0
11
0.039822
21
0.014500
31
0.0
0
LINE
8
0
6
CONTINUOUS
10
0.028962
20
0.014800
30
0.0
11
0.016353
21
0.014800
31
0.0
0
LINE
8
0
6
CONTINUOUS
10
0.016213
20
0.014500
30
0.0
11
0.028654
21
0.014500
31
0.0
0
LINE
8
0
6
CONTINUOUS
10
0.052068
20
0.015500
30
0.0
11
0.047903
21
0.015500
31
0.0
0
LINE
8
0
6
CONTINUOUS
10
0.047743
20
0.014800
30
0.0
11
0.051888
21
0.014800
31
0.0
0
LINE
8
0
6
CONTINUOUS
10
0.047903
20
0.015500
30
0.0
11
0.040227
21
0.015500
31
0.0
0
LINE
8
0
6
CONTINUOUS
10
0.040025
20
0.014800
30
0.0
11
0.047743
21
0.014800
31
0.0
0
LINE
8
0
6
CONTINUOUS
10
-0.000000
20
0.014800
30
0.0
11
0.016353
21
0.014800
31
0.0
0
LINE
8
0
6
CONTINUOUS
10
0.016409
20
0.015500
30
0.0
11
-0.000000
21
0.015500
31
0.0
0
LINE
8
0
6
CONTINUOUS
10
-0.077500
20
0.015876
30
0.0
11
-0.077500
21
0.015500
31
0.0
0
LINE
8
0
6
CONTINUOUS
10
-0.060091
20
0.015500
30
0.0
11
-0.063759
21
0.015500
31
0.0
0
LINE
8
0
6
CONTINUOUS
10
-0.067038
20
0.015500
30
0.0
11
-0.069697
21
0.015500
31
0.0
0
LINE
8
0
6
CONTINUOUS
10
-0.070952
20
0.014500
30
0.0
11
-0.068941
21
0.014500
31
0.0
0
LINE
8
0
6
CONTINUOUS
10
-0.071798
20
0.015500
30
0.0
11
-0.073306
21
0.015500
31
0.0
0
LINE
8
0
6
CONTINUOUS
10
-0.076873
20
0.015500
30
0.0
11
-0.077270
21
0.015500
31
0.0
0
LINE
8
0
6
CONTINUOUS
10
-0.077500
20
0.029124
30
0.0
11
-0.077500
21
0.015876
31
0.0
0
LINE
8
0
6
CONTINUOUS
10
-0.071521
20
0.014800
30
0.0
11
-0.073009
21
0.014800
31
0.0
0
LINE
8
0
6
CONTINUOUS
10
-0.072434
20
0.014500
30
0.0
11
-0.070952
21
0.014500
31
0.0
0
LINE
8
0
6
CONTINUOUS
10
-0.073518
20
0.014500
30
0.0
11
-0.072434
21
0.014500
31
0.0
0
LINE
8
0
6
CONTINUOUS
10
-0.074407
20
0.014500
30
0.0
11
-0.073518
21
0.014500
31
0.0
0
LINE
8
0
6
CONTINUOUS
10
-0.075949
20
0.014500
30
0.0
11
-0.075279
21
0.014500
31
0.0
0
LINE
8
0
6
CONTINUOUS
10
-0.076565
20
0.014800
30
0.0
11
-0.076935
21
0.014800
31
0.0
0
LINE
8
0
6
CONTINUOUS
10
-0.076291
20
0.014500
30
0.0
11
-0.075949
21
0.014500
31
0.0
0
LINE
8
0
6
CONTINUOUS
10
-0.066330
20
0.014500
30
0.0
11
-0.063070
21
0.014500
31
0.0
0
LINE
8
0
6
CONTINUOUS
10
-0.071521
20
0.014800
30
0.0
11
-0.069428
21
0.014800
31
0.0
0
LINE
8
0
6
CONTINUOUS
10
-0.069697
20
0.015500
30
0.0
11
-0.071798
21
0.015500
31
0.0
0
LINE
8
0
6
CONTINUOUS
10
-0.055563
20
0.014500
30
0.0
11
-0.051544
21
0.014500
31
0.0
0
LINE
8
0
6
CONTINUOUS
10
-0.051544
20
0.014500
30
0.0
11
-0.047467
21
0.014500
31
0.0
0
LINE
8
0
6
CONTINUOUS
10
-0.077500
20
0.015500
30
0.0
11
-0.077200
21
0.014800
31
0.0
0
LINE
8
0
6
CONTINUOUS
10
-0.077270
20
0.015500
30
0.0
11
-0.077500
21
0.015500
31
0.0
0
LINE
8
0
6
CONTINUOUS
10
-0.066776
20
0.014800
30
0.0
11
-0.063551
21
0.014800
31
0.0
0
LINE
8
0
6
CONTINUOUS
10
-0.063759
20
0.015500
30
0.0
11
-0.067038
21
0.015500
31
0.0
0
LINE
8
0
6
CONTINUOUS
10
-0.056144
20
0.015500
30
0.0
11
-0.060091
21
0.015500
31
0.0
0
LINE
8
0
6
CONTINUOUS
10
-0.055946
20
0.014800
30
0.0
11
-0.051888
21
0.014800
31
0.0
0
LINE
8
0
6
CONTINUOUS
10
-0.052068
20
0.015500
30
0.0
11
-0.056144
21
0.015500
31
0.0
0
LINE
8
0
6
CONTINUOUS
10
-0.029102
20
0.015500
30
0.0
11
-0.040227
21
0.015500
31
0.0
0
LINE
8
0
6
CONTINUOUS
10
-0.016409
20
0.015500
30
0.0
11
-0.029102
21
0.015500
31
0.0
0
LINE
8
0
6
CONTINUOUS
10
-0.016213
20
0.014500
30
0.0
11
-0.000000
21
0.014500
31
0.0
0
LINE
8
0
6
CONTINUOUS
10
-0.076500
20
0.014500
30
0.0
11
-0.076291
21
0.014500
31
0.0
0
LINE
8
0
6
CONTINUOUS
10
-0.077200
20
0.014800
30
0.0
11
-0.076500
21
0.014500
31
0.0
0
LINE
8
0
6
CONTINUOUS
10
-0.076935
20
0.014800
30
0.0
11
-0.077200
21
0.014800
31
0.0
0
LINE
8
0
6
CONTINUOUS
10
-0.059870
20
0.014800
30
0.0
11
-0.063551
21
0.014800
31
0.0
0
LINE
8
0
6
CONTINUOUS
10
-0.063070
20
0.014500
30
0.0
11
-0.059452
21
0.014500
31
0.0
0
LINE
8
0
6
CONTINUOUS
10
-0.073306
20
0.015500
30
0.0
11
-0.074454
21
0.015500
31
0.0
0
LINE
8
0
6
CONTINUOUS
10
-0.074143
20
0.014800
30
0.0
11
-0.073009
21
0.014800
31
0.0
0
LINE
8
0
6
CONTINUOUS
10
-0.074454
20
0.015500
30
0.0
11
-0.075247
21
0.015500
31
0.0
0
LINE
8
0
6
CONTINUOUS
10
-0.074923
20
0.014800
30
0.0
11
-0.074143
21
0.014800
31
0.0
0
LINE
8
0
6
CONTINUOUS
10
-0.075247
20
0.015500
30
0.0
11
-0.076171
21
0.015500
31
0.0
0
LINE
8
0
6
CONTINUOUS
10
-0.076171
20
0.015500
30
0.0
11
-0.076873
21
0.015500
31
0.0
0
LINE
8
0
6
CONTINUOUS
10
-0.076565
20
0.014800
30
0.0
11
-0.075806
21
0.014800
31
0.0
0
LINE
8
0
6
CONTINUOUS
10
-0.066776
20
0.014800
30
0.0
11
-0.069428
21
0.014800
31
0.0
0
LINE
8
0
6
CONTINUOUS
10
-0.068941
20
0.014500
30
0.0
11
-0.066330
21
0.014500
31
0.0
0
LINE
8
0
6
CONTINUOUS
10
-0.074923
20
0.014800
30
0.0
11
-0.075806
21
0.014800
31
0.0
0
LINE
8
0
6
CONTINUOUS
10
-0.075279
20
0.014500
30
0.0
11
-0.074407
21
0.014500
31
0.0
0
LINE
8
0
6
CONTINUOUS
10
-0.059452
20
0.014500
30
0.0
11
-0.055563
21
0.014500
31
0.0
0
LINE
8
0
6
CONTINUOUS
10
-0.055946
20
0.014800
30
0.0
11
-0.059870
21
0.014800
31
0.0
0
LINE
8
0
6
CONTINUOUS
10
-0.047467
20
0.014500
30
0.0
11
-0.039822
21
0.014500
31
0.0
0
LINE
8
0
6
CONTINUOUS
10
-0.039822
20
0.014500
30
0.0
11
-0.028654
21
0.014500
31
0.0
0
LINE
8
0
6
CONTINUOUS
10
-0.028962
20
0.014800
30
0.0
11
-0.040025
21
0.014800
31
0.0
0
LINE
8
0
6
CONTINUOUS
10
-0.028654
20
0.014500
30
0.0
11
-0.016213
21
0.014500
31
0.0
0
LINE
8
0
6
CONTINUOUS
10
-0.016353
20
0.014800
30
0.0
11
-0.028962
21
0.014800
31
0.0
0
LINE
8
0
6
CONTINUOUS
10
-0.051888
20
0.014800
30
0.0
11
-0.047743
21
0.014800
31
0.0
0
LINE
8
0
6
CONTINUOUS
10
-0.047903
20
0.015500
30
0.0
11
-0.052068
21
0.015500
31
0.0
0
LINE
8
0
6
CONTINUOUS
10
-0.047743
20
0.014800
30
0.0
11
-0.040025
21
0.014800
31
0.0
0
LINE
8
0
6
CONTINUOUS
10
-0.040227
20
0.015500
30
0.0
11
-0.047903
21
0.015500
31
0.0
0
LINE
8
0
6
CONTINUOUS
10
-0.000000
20
0.015500
30
0.0
11
-0.016409
21
0.015500
31
0.0
0
LINE
8
0
6
CONTINUOUS
10
-0.016353
20
0.014800
30
0.0
11
-0.000000
21
0.014800
31
0.0
0
LINE
8
0
6
CONTINUOUS
10
0.020376
20
0.006290
30
0.0
11
0.021335
21
0.010179
31
0.0
0
LINE
8
0
6
CONTINUOUS
10
-0.021338
20
0.010179
30
0.0
11
-0.020379
21
0.006290
31
0.0
0
LINE
8
0
6
CONTINUOUS
10
0.021957
20
0.014069
30
0.0
11
0.021962
21
0.014500
31
0.0
0
LINE
8
0
6
CONTINUOUS
10
0.021335
20
0.010179
30
0.0
11
0.021957
21
0.014069
31
0.0
0
LINE
8
0
6
CONTINUOUS
10
-0.021965
20
0.014500
30
0.0
11
-0.021960
21
0.014069
31
0.0
0
LINE
8
0
6
CONTINUOUS
10
-0.021960
20
0.014069
30
0.0
11
-0.021338
21
0.010179
31
0.0
0
LINE
8
0
6
CONTINUOUS
10
0.022067
20
0.006504
30
0.0
11
0.021315
21
0.006504
31
0.0
0
LINE
8
0
6
CONTINUOUS
10
0.022067
20
0.005953
30
0.0
11
0.022067
21
0.006504
31
0.0
0
LINE
8
0
6
CONTINUOUS
10
0.015604
20
0.006504
30
0.0
11
0.011033
21
0.006504
31
0.0
0
LINE
8
0
6
CONTINUOUS
10
0.019111
20
0.006504
30
0.0
11
0.015604
21
0.006504
31
0.0
0
LINE
8
0
6
CONTINUOUS
10
0.021315
20
0.006504
30
0.0
11
0.019111
21
0.006504
31
0.0
0
LINE
8
0
6
CONTINUOUS
10
0.011033
20
0.006504
30
0.0
11
0.008017
21
0.006504
31
0.0
0
LINE
8
0
6
CONTINUOUS
10
0.021315
20
-0.029500
30
0.0
11
0.022067
21
-0.029500
31
0.0
0
LINE
8
0
6
CONTINUOUS
10
0.022067
20
-0.029500
30
0.0
11
0.022067
21
-0.028949
31
0.0
0
LINE
8
0
6
CONTINUOUS
10
0.019111
20
-0.029500
30
0.0
11
0.021315
21
-0.029500
31
0.0
0
LINE
8
0
6
CONTINUOUS
10
0.015604
20
-0.029500
30
0.0
11
0.019111
21
-0.029500
31
0.0
0
LINE
8
0
6
CONTINUOUS
10
0.011033
20
-0.029500
30
0.0
11
0.015604
21
-0.029500
31
0.0
0
LINE
8
0
6
CONTINUOUS
10
0.005710
20
-0.029500
30
0.0
11
0.011033
21
-0.029500
31
0.0
0
LINE
8
0
6
CONTINUOUS
10
-0.000002
20
-0.029500
30
0.0
11
0.005710
21
-0.029500
31
0.0
0
LINE
8
0
6
CONTINUOUS
10
0.022067
20
-0.018925
30
0.0
11
0.022067
21
-0.016272
31
0.0
0
LINE
8
0
6
CONTINUOUS
10
0.022067
20
-0.024356
30
0.0
11
0.022067
21
-0.022190
31
0.0
0
LINE
8
0
6
CONTINUOUS
10
0.022067
20
-0.010965
30
0.0
11
0.022067
21
-0.006430
31
0.0
0
LINE
8
0
6
CONTINUOUS
10
0.022067
20
-0.016272
30
0.0
11
0.022067
21
-0.013618
31
0.0
0
LINE
8
0
6
CONTINUOUS
10
0.022067
20
-0.020914
30
0.0
11
0.022067
21
-0.018925
31
0.0
0
LINE
8
0
6
CONTINUOUS
10
0.022067
20
-0.022190
30
0.0
11
0.022067
21
-0.020914
31
0.0
0
LINE
8
0
6
CONTINUOUS
10
0.022067
20
-0.006430
30
0.0
11
0.022067
21
0.005953
31
0.0
0
LINE
8
0
6
CONTINUOUS
10
0.022067
20
-0.013618
30
0.0
11
0.022067
21
-0.010965
31
0.0
0
LINE
8
0
6
CONTINUOUS
10
0.022067
20
-0.028949
30
0.0
11
0.022067
21
-0.024356
31
0.0
0
LINE
8
0
6
CONTINUOUS
10
-0.022070
20
0.006504
30
0.0
11
-0.022070
21
0.005953
31
0.0
0
LINE
8
0
6
CONTINUOUS
10
-0.021319
20
0.006504
30
0.0
11
-0.022070
21
0.006504
31
0.0
0
LINE
8
0
6
CONTINUOUS
10
-0.011036
20
0.006504
30
0.0
11
-0.015607
21
0.006504
31
0.0
0
LINE
8
0
6
CONTINUOUS
10
-0.015607
20
0.006504
30
0.0
11
-0.019114
21
0.006504
31
0.0
0
LINE
8
0
6
CONTINUOUS
10
-0.019114
20
0.006504
30
0.0
11
-0.021319
21
0.006504
31
0.0
0
LINE
8
0
6
CONTINUOUS
10
-0.008094
20
0.006504
30
0.0
11
-0.011036
21
0.006504
31
0.0
0
LINE
8
0
6
CONTINUOUS
10
-0.022070
20
-0.028949
30
0.0
11
-0.022070
21
-0.029500
31
0.0
0
LINE
8
0
6
CONTINUOUS
10
-0.022070
20
-0.029500
30
0.0
11
-0.021318
21
-0.029500
31
0.0
0
LINE
8
0
6
CONTINUOUS
10
-0.021318
20
-0.029500
30
0.0
11
-0.019114
21
-0.029500
31
0.0
0
LINE
8
0
6
CONTINUOUS
10
-0.019114
20
-0.029500
30
0.0
11
-0.015607
21
-0.029500
31
0.0
0
LINE
8
0
6
CONTINUOUS
10
-0.015607
20
-0.029500
30
0.0
11
-0.011036
21
-0.029500
31
0.0
0
LINE
8
0
6
CONTINUOUS
10
-0.011036
20
-0.029500
30
0.0
11
-0.005713
21
-0.029500
31
0.0
0
LINE
8
0
6
CONTINUOUS
10
-0.005713
20
-0.029500
30
0.0
11
-0.000002
21
-0.029500
31
0.0
0
LINE
8
0
6
CONTINUOUS
10
-0.022070
20
-0.016272
30
0.0
11
-0.022070
21
-0.018925
31
0.0
0
LINE
8
0
6
CONTINUOUS
10
-0.022070
20
-0.022190
30
0.0
11
-0.022070
21
-0.024356
31
0.0
0
LINE
8
0
6
CONTINUOUS
10
-0.022070
20
-0.006430
30
0.0
11
-0.022070
21
-0.010965
31
0.0
0
LINE
8
0
6
CONTINUOUS
10
-0.022070
20
-0.013618
30
0.0
11
-0.022070
21
-0.016272
31
0.0
0
LINE
8
0
6
CONTINUOUS
10
-0.022070
20
-0.018925
30
0.0
11
-0.022070
21
-0.020914
31
0.0
0
LINE
8
0
6
CONTINUOUS
10
-0.022070
20
-0.020914
30
0.0
11
-0.022070
21
-0.022190
31
0.0
0
LINE
8
0
6
CONTINUOUS
10
-0.022070
20
0.005953
30
0.0
11
-0.022070
21
-0.006430
31
0.0
0
LINE
8
0
6
CONTINUOUS
10
-0.022070
20
-0.010965
30
0.0
11
-0.022070
21
-0.013618
31
0.0
0
LINE
8
0
6
CONTINUOUS
10
-0.022070
20
-0.024356
30
0.0
11
-0.022070
21
-0.028949
31
0.0
0
ENDSEC
0
EOF
