999
Erzeugt mit innoplus bad 
0
SECTION
2
HEADER
9
$ACADVER
1
AC1009
9
$DWGCODEPAGE
3
ISO8859-1
0
ENDSEC
0
SECTION
2
TABLES
0
TABLE
2
LAYER
70
1
0
LAYER
2
0
70
0
62
7
6
CONTINUOUS
0
ENDTAB
0
ENDSEC
0
SECTION
2
ENTITIES
0
LINE
8
0
6
CONTINUOUS
10
-0.097630
20
0.020746
30
0.0
11
-0.095731
21
0.019291
31
0.0
0
LINE
8
0
6
CONTINUOUS
10
-0.098778
20
0.021625
30
0.0
11
-0.097630
21
0.020746
31
0.0
0
LINE
8
0
6
CONTINUOUS
10
-0.099158
20
0.022546
30
0.0
11
-0.099061
21
0.021842
31
0.0
0
LINE
8
0
6
CONTINUOUS
10
-0.080842
20
0.007887
30
0.0
11
-0.080136
21
0.007977
31
0.0
0
LINE
8
0
6
CONTINUOUS
10
-0.082890
20
0.009456
30
0.0
11
-0.081450
21
0.008353
31
0.0
0
LINE
8
0
6
CONTINUOUS
10
-0.085022
20
0.011089
30
0.0
11
-0.082890
21
0.009456
31
0.0
0
LINE
8
0
6
CONTINUOUS
10
-0.087230
20
0.013410
30
0.0
11
-0.084500
21
0.011320
31
0.0
0
LINE
8
0
6
CONTINUOUS
10
-0.095681
20
0.019883
30
0.0
11
-0.093108
21
0.017912
31
0.0
0
LINE
8
0
6
CONTINUOUS
10
-0.080842
20
0.007887
30
0.0
11
-0.081450
21
0.008353
31
0.0
0
LINE
8
0
6
CONTINUOUS
10
-0.085022
20
0.011089
30
0.0
11
-0.087636
21
0.013091
31
0.0
0
LINE
8
0
6
CONTINUOUS
10
-0.087636
20
0.013091
30
0.0
11
-0.090473
21
0.015264
31
0.0
0
LINE
8
0
6
CONTINUOUS
10
-0.090473
20
0.015264
30
0.0
11
-0.093266
21
0.017403
31
0.0
0
LINE
8
0
6
CONTINUOUS
10
-0.093266
20
0.017403
30
0.0
11
-0.095731
21
0.019291
31
0.0
0
LINE
8
0
6
CONTINUOUS
10
-0.098778
20
0.021625
30
0.0
11
-0.099061
21
0.021842
31
0.0
0
LINE
8
0
6
CONTINUOUS
10
-0.090980
20
0.020691
30
0.0
11
-0.088067
21
0.018460
31
0.0
0
LINE
8
0
6
CONTINUOUS
10
-0.088067
20
0.018460
30
0.0
11
-0.085101
21
0.016188
31
0.0
0
LINE
8
0
6
CONTINUOUS
10
-0.093108
20
0.017912
30
0.0
11
-0.090473
21
0.015264
31
0.0
0
LINE
8
0
6
CONTINUOUS
10
-0.090473
20
0.015264
30
0.0
11
-0.087230
21
0.013410
31
0.0
0
LINE
8
0
6
CONTINUOUS
10
-0.099158
20
0.022546
30
0.0
11
-0.098862
21
0.022319
31
0.0
0
LINE
8
0
6
CONTINUOUS
10
-0.098987
20
0.022770
30
0.0
11
-0.099158
21
0.022546
31
0.0
0
LINE
8
0
6
CONTINUOUS
10
-0.098862
20
0.022319
30
0.0
11
-0.097664
21
0.021402
31
0.0
0
LINE
8
0
6
CONTINUOUS
10
-0.097664
20
0.021402
30
0.0
11
-0.095681
21
0.019883
31
0.0
0
LINE
8
0
6
CONTINUOUS
10
-0.084500
20
0.011320
30
0.0
11
-0.082275
21
0.009615
31
0.0
0
LINE
8
0
6
CONTINUOUS
10
-0.082275
20
0.009615
30
0.0
11
-0.080771
21
0.008463
31
0.0
0
LINE
8
0
6
CONTINUOUS
10
-0.080136
20
0.007977
30
0.0
11
-0.079953
21
0.008216
31
0.0
0
LINE
8
0
6
CONTINUOUS
10
-0.080771
20
0.008463
30
0.0
11
-0.080136
21
0.007977
31
0.0
0
LINE
8
0
6
CONTINUOUS
10
-0.097262
20
0.025021
30
0.0
11
-0.098987
21
0.022770
31
0.0
0
LINE
8
0
6
CONTINUOUS
10
-0.079953
20
0.008216
30
0.0
11
-0.078112
21
0.010620
31
0.0
0
LINE
8
0
6
CONTINUOUS
10
0.059000
20
0.006417
30
0.0
11
0.060004
21
0.006417
31
0.0
0
LINE
8
0
6
CONTINUOUS
10
0.060004
20
0.026119
30
0.0
11
0.059000
21
0.026119
31
0.0
0
LINE
8
0
6
CONTINUOUS
10
0.060004
20
0.030658
30
0.0
11
0.060004
21
0.024463
31
0.0
0
LINE
8
0
6
CONTINUOUS
10
0.062565
20
0.030658
30
0.0
11
0.060004
21
0.030658
31
0.0
0
LINE
8
0
6
CONTINUOUS
10
0.060004
20
0.022130
30
0.0
11
0.060004
21
0.009740
31
0.0
0
LINE
8
0
6
CONTINUOUS
10
0.060004
20
0.001213
30
0.0
11
0.062565
21
0.001213
31
0.0
0
LINE
8
0
6
CONTINUOUS
10
0.060004
20
0.007408
30
0.0
11
0.060004
21
0.001213
31
0.0
0
LINE
8
0
6
CONTINUOUS
10
0.060004
20
0.007408
30
0.0
11
0.062535
21
0.001713
31
0.0
0
LINE
8
0
6
CONTINUOUS
10
0.060004
20
0.009740
30
0.0
11
0.060004
21
0.007408
31
0.0
0
LINE
8
0
6
CONTINUOUS
10
0.062565
20
0.015502
30
0.0
11
0.060004
21
0.009740
31
0.0
0
LINE
8
0
6
CONTINUOUS
10
0.060004
20
0.022130
30
0.0
11
0.062535
21
0.016435
31
0.0
0
LINE
8
0
6
CONTINUOUS
10
0.062535
20
0.030158
30
0.0
11
0.060004
21
0.024463
31
0.0
0
LINE
8
0
6
CONTINUOUS
10
0.060004
20
0.024463
30
0.0
11
0.060004
21
0.022130
31
0.0
0
LINE
8
0
6
CONTINUOUS
10
0.075389
20
0.015502
30
0.0
11
0.077950
21
0.009740
31
0.0
0
LINE
8
0
6
CONTINUOUS
10
0.077950
20
0.022130
30
0.0
11
0.075419
21
0.016435
31
0.0
0
LINE
8
0
6
CONTINUOUS
10
0.077950
20
0.030658
30
0.0
11
0.075389
21
0.030658
31
0.0
0
LINE
8
0
6
CONTINUOUS
10
0.075419
20
0.030158
30
0.0
11
0.077950
21
0.024463
31
0.0
0
LINE
8
0
6
CONTINUOUS
10
0.077950
20
0.007408
30
0.0
11
0.075419
21
0.001713
31
0.0
0
LINE
8
0
6
CONTINUOUS
10
0.075389
20
0.001213
30
0.0
11
0.077934
21
0.001213
31
0.0
0
LINE
8
0
6
CONTINUOUS
10
0.075389
20
0.001213
30
0.0
11
0.075419
21
0.001713
31
0.0
0
LINE
8
0
6
CONTINUOUS
10
0.062565
20
0.001213
30
0.0
11
0.075389
21
0.001213
31
0.0
0
LINE
8
0
6
CONTINUOUS
10
0.062535
20
0.001713
30
0.0
11
0.062565
21
0.001213
31
0.0
0
LINE
8
0
6
CONTINUOUS
10
0.075419
20
0.001713
30
0.0
11
0.062535
21
0.001713
31
0.0
0
LINE
8
0
6
CONTINUOUS
10
0.075389
20
0.015502
30
0.0
11
0.075419
21
0.016435
31
0.0
0
LINE
8
0
6
CONTINUOUS
10
0.062565
20
0.015502
30
0.0
11
0.075389
21
0.015502
31
0.0
0
LINE
8
0
6
CONTINUOUS
10
0.062535
20
0.016435
30
0.0
11
0.062565
21
0.015502
31
0.0
0
LINE
8
0
6
CONTINUOUS
10
0.075419
20
0.016435
30
0.0
11
0.062535
21
0.016435
31
0.0
0
LINE
8
0
6
CONTINUOUS
10
0.075389
20
0.030658
30
0.0
11
0.062565
21
0.030658
31
0.0
0
LINE
8
0
6
CONTINUOUS
10
0.075419
20
0.030158
30
0.0
11
0.075389
21
0.030658
31
0.0
0
LINE
8
0
6
CONTINUOUS
10
0.062535
20
0.030158
30
0.0
11
0.075419
21
0.030158
31
0.0
0
LINE
8
0
6
CONTINUOUS
10
0.062565
20
0.030658
30
0.0
11
0.062535
21
0.030158
31
0.0
0
LINE
8
0
6
CONTINUOUS
10
0.077613
20
0.003018
30
0.0
11
0.077613
21
0.001930
31
0.0
0
LINE
8
0
6
CONTINUOUS
10
0.077613
20
0.001930
30
0.0
11
0.077613
21
0.001875
31
0.0
0
LINE
8
0
6
CONTINUOUS
10
0.077613
20
0.004770
30
0.0
11
0.077613
21
0.003018
31
0.0
0
LINE
8
0
6
CONTINUOUS
10
0.077613
20
0.007098
30
0.0
11
0.077613
21
0.006665
31
0.0
0
LINE
8
0
6
CONTINUOUS
10
0.077613
20
0.006639
30
0.0
11
0.077613
21
0.004770
31
0.0
0
LINE
8
0
6
CONTINUOUS
10
0.077613
20
0.009887
30
0.0
11
0.077613
21
0.007098
31
0.0
0
LINE
8
0
6
CONTINUOUS
10
0.077613
20
0.012995
30
0.0
11
0.077613
21
0.009887
31
0.0
0
LINE
8
0
6
CONTINUOUS
10
0.077613
20
0.016268
30
0.0
11
0.077613
21
0.012995
31
0.0
0
LINE
8
0
6
CONTINUOUS
10
0.077613
20
0.019540
30
0.0
11
0.077613
21
0.016268
31
0.0
0
LINE
8
0
6
CONTINUOUS
10
0.077613
20
0.022649
30
0.0
11
0.077613
21
0.019540
31
0.0
0
LINE
8
0
6
CONTINUOUS
10
0.077613
20
0.025437
30
0.0
11
0.077613
21
0.022649
31
0.0
0
LINE
8
0
6
CONTINUOUS
10
0.077613
20
0.027766
30
0.0
11
0.077613
21
0.025437
31
0.0
0
LINE
8
0
6
CONTINUOUS
10
0.077613
20
0.029518
30
0.0
11
0.077613
21
0.027766
31
0.0
0
LINE
8
0
6
CONTINUOUS
10
0.077613
20
0.030606
30
0.0
11
0.077613
21
0.029518
31
0.0
0
LINE
8
0
6
CONTINUOUS
10
0.077613
20
0.030974
30
0.0
11
0.077613
21
0.030606
31
0.0
0
LINE
8
0
6
CONTINUOUS
10
0.077838
20
0.031217
30
0.0
11
0.077613
21
0.030974
31
0.0
0
LINE
8
0
6
CONTINUOUS
10
0.077934
20
0.001213
30
0.0
11
0.095809
21
-0.018374
31
0.0
0
LINE
8
0
6
CONTINUOUS
10
0.095809
20
0.050910
30
0.0
11
0.077838
21
0.031217
31
0.0
0
LINE
8
0
6
CONTINUOUS
10
0.096123
20
-0.018727
30
0.0
11
0.096634
21
-0.019083
31
0.0
0
LINE
8
0
6
CONTINUOUS
10
0.096634
20
-0.019083
30
0.0
11
0.097231
21
-0.019232
31
0.0
0
LINE
8
0
6
CONTINUOUS
10
0.096634
20
0.051619
30
0.0
11
0.096123
21
0.051263
31
0.0
0
LINE
8
0
6
CONTINUOUS
10
0.097231
20
0.051768
30
0.0
11
0.096634
21
0.051619
31
0.0
0
LINE
8
0
6
CONTINUOUS
10
0.102500
20
-0.018342
30
0.0
11
0.102500
21
-0.015717
31
0.0
0
LINE
8
0
6
CONTINUOUS
10
0.102076
20
-0.019232
30
0.0
11
0.102500
21
-0.019232
31
0.0
0
LINE
8
0
6
CONTINUOUS
10
0.102500
20
-0.019232
30
0.0
11
0.102500
21
-0.018342
31
0.0
0
LINE
8
0
6
CONTINUOUS
10
0.102500
20
-0.015717
30
0.0
11
0.102500
21
-0.011487
31
0.0
0
LINE
8
0
6
CONTINUOUS
10
0.102500
20
-0.011487
30
0.0
11
0.102500
21
-0.005866
31
0.0
0
LINE
8
0
6
CONTINUOUS
10
0.102500
20
-0.005866
30
0.0
11
0.102500
21
0.000865
31
0.0
0
LINE
8
0
6
CONTINUOUS
10
0.102500
20
0.000865
30
0.0
11
0.102500
21
0.008368
31
0.0
0
LINE
8
0
6
CONTINUOUS
10
0.102500
20
0.008368
30
0.0
11
0.102500
21
0.016268
31
0.0
0
LINE
8
0
6
CONTINUOUS
10
0.102500
20
0.016268
30
0.0
11
0.102500
21
0.024167
31
0.0
0
LINE
8
0
6
CONTINUOUS
10
0.102500
20
0.024167
30
0.0
11
0.102500
21
0.031671
31
0.0
0
LINE
8
0
6
CONTINUOUS
10
0.102500
20
0.031671
30
0.0
11
0.102500
21
0.038402
31
0.0
0
LINE
8
0
6
CONTINUOUS
10
0.102500
20
0.038402
30
0.0
11
0.102500
21
0.044023
31
0.0
0
LINE
8
0
6
CONTINUOUS
10
0.102500
20
0.044023
30
0.0
11
0.102500
21
0.048252
31
0.0
0
LINE
8
0
6
CONTINUOUS
10
0.102500
20
0.048252
30
0.0
11
0.102500
21
0.050878
31
0.0
0
LINE
8
0
6
CONTINUOUS
10
0.102500
20
0.051768
30
0.0
11
0.102076
21
0.051768
31
0.0
0
LINE
8
0
6
CONTINUOUS
10
0.102500
20
0.050878
30
0.0
11
0.102500
21
0.051768
31
0.0
0
LINE
8
0
6
CONTINUOUS
10
0.097609
20
-0.019232
30
0.0
11
0.102076
21
-0.019232
31
0.0
0
LINE
8
0
6
CONTINUOUS
10
0.102076
20
0.051768
30
0.0
11
0.097609
21
0.051768
31
0.0
0
LINE
8
0
6
CONTINUOUS
10
0.097609
20
0.051768
30
0.0
11
0.097231
21
0.051768
31
0.0
0
LINE
8
0
6
CONTINUOUS
10
0.095809
20
-0.018374
30
0.0
11
0.096123
21
-0.018727
31
0.0
0
LINE
8
0
6
CONTINUOUS
10
0.096123
20
0.051263
30
0.0
11
0.095809
21
0.050910
31
0.0
0
LINE
8
0
6
CONTINUOUS
10
0.097231
20
-0.019232
30
0.0
11
0.097609
21
-0.019232
31
0.0
0
LINE
8
0
6
CONTINUOUS
10
0.013675
20
0.062345
30
0.0
11
0.013300
21
0.058768
31
0.0
0
LINE
8
0
6
CONTINUOUS
10
0.054306
20
0.058768
30
0.0
11
0.053930
21
0.062345
31
0.0
0
LINE
8
0
6
CONTINUOUS
10
0.054306
20
0.033267
30
0.0
11
0.054306
21
0.058768
31
0.0
0
LINE
8
0
6
CONTINUOUS
10
0.013300
20
0.058768
30
0.0
11
0.013300
21
0.033267
31
0.0
0
LINE
8
0
6
CONTINUOUS
10
0.033814
20
0.062264
30
0.0
11
0.039508
21
0.062264
31
0.0
0
LINE
8
0
6
CONTINUOUS
10
0.049410
20
0.062264
30
0.0
11
0.052919
21
0.062264
31
0.0
0
LINE
8
0
6
CONTINUOUS
10
0.044836
20
0.062264
30
0.0
11
0.049410
21
0.062264
31
0.0
0
LINE
8
0
6
CONTINUOUS
10
0.039508
20
0.062264
30
0.0
11
0.044836
21
0.062264
31
0.0
0
LINE
8
0
6
CONTINUOUS
10
0.052919
20
0.062264
30
0.0
11
0.055124
21
0.062264
31
0.0
0
LINE
8
0
6
CONTINUOUS
10
0.055874
20
0.062264
30
0.0
11
0.055874
21
0.062814
31
0.0
0
LINE
8
0
6
CONTINUOUS
10
0.055124
20
0.062264
30
0.0
11
0.055874
21
0.062264
31
0.0
0
LINE
8
0
6
CONTINUOUS
10
0.028093
20
0.062264
30
0.0
11
0.033814
21
0.062264
31
0.0
0
LINE
8
0
6
CONTINUOUS
10
0.022770
20
0.062264
30
0.0
11
0.028093
21
0.062264
31
0.0
0
LINE
8
0
6
CONTINUOUS
10
0.018200
20
0.062264
30
0.0
11
0.022770
21
0.062264
31
0.0
0
LINE
8
0
6
CONTINUOUS
10
0.014692
20
0.062264
30
0.0
11
0.018200
21
0.062264
31
0.0
0
LINE
8
0
6
CONTINUOUS
10
0.012488
20
0.062264
30
0.0
11
0.014692
21
0.062264
31
0.0
0
LINE
8
0
6
CONTINUOUS
10
0.011736
20
0.062264
30
0.0
11
0.012488
21
0.062264
31
0.0
0
LINE
8
0
6
CONTINUOUS
10
0.011736
20
0.062814
30
0.0
11
0.011736
21
0.062264
31
0.0
0
LINE
8
0
6
CONTINUOUS
10
0.011736
20
0.075198
30
0.0
11
0.011736
21
0.062814
31
0.0
0
LINE
8
0
6
CONTINUOUS
10
0.018105
20
0.098268
30
0.0
11
0.002406
21
0.098268
31
0.0
0
LINE
8
0
6
CONTINUOUS
10
-0.035955
20
0.098268
30
0.0
11
-0.040096
21
0.098268
31
0.0
0
LINE
8
0
6
CONTINUOUS
10
0.002406
20
0.098268
30
0.0
11
-0.010026
21
0.098268
31
0.0
0
LINE
8
0
6
CONTINUOUS
10
-0.043575
20
0.098268
30
0.0
11
-0.044137
21
0.098268
31
0.0
0
LINE
8
0
6
CONTINUOUS
10
-0.010026
20
0.098268
30
0.0
11
-0.035955
21
0.098268
31
0.0
0
LINE
8
0
6
CONTINUOUS
10
0.033805
20
0.098268
30
0.0
11
0.018105
21
0.098268
31
0.0
0
LINE
8
0
6
CONTINUOUS
10
-0.040096
20
0.098268
30
0.0
11
-0.043062
21
0.098268
31
0.0
0
LINE
8
0
6
CONTINUOUS
10
-0.040096
20
0.097717
30
0.0
11
-0.040096
21
0.098268
31
0.0
0
LINE
8
0
6
CONTINUOUS
10
-0.044137
20
0.098268
30
0.0
11
-0.044137
21
0.097717
31
0.0
0
LINE
8
0
6
CONTINUOUS
10
-0.043062
20
0.098268
30
0.0
11
-0.044137
21
0.098268
31
0.0
0
LINE
8
0
6
CONTINUOUS
10
-0.043062
20
0.097717
30
0.0
11
-0.043062
21
0.098268
31
0.0
0
LINE
8
0
6
CONTINUOUS
10
0.039517
20
0.098268
30
0.0
11
0.033805
21
0.098268
31
0.0
0
LINE
8
0
6
CONTINUOUS
10
0.044839
20
0.098268
30
0.0
11
0.039517
21
0.098268
31
0.0
0
LINE
8
0
6
CONTINUOUS
10
0.049410
20
0.098268
30
0.0
11
0.044839
21
0.098268
31
0.0
0
LINE
8
0
6
CONTINUOUS
10
0.052917
20
0.098268
30
0.0
11
0.049410
21
0.098268
31
0.0
0
LINE
8
0
6
CONTINUOUS
10
0.055122
20
0.098268
30
0.0
11
0.052917
21
0.098268
31
0.0
0
LINE
8
0
6
CONTINUOUS
10
0.055874
20
0.098268
30
0.0
11
0.055122
21
0.098268
31
0.0
0
LINE
8
0
6
CONTINUOUS
10
0.055874
20
0.097717
30
0.0
11
0.055874
21
0.098268
31
0.0
0
LINE
8
0
6
CONTINUOUS
10
0.055874
20
0.093124
30
0.0
11
0.055874
21
0.097717
31
0.0
0
LINE
8
0
6
CONTINUOUS
10
-0.035955
20
0.098268
30
0.0
11
-0.043575
21
0.098268
31
0.0
0
LINE
8
0
6
CONTINUOUS
10
-0.044137
20
0.097717
30
0.0
11
-0.044137
21
0.096449
31
0.0
0
LINE
8
0
6
CONTINUOUS
10
-0.039587
20
0.095151
30
0.0
11
-0.040096
21
0.097717
31
0.0
0
LINE
8
0
6
CONTINUOUS
10
0.007256
20
0.085971
30
0.0
11
0.009690
21
0.083174
31
0.0
0
LINE
8
0
6
CONTINUOUS
10
0.055874
20
0.085039
30
0.0
11
0.055874
21
0.087692
31
0.0
0
LINE
8
0
6
CONTINUOUS
10
-0.039587
20
0.095151
30
0.0
11
-0.042571
21
0.095940
31
0.0
0
LINE
8
0
6
CONTINUOUS
10
-0.041763
20
0.094980
30
0.0
11
-0.038913
21
0.093982
31
0.0
0
LINE
8
0
6
CONTINUOUS
10
0.005967
20
0.091417
30
0.0
11
0.019994
21
0.091221
31
0.0
0
LINE
8
0
6
CONTINUOUS
10
0.055874
20
0.079733
30
0.0
11
0.055874
21
0.082386
31
0.0
0
LINE
8
0
6
CONTINUOUS
10
0.055874
20
0.082386
30
0.0
11
0.055874
21
0.085039
31
0.0
0
LINE
8
0
6
CONTINUOUS
10
0.055874
20
0.087692
30
0.0
11
0.055874
21
0.089682
31
0.0
0
LINE
8
0
6
CONTINUOUS
10
0.055874
20
0.089682
30
0.0
11
0.055874
21
0.090958
31
0.0
0
LINE
8
0
6
CONTINUOUS
10
0.055874
20
0.090958
30
0.0
11
0.055874
21
0.093124
31
0.0
0
LINE
8
0
6
CONTINUOUS
10
-0.032104
20
0.094339
30
0.0
11
-0.039587
21
0.095151
31
0.0
0
LINE
8
0
6
CONTINUOUS
10
-0.044137
20
0.096449
30
0.0
11
-0.042671
21
0.095175
31
0.0
0
LINE
8
0
6
CONTINUOUS
10
-0.042671
20
0.095175
30
0.0
11
-0.039709
21
0.093675
31
0.0
0
LINE
8
0
6
CONTINUOUS
10
-0.039709
20
0.093675
30
0.0
11
-0.034626
21
0.092385
31
0.0
0
LINE
8
0
6
CONTINUOUS
10
-0.012000
20
0.093748
30
0.0
11
0.005967
21
0.091417
31
0.0
0
LINE
8
0
6
CONTINUOUS
10
-0.010026
20
0.098268
30
0.0
11
-0.035955
21
0.098268
31
0.0
0
LINE
8
0
6
CONTINUOUS
10
-0.008976
20
0.089574
30
0.0
11
0.003940
21
0.087692
31
0.0
0
LINE
8
0
6
CONTINUOUS
10
0.003181
20
0.089636
30
0.0
11
0.018859
21
0.087692
31
0.0
0
LINE
8
0
6
CONTINUOUS
10
0.012639
20
0.089589
30
0.0
11
0.026056
21
0.087692
31
0.0
0
LINE
8
0
6
CONTINUOUS
10
0.003940
20
0.087692
30
0.0
11
0.007256
21
0.085971
31
0.0
0
LINE
8
0
6
CONTINUOUS
10
0.009690
20
0.083174
30
0.0
11
0.011139
21
0.079733
31
0.0
0
LINE
8
0
6
CONTINUOUS
10
0.008193
20
0.085945
30
0.0
11
0.010935
21
0.085862
31
0.0
0
LINE
8
0
6
CONTINUOUS
10
0.007937
20
0.087692
30
0.0
11
0.004956
21
0.087692
31
0.0
0
LINE
8
0
6
CONTINUOUS
10
0.010935
20
0.085862
30
0.0
11
0.015270
21
0.085707
31
0.0
0
LINE
8
0
6
CONTINUOUS
10
0.012679
20
0.087692
30
0.0
11
0.007937
21
0.087692
31
0.0
0
LINE
8
0
6
CONTINUOUS
10
0.015270
20
0.085707
30
0.0
11
0.020843
21
0.085467
31
0.0
0
LINE
8
0
6
CONTINUOUS
10
0.018859
20
0.087692
30
0.0
11
0.012679
21
0.087692
31
0.0
0
LINE
8
0
6
CONTINUOUS
10
0.026056
20
0.087692
30
0.0
11
0.018859
21
0.087692
31
0.0
0
LINE
8
0
6
CONTINUOUS
10
0.011139
20
0.079733
30
0.0
11
0.011736
21
0.075198
31
0.0
0
LINE
8
0
6
CONTINUOUS
10
0.003181
20
0.089636
30
0.0
11
0.012639
21
0.089589
31
0.0
0
LINE
8
0
6
CONTINUOUS
10
-0.010841
20
0.091600
30
0.0
11
0.012639
21
0.089589
31
0.0
0
LINE
8
0
6
CONTINUOUS
10
-0.025210
20
0.091198
30
0.0
11
-0.008976
21
0.089574
31
0.0
0
LINE
8
0
6
CONTINUOUS
10
-0.034702
20
0.092385
30
0.0
11
-0.025210
21
0.091198
31
0.0
0
LINE
8
0
6
CONTINUOUS
10
-0.012000
20
0.093748
30
0.0
11
-0.032104
21
0.094339
31
0.0
0
LINE
8
0
6
CONTINUOUS
10
-0.030838
20
0.092831
30
0.0
11
-0.010841
21
0.091600
31
0.0
0
LINE
8
0
6
CONTINUOUS
10
-0.042571
20
0.095940
30
0.0
11
-0.044137
21
0.096449
31
0.0
0
LINE
8
0
6
CONTINUOUS
10
-0.044137
20
0.096449
30
0.0
11
-0.042541
21
0.095143
31
0.0
0
LINE
8
0
6
CONTINUOUS
10
0.055874
20
0.075198
30
0.0
11
0.055874
21
0.079733
31
0.0
0
LINE
8
0
6
CONTINUOUS
10
0.055874
20
0.062814
30
0.0
11
0.055874
21
0.075198
31
0.0
0
LINE
8
0
6
CONTINUOUS
10
-0.015386
20
-0.000387
30
0.0
11
-0.015386
21
0.001306
31
0.0
0
LINE
8
0
6
CONTINUOUS
10
-0.037386
20
0.002586
30
0.0
11
-0.037386
21
-0.000387
31
0.0
0
LINE
8
0
6
CONTINUOUS
10
-0.019920
20
-0.088885
30
0.0
11
-0.019172
21
-0.089943
31
0.0
0
LINE
8
0
6
CONTINUOUS
10
-0.019172
20
-0.089943
30
0.0
11
-0.018915
21
-0.091120
31
0.0
0
LINE
8
0
6
CONTINUOUS
10
-0.018915
20
-0.091120
30
0.0
11
-0.018912
21
-0.030387
31
0.0
0
LINE
8
0
6
CONTINUOUS
10
-0.022657
20
-0.087142
30
0.0
11
-0.021109
21
-0.087935
31
0.0
0
LINE
8
0
6
CONTINUOUS
10
-0.028327
20
-0.086614
30
0.0
11
-0.026393
21
-0.086424
31
0.0
0
LINE
8
0
6
CONTINUOUS
10
-0.026393
20
-0.086424
30
0.0
11
-0.024459
21
-0.086609
31
0.0
0
LINE
8
0
6
CONTINUOUS
10
-0.033605
20
-0.089959
30
0.0
11
-0.032861
21
-0.088899
31
0.0
0
LINE
8
0
6
CONTINUOUS
10
-0.030128
20
-0.087151
30
0.0
11
-0.028327
21
-0.086614
31
0.0
0
LINE
8
0
6
CONTINUOUS
10
-0.021109
20
-0.087935
30
0.0
11
-0.019920
21
-0.088885
31
0.0
0
LINE
8
0
6
CONTINUOUS
10
-0.032861
20
-0.088899
30
0.0
11
-0.031675
21
-0.087946
31
0.0
0
LINE
8
0
6
CONTINUOUS
10
-0.033857
20
-0.091137
30
0.0
11
-0.033605
21
-0.089959
31
0.0
0
LINE
8
0
6
CONTINUOUS
10
-0.033860
20
-0.030387
30
0.0
11
-0.033857
21
-0.091137
31
0.0
0
LINE
8
0
6
CONTINUOUS
10
-0.031675
20
-0.087946
30
0.0
11
-0.030128
21
-0.087151
31
0.0
0
LINE
8
0
6
CONTINUOUS
10
-0.024459
20
-0.086609
30
0.0
11
-0.022657
21
-0.087142
31
0.0
0
LINE
8
0
6
CONTINUOUS
10
-0.016386
20
-0.000387
30
0.0
11
-0.018286
21
-0.000387
31
0.0
0
LINE
8
0
6
CONTINUOUS
10
-0.018286
20
-0.000387
30
0.0
11
-0.020686
21
-0.000387
31
0.0
0
LINE
8
0
6
CONTINUOUS
10
-0.036886
20
-0.030387
30
0.0
11
-0.036486
21
-0.030387
31
0.0
0
LINE
8
0
6
CONTINUOUS
10
-0.036904
20
-0.029850
30
0.0
11
-0.036886
21
-0.030387
31
0.0
0
LINE
8
0
6
CONTINUOUS
10
-0.036486
20
-0.030387
30
0.0
11
-0.035486
21
-0.030387
31
0.0
0
LINE
8
0
6
CONTINUOUS
10
-0.014886
20
-0.000387
30
0.0
11
-0.015286
21
-0.000387
31
0.0
0
LINE
8
0
6
CONTINUOUS
10
-0.014895
20
-0.000667
30
0.0
11
-0.014886
21
-0.000387
31
0.0
0
LINE
8
0
6
CONTINUOUS
10
-0.020686
20
-0.000387
30
0.0
11
-0.023386
21
-0.000387
31
0.0
0
LINE
8
0
6
CONTINUOUS
10
-0.023386
20
-0.000387
30
0.0
11
-0.026386
21
-0.000387
31
0.0
0
LINE
8
0
6
CONTINUOUS
10
-0.031586
20
-0.030387
30
0.0
11
-0.029086
21
-0.030387
31
0.0
0
LINE
8
0
6
CONTINUOUS
10
-0.033786
20
-0.030387
30
0.0
11
-0.031586
21
-0.030387
31
0.0
0
LINE
8
0
6
CONTINUOUS
10
-0.035486
20
-0.030387
30
0.0
11
-0.033786
21
-0.030387
31
0.0
0
LINE
8
0
6
CONTINUOUS
10
-0.015286
20
-0.000387
30
0.0
11
-0.016386
21
-0.000387
31
0.0
0
LINE
8
0
6
CONTINUOUS
10
-0.029086
20
-0.030387
30
0.0
11
-0.026386
21
-0.030387
31
0.0
0
LINE
8
0
6
CONTINUOUS
10
-0.018986
20
-0.030387
30
0.0
11
-0.017286
21
-0.030387
31
0.0
0
LINE
8
0
6
CONTINUOUS
10
-0.021186
20
-0.030387
30
0.0
11
-0.018986
21
-0.030387
31
0.0
0
LINE
8
0
6
CONTINUOUS
10
-0.037876
20
-0.000667
30
0.0
11
-0.036904
21
-0.029850
31
0.0
0
LINE
8
0
6
CONTINUOUS
10
-0.015886
20
-0.030387
30
0.0
11
-0.015868
21
-0.029850
31
0.0
0
LINE
8
0
6
CONTINUOUS
10
-0.016286
20
-0.030387
30
0.0
11
-0.015886
21
-0.030387
31
0.0
0
LINE
8
0
6
CONTINUOUS
10
-0.023686
20
-0.030387
30
0.0
11
-0.021186
21
-0.030387
31
0.0
0
LINE
8
0
6
CONTINUOUS
10
-0.026386
20
-0.030387
30
0.0
11
-0.023686
21
-0.030387
31
0.0
0
LINE
8
0
6
CONTINUOUS
10
-0.017286
20
-0.030387
30
0.0
11
-0.016286
21
-0.030387
31
0.0
0
LINE
8
0
6
CONTINUOUS
10
-0.015868
20
-0.029850
30
0.0
11
-0.014895
21
-0.000667
31
0.0
0
LINE
8
0
6
CONTINUOUS
10
-0.037486
20
-0.000387
30
0.0
11
-0.037886
21
-0.000387
31
0.0
0
LINE
8
0
6
CONTINUOUS
10
-0.037886
20
-0.000387
30
0.0
11
-0.037876
21
-0.000667
31
0.0
0
LINE
8
0
6
CONTINUOUS
10
-0.036386
20
-0.000387
30
0.0
11
-0.037486
21
-0.000387
31
0.0
0
LINE
8
0
6
CONTINUOUS
10
-0.029386
20
-0.000387
30
0.0
11
-0.032086
21
-0.000387
31
0.0
0
LINE
8
0
6
CONTINUOUS
10
-0.032086
20
-0.000387
30
0.0
11
-0.034486
21
-0.000387
31
0.0
0
LINE
8
0
6
CONTINUOUS
10
-0.034486
20
-0.000387
30
0.0
11
-0.036386
21
-0.000387
31
0.0
0
LINE
8
0
6
CONTINUOUS
10
-0.026386
20
-0.000387
30
0.0
11
-0.029386
21
-0.000387
31
0.0
0
LINE
8
0
6
CONTINUOUS
10
-0.031586
20
0.033968
30
0.0
11
-0.029866
21
0.033968
31
0.0
0
LINE
8
0
6
CONTINUOUS
10
-0.019800
20
0.033968
30
0.0
11
-0.019800
21
0.041608
31
0.0
0
LINE
8
0
6
CONTINUOUS
10
-0.020414
20
0.033968
30
0.0
11
-0.019800
21
0.033968
31
0.0
0
LINE
8
0
6
CONTINUOUS
10
-0.027380
20
0.033968
30
0.0
11
-0.024621
21
0.033968
31
0.0
0
LINE
8
0
6
CONTINUOUS
10
-0.020414
20
0.033968
30
0.0
11
-0.020414
21
0.041608
31
0.0
0
LINE
8
0
6
CONTINUOUS
10
-0.022135
20
0.033968
30
0.0
11
-0.020414
21
0.033968
31
0.0
0
LINE
8
0
6
CONTINUOUS
10
-0.032200
20
0.041608
30
0.0
11
-0.032200
21
0.033968
31
0.0
0
LINE
8
0
6
CONTINUOUS
10
-0.031586
20
0.033968
30
0.0
11
-0.031586
21
0.041608
31
0.0
0
LINE
8
0
6
CONTINUOUS
10
-0.032200
20
0.033968
30
0.0
11
-0.031586
21
0.033968
31
0.0
0
LINE
8
0
6
CONTINUOUS
10
-0.024621
20
0.041608
30
0.0
11
-0.024621
21
0.033968
31
0.0
0
LINE
8
0
6
CONTINUOUS
10
-0.022135
20
0.033968
30
0.0
11
-0.022135
21
0.041608
31
0.0
0
LINE
8
0
6
CONTINUOUS
10
-0.024621
20
0.033968
30
0.0
11
-0.022135
21
0.033968
31
0.0
0
LINE
8
0
6
CONTINUOUS
10
-0.029866
20
0.041608
30
0.0
11
-0.029866
21
0.033968
31
0.0
0
LINE
8
0
6
CONTINUOUS
10
-0.027380
20
0.033968
30
0.0
11
-0.027380
21
0.041608
31
0.0
0
LINE
8
0
6
CONTINUOUS
10
-0.029866
20
0.033968
30
0.0
11
-0.027380
21
0.033968
31
0.0
0
LINE
8
0
6
CONTINUOUS
10
-0.030808
20
0.051312
30
0.0
11
-0.030808
21
0.041853
31
0.0
0
LINE
8
0
6
CONTINUOUS
10
-0.033711
20
0.051991
30
0.0
11
-0.033711
21
0.041853
31
0.0
0
LINE
8
0
6
CONTINUOUS
10
-0.032947
20
0.041853
30
0.0
11
-0.032947
21
0.051312
31
0.0
0
LINE
8
0
6
CONTINUOUS
10
-0.018289
20
0.041853
30
0.0
11
-0.018289
21
0.051991
31
0.0
0
LINE
8
0
6
CONTINUOUS
10
-0.021193
20
0.051312
30
0.0
11
-0.021193
21
0.041853
31
0.0
0
LINE
8
0
6
CONTINUOUS
10
-0.019053
20
0.041853
30
0.0
11
-0.019053
21
0.051312
31
0.0
0
LINE
8
0
6
CONTINUOUS
10
-0.027716
20
0.051312
30
0.0
11
-0.027716
21
0.041853
31
0.0
0
LINE
8
0
6
CONTINUOUS
10
-0.024285
20
0.041853
30
0.0
11
-0.024285
21
0.051312
31
0.0
0
LINE
8
0
6
CONTINUOUS
10
-0.020680
20
0.058023
30
0.0
11
-0.024101
21
0.058023
31
0.0
0
LINE
8
0
6
CONTINUOUS
10
-0.034533
20
0.058023
30
0.0
11
-0.034533
21
0.057352
31
0.0
0
LINE
8
0
6
CONTINUOUS
10
-0.033688
20
0.058023
30
0.0
11
-0.034533
21
0.058023
31
0.0
0
LINE
8
0
6
CONTINUOUS
10
-0.017467
20
0.058023
30
0.0
11
-0.018312
21
0.058023
31
0.0
0
LINE
8
0
6
CONTINUOUS
10
-0.017467
20
0.057352
30
0.0
11
-0.017467
21
0.058023
31
0.0
0
LINE
8
0
6
CONTINUOUS
10
-0.020680
20
0.058023
30
0.0
11
-0.020680
21
0.057352
31
0.0
0
LINE
8
0
6
CONTINUOUS
10
-0.018312
20
0.058023
30
0.0
11
-0.020680
21
0.058023
31
0.0
0
LINE
8
0
6
CONTINUOUS
10
-0.018312
20
0.057352
30
0.0
11
-0.018312
21
0.058023
31
0.0
0
LINE
8
0
6
CONTINUOUS
10
-0.024101
20
0.058023
30
0.0
11
-0.027899
21
0.058023
31
0.0
0
LINE
8
0
6
CONTINUOUS
10
-0.024101
20
0.057352
30
0.0
11
-0.024101
21
0.058023
31
0.0
0
LINE
8
0
6
CONTINUOUS
10
-0.033688
20
0.058023
30
0.0
11
-0.033688
21
0.057352
31
0.0
0
LINE
8
0
6
CONTINUOUS
10
-0.031321
20
0.058023
30
0.0
11
-0.033688
21
0.058023
31
0.0
0
LINE
8
0
6
CONTINUOUS
10
-0.031321
20
0.058023
30
0.0
11
-0.031321
21
0.057352
31
0.0
0
LINE
8
0
6
CONTINUOUS
10
-0.027899
20
0.058023
30
0.0
11
-0.031321
21
0.058023
31
0.0
0
LINE
8
0
6
CONTINUOUS
10
-0.027899
20
0.057352
30
0.0
11
-0.027899
21
0.058023
31
0.0
0
LINE
8
0
6
CONTINUOUS
10
-0.034533
20
0.057352
30
0.0
11
-0.034533
21
0.051614
31
0.0
0
LINE
8
0
6
CONTINUOUS
10
-0.017467
20
0.051614
30
0.0
11
-0.017467
21
0.057352
31
0.0
0
LINE
8
0
6
CONTINUOUS
10
-0.020680
20
0.057352
30
0.0
11
-0.020680
21
0.051614
31
0.0
0
LINE
8
0
6
CONTINUOUS
10
-0.018312
20
0.051614
30
0.0
11
-0.018312
21
0.057352
31
0.0
0
LINE
8
0
6
CONTINUOUS
10
-0.024101
20
0.051614
30
0.0
11
-0.024101
21
0.057352
31
0.0
0
LINE
8
0
6
CONTINUOUS
10
-0.033688
20
0.057352
30
0.0
11
-0.033688
21
0.051614
31
0.0
0
LINE
8
0
6
CONTINUOUS
10
-0.031321
20
0.057352
30
0.0
11
-0.031321
21
0.051614
31
0.0
0
LINE
8
0
6
CONTINUOUS
10
-0.027899
20
0.051614
30
0.0
11
-0.027899
21
0.057352
31
0.0
0
LINE
8
0
6
CONTINUOUS
10
-0.032947
20
0.041608
30
0.0
11
-0.030808
21
0.041608
31
0.0
0
LINE
8
0
6
CONTINUOUS
10
-0.030808
20
0.041608
30
0.0
11
-0.027716
21
0.041608
31
0.0
0
LINE
8
0
6
CONTINUOUS
10
-0.030808
20
0.041853
30
0.0
11
-0.030808
21
0.041608
31
0.0
0
LINE
8
0
6
CONTINUOUS
10
-0.024285
20
0.041608
30
0.0
11
-0.021193
21
0.041608
31
0.0
0
LINE
8
0
6
CONTINUOUS
10
-0.033711
20
0.041608
30
0.0
11
-0.032947
21
0.041608
31
0.0
0
LINE
8
0
6
CONTINUOUS
10
-0.033711
20
0.041853
30
0.0
11
-0.033711
21
0.041608
31
0.0
0
LINE
8
0
6
CONTINUOUS
10
-0.032947
20
0.041608
30
0.0
11
-0.032947
21
0.041853
31
0.0
0
LINE
8
0
6
CONTINUOUS
10
-0.019053
20
0.041608
30
0.0
11
-0.018289
21
0.041608
31
0.0
0
LINE
8
0
6
CONTINUOUS
10
-0.018289
20
0.041608
30
0.0
11
-0.018289
21
0.041853
31
0.0
0
LINE
8
0
6
CONTINUOUS
10
-0.021193
20
0.041608
30
0.0
11
-0.019053
21
0.041608
31
0.0
0
LINE
8
0
6
CONTINUOUS
10
-0.021193
20
0.041853
30
0.0
11
-0.021193
21
0.041608
31
0.0
0
LINE
8
0
6
CONTINUOUS
10
-0.019053
20
0.041608
30
0.0
11
-0.019053
21
0.041853
31
0.0
0
LINE
8
0
6
CONTINUOUS
10
-0.027716
20
0.041608
30
0.0
11
-0.024285
21
0.041608
31
0.0
0
LINE
8
0
6
CONTINUOUS
10
-0.027716
20
0.041853
30
0.0
11
-0.027716
21
0.041608
31
0.0
0
LINE
8
0
6
CONTINUOUS
10
-0.024285
20
0.041608
30
0.0
11
-0.024285
21
0.041853
31
0.0
0
LINE
8
0
6
CONTINUOUS
10
-0.024101
20
0.051312
30
0.0
11
-0.020680
21
0.051312
31
0.0
0
LINE
8
0
6
CONTINUOUS
10
-0.034533
20
0.051312
30
0.0
11
-0.033688
21
0.051312
31
0.0
0
LINE
8
0
6
CONTINUOUS
10
-0.034533
20
0.051614
30
0.0
11
-0.034533
21
0.051312
31
0.0
0
LINE
8
0
6
CONTINUOUS
10
-0.018312
20
0.051312
30
0.0
11
-0.017467
21
0.051312
31
0.0
0
LINE
8
0
6
CONTINUOUS
10
-0.017467
20
0.051312
30
0.0
11
-0.017467
21
0.051614
31
0.0
0
LINE
8
0
6
CONTINUOUS
10
-0.020680
20
0.051312
30
0.0
11
-0.018312
21
0.051312
31
0.0
0
LINE
8
0
6
CONTINUOUS
10
-0.020680
20
0.051614
30
0.0
11
-0.020680
21
0.051312
31
0.0
0
LINE
8
0
6
CONTINUOUS
10
-0.018312
20
0.051312
30
0.0
11
-0.018312
21
0.051614
31
0.0
0
LINE
8
0
6
CONTINUOUS
10
-0.027899
20
0.051312
30
0.0
11
-0.024101
21
0.051312
31
0.0
0
LINE
8
0
6
CONTINUOUS
10
-0.024101
20
0.051312
30
0.0
11
-0.024101
21
0.051614
31
0.0
0
LINE
8
0
6
CONTINUOUS
10
-0.033688
20
0.051312
30
0.0
11
-0.031321
21
0.051312
31
0.0
0
LINE
8
0
6
CONTINUOUS
10
-0.033688
20
0.051614
30
0.0
11
-0.033688
21
0.051312
31
0.0
0
LINE
8
0
6
CONTINUOUS
10
-0.031321
20
0.051312
30
0.0
11
-0.027899
21
0.051312
31
0.0
0
LINE
8
0
6
CONTINUOUS
10
-0.031321
20
0.051614
30
0.0
11
-0.031321
21
0.051312
31
0.0
0
LINE
8
0
6
CONTINUOUS
10
-0.027899
20
0.051312
30
0.0
11
-0.027899
21
0.051614
31
0.0
0
LINE
8
0
6
CONTINUOUS
10
0.033712
20
0.011381
30
0.0
11
0.033712
21
0.006511
31
0.0
0
LINE
8
0
6
CONTINUOUS
10
0.059000
20
0.006511
30
0.0
11
0.059000
21
0.011381
31
0.0
0
LINE
8
0
6
CONTINUOUS
10
0.033712
20
-0.000733
30
0.0
11
0.035513
21
-0.000733
31
0.0
0
LINE
8
0
6
CONTINUOUS
10
0.033712
20
0.000143
30
0.0
11
0.033712
21
-0.000733
31
0.0
0
LINE
8
0
6
CONTINUOUS
10
0.033712
20
0.030115
30
0.0
11
0.033712
21
0.026464
31
0.0
0
LINE
8
0
6
CONTINUOUS
10
0.033712
20
0.033267
30
0.0
11
0.033712
21
0.032459
31
0.0
0
LINE
8
0
6
CONTINUOUS
10
0.035513
20
0.033267
30
0.0
11
0.033712
21
0.033267
31
0.0
0
LINE
8
0
6
CONTINUOUS
10
0.033712
20
0.016722
30
0.0
11
0.033712
21
0.011381
31
0.0
0
LINE
8
0
6
CONTINUOUS
10
0.033712
20
0.002641
30
0.0
11
0.033712
21
0.000143
31
0.0
0
LINE
8
0
6
CONTINUOUS
10
0.033712
20
0.032459
30
0.0
11
0.033712
21
0.030115
31
0.0
0
LINE
8
0
6
CONTINUOUS
10
0.033712
20
0.026464
30
0.0
11
0.033712
21
0.021843
31
0.0
0
LINE
8
0
6
CONTINUOUS
10
0.033712
20
0.021843
30
0.0
11
0.033712
21
0.016722
31
0.0
0
LINE
8
0
6
CONTINUOUS
10
0.033712
20
0.006511
30
0.0
11
0.033712
21
0.002641
31
0.0
0
LINE
8
0
6
CONTINUOUS
10
0.059000
20
-0.000733
30
0.0
11
0.059000
21
0.000143
31
0.0
0
LINE
8
0
6
CONTINUOUS
10
0.057198
20
-0.000733
30
0.0
11
0.059000
21
-0.000733
31
0.0
0
LINE
8
0
6
CONTINUOUS
10
0.059000
20
0.026464
30
0.0
11
0.059000
21
0.030115
31
0.0
0
LINE
8
0
6
CONTINUOUS
10
0.059000
20
0.033267
30
0.0
11
0.057198
21
0.033267
31
0.0
0
LINE
8
0
6
CONTINUOUS
10
0.059000
20
0.032459
30
0.0
11
0.059000
21
0.033267
31
0.0
0
LINE
8
0
6
CONTINUOUS
10
0.059000
20
0.011381
30
0.0
11
0.059000
21
0.016722
31
0.0
0
LINE
8
0
6
CONTINUOUS
10
0.059000
20
0.000143
30
0.0
11
0.059000
21
0.002641
31
0.0
0
LINE
8
0
6
CONTINUOUS
10
0.059000
20
0.030115
30
0.0
11
0.059000
21
0.032459
31
0.0
0
LINE
8
0
6
CONTINUOUS
10
0.059000
20
0.021843
30
0.0
11
0.059000
21
0.026464
31
0.0
0
LINE
8
0
6
CONTINUOUS
10
0.059000
20
0.016722
30
0.0
11
0.059000
21
0.021843
31
0.0
0
LINE
8
0
6
CONTINUOUS
10
0.059000
20
0.002641
30
0.0
11
0.059000
21
0.006511
31
0.0
0
LINE
8
0
6
CONTINUOUS
10
0.033061
20
-0.000193
30
0.0
11
0.033712
21
-0.000733
31
0.0
0
LINE
8
0
6
CONTINUOUS
10
0.033061
20
-0.000193
30
0.0
11
0.033539
21
0.000466
31
0.0
0
LINE
8
0
6
CONTINUOUS
10
0.033061
20
-0.000193
30
0.0
11
0.032711
21
0.003069
31
0.0
0
LINE
8
0
6
CONTINUOUS
10
0.033539
20
0.000466
30
0.0
11
0.033712
21
-0.000733
31
0.0
0
LINE
8
0
6
CONTINUOUS
10
0.026673
20
-0.000733
30
0.0
11
0.030202
21
-0.000567
31
0.0
0
LINE
8
0
6
CONTINUOUS
10
0.028737
20
0.033267
30
0.0
11
0.026036
21
0.033267
31
0.0
0
LINE
8
0
6
CONTINUOUS
10
0.032711
20
0.003069
30
0.0
11
0.031195
21
0.009371
31
0.0
0
LINE
8
0
6
CONTINUOUS
10
0.028833
20
0.004890
30
0.0
11
0.032711
21
0.003069
31
0.0
0
LINE
8
0
6
CONTINUOUS
10
-0.102500
20
0.031567
30
0.0
11
-0.098500
21
0.026083
31
0.0
0
LINE
8
0
6
CONTINUOUS
10
-0.090787
20
0.021426
30
0.0
11
-0.086414
21
0.017870
31
0.0
0
LINE
8
0
6
CONTINUOUS
10
-0.095989
20
0.026305
30
0.0
11
-0.090787
21
0.021426
31
0.0
0
LINE
8
0
6
CONTINUOUS
10
-0.100039
20
0.031567
30
0.0
11
-0.095989
21
0.026305
31
0.0
0
LINE
8
0
6
CONTINUOUS
10
-0.091852
20
0.026289
30
0.0
11
-0.086565
21
0.021269
31
0.0
0
LINE
8
0
6
CONTINUOUS
10
-0.096702
20
0.031567
30
0.0
11
-0.091852
21
0.026289
31
0.0
0
LINE
8
0
6
CONTINUOUS
10
0.029657
20
0.016863
30
0.0
11
0.031195
21
0.009371
31
0.0
0
LINE
8
0
6
CONTINUOUS
10
0.028877
20
0.024370
30
0.0
11
0.029657
21
0.016863
31
0.0
0
LINE
8
0
6
CONTINUOUS
10
0.031467
20
0.015300
30
0.0
11
0.032563
21
0.007259
31
0.0
0
LINE
8
0
6
CONTINUOUS
10
0.030843
20
0.023447
30
0.0
11
0.031467
21
0.015300
31
0.0
0
LINE
8
0
6
CONTINUOUS
10
0.031008
20
0.031567
30
0.0
11
0.030843
21
0.023447
31
0.0
0
LINE
8
0
6
CONTINUOUS
10
-0.058456
20
0.003812
30
0.0
11
-0.033640
21
0.003180
31
0.0
0
LINE
8
0
6
CONTINUOUS
10
-0.019564
20
0.002822
30
0.0
11
0.019629
21
0.001824
31
0.0
0
LINE
8
0
6
CONTINUOUS
10
-0.058456
20
0.003812
30
0.0
11
-0.037386
21
0.002586
31
0.0
0
LINE
8
0
6
CONTINUOUS
10
-0.015391
20
0.001306
30
0.0
11
0.019635
21
-0.000733
31
0.0
0
LINE
8
0
6
CONTINUOUS
10
-0.077500
20
0.010214
30
0.0
11
-0.071509
21
0.007035
31
0.0
0
LINE
8
0
6
CONTINUOUS
10
-0.071509
20
0.007035
30
0.0
11
-0.064463
21
0.004381
31
0.0
0
LINE
8
0
6
CONTINUOUS
10
0.032657
20
-0.000713
30
0.0
11
0.033712
21
-0.000733
31
0.0
0
LINE
8
0
6
CONTINUOUS
10
0.023154
20
-0.000733
30
0.0
11
0.026673
21
-0.000733
31
0.0
0
LINE
8
0
6
CONTINUOUS
10
-0.077418
20
0.010214
30
0.0
11
-0.071453
21
0.007035
31
0.0
0
LINE
8
0
6
CONTINUOUS
10
-0.071453
20
0.007035
30
0.0
11
-0.064435
21
0.004381
31
0.0
0
LINE
8
0
6
CONTINUOUS
10
-0.060805
20
0.003920
30
0.0
11
-0.064435
21
0.004381
31
0.0
0
LINE
8
0
6
CONTINUOUS
10
-0.077418
20
0.010214
30
0.0
11
-0.080768
21
0.013569
31
0.0
0
LINE
8
0
6
CONTINUOUS
10
0.028833
20
0.004890
30
0.0
11
0.024682
21
0.006488
31
0.0
0
LINE
8
0
6
CONTINUOUS
10
0.027561
20
0.001856
30
0.0
11
0.024682
21
0.006488
31
0.0
0
LINE
8
0
6
CONTINUOUS
10
0.023607
20
0.001824
30
0.0
11
0.027561
21
0.001856
31
0.0
0
LINE
8
0
6
CONTINUOUS
10
-0.102312
20
0.033267
30
0.0
11
-0.102500
21
0.033267
31
0.0
0
LINE
8
0
6
CONTINUOUS
10
-0.102500
20
0.031567
30
0.0
11
-0.102312
21
0.031567
31
0.0
0
LINE
8
0
6
CONTINUOUS
10
-0.102500
20
0.033267
30
0.0
11
-0.102500
21
0.031567
31
0.0
0
LINE
8
0
6
CONTINUOUS
10
-0.101728
20
0.033267
30
0.0
11
-0.102312
21
0.033267
31
0.0
0
LINE
8
0
6
CONTINUOUS
10
-0.102312
20
0.031567
30
0.0
11
-0.101728
21
0.031567
31
0.0
0
LINE
8
0
6
CONTINUOUS
10
-0.100039
20
0.033267
30
0.0
11
-0.101728
21
0.033267
31
0.0
0
LINE
8
0
6
CONTINUOUS
10
-0.101728
20
0.031567
30
0.0
11
-0.100039
21
0.031567
31
0.0
0
LINE
8
0
6
CONTINUOUS
10
-0.096702
20
0.033267
30
0.0
11
-0.100039
21
0.033267
31
0.0
0
LINE
8
0
6
CONTINUOUS
10
-0.100039
20
0.031567
30
0.0
11
-0.096702
21
0.031567
31
0.0
0
LINE
8
0
6
CONTINUOUS
10
-0.100039
20
0.033267
30
0.0
11
-0.100039
21
0.031567
31
0.0
0
LINE
8
0
6
CONTINUOUS
10
-0.092570
20
0.033267
30
0.0
11
-0.096702
21
0.033267
31
0.0
0
LINE
8
0
6
CONTINUOUS
10
-0.088273
20
0.033267
30
0.0
11
-0.092570
21
0.033267
31
0.0
0
LINE
8
0
6
CONTINUOUS
10
-0.083958
20
0.033267
30
0.0
11
-0.088273
21
0.033267
31
0.0
0
LINE
8
0
6
CONTINUOUS
10
0.019635
20
0.033267
30
0.0
11
-0.083958
21
0.033267
31
0.0
0
LINE
8
0
6
CONTINUOUS
10
0.022911
20
0.033267
30
0.0
11
0.019635
21
0.033267
31
0.0
0
LINE
8
0
6
CONTINUOUS
10
0.026036
20
0.033267
30
0.0
11
0.022911
21
0.033267
31
0.0
0
LINE
8
0
6
CONTINUOUS
10
0.031008
20
0.033267
30
0.0
11
0.028737
21
0.033267
31
0.0
0
LINE
8
0
6
CONTINUOUS
10
0.033077
20
0.033267
30
0.0
11
0.031008
21
0.033267
31
0.0
0
LINE
8
0
6
CONTINUOUS
10
0.033712
20
0.033267
30
0.0
11
0.033077
21
0.033267
31
0.0
0
LINE
8
0
6
CONTINUOUS
10
-0.098500
20
0.026083
30
0.0
11
-0.097146
21
0.025060
31
0.0
0
LINE
8
0
6
CONTINUOUS
10
-0.086414
20
0.017870
30
0.0
11
-0.080768
21
0.013569
31
0.0
0
LINE
8
0
6
CONTINUOUS
10
0.024682
20
0.006488
30
0.0
11
0.023878
21
0.011963
31
0.0
0
LINE
8
0
6
CONTINUOUS
10
0.032657
20
-0.000713
30
0.0
11
0.033061
21
-0.000193
31
0.0
0
LINE
8
0
6
CONTINUOUS
10
0.032657
20
-0.000713
30
0.0
11
0.031002
21
0.001382
31
0.0
0
LINE
8
0
6
CONTINUOUS
10
0.030202
20
-0.000567
30
0.0
11
0.032657
21
-0.000713
31
0.0
0
LINE
8
0
6
CONTINUOUS
10
0.019635
20
-0.000733
30
0.0
11
0.023154
21
-0.000733
31
0.0
0
LINE
8
0
6
CONTINUOUS
10
0.057198
20
0.033267
30
0.0
11
0.035513
21
0.033267
31
0.0
0
LINE
8
0
6
CONTINUOUS
10
-0.058456
20
0.003812
30
0.0
11
-0.060805
21
0.003920
31
0.0
0
LINE
8
0
6
CONTINUOUS
10
0.033562
20
0.000485
30
0.0
11
0.033712
21
-0.000733
31
0.0
0
LINE
8
0
6
CONTINUOUS
10
0.035513
20
-0.000733
30
0.0
11
0.057198
21
-0.000733
31
0.0
0
LINE
8
0
6
CONTINUOUS
10
0.059000
20
0.006417
30
0.0
11
0.060004
21
0.006417
31
0.0
0
LINE
8
0
6
CONTINUOUS
10
0.060004
20
0.026119
30
0.0
11
0.059000
21
0.026119
31
0.0
0
LINE
8
0
6
CONTINUOUS
10
0.060004
20
0.030658
30
0.0
11
0.060004
21
0.024463
31
0.0
0
LINE
8
0
6
CONTINUOUS
10
0.062565
20
0.030658
30
0.0
11
0.060004
21
0.030658
31
0.0
0
LINE
8
0
6
CONTINUOUS
10
0.060004
20
0.022130
30
0.0
11
0.060004
21
0.009740
31
0.0
0
LINE
8
0
6
CONTINUOUS
10
0.060004
20
0.001213
30
0.0
11
0.062565
21
0.001213
31
0.0
0
LINE
8
0
6
CONTINUOUS
10
0.060004
20
0.007408
30
0.0
11
0.060004
21
0.001213
31
0.0
0
LINE
8
0
6
CONTINUOUS
10
0.060004
20
0.007408
30
0.0
11
0.062535
21
0.001713
31
0.0
0
LINE
8
0
6
CONTINUOUS
10
0.060004
20
0.009740
30
0.0
11
0.060004
21
0.007408
31
0.0
0
LINE
8
0
6
CONTINUOUS
10
0.062565
20
0.015502
30
0.0
11
0.060004
21
0.009740
31
0.0
0
LINE
8
0
6
CONTINUOUS
10
0.060004
20
0.022130
30
0.0
11
0.062535
21
0.016435
31
0.0
0
LINE
8
0
6
CONTINUOUS
10
0.062535
20
0.030158
30
0.0
11
0.060004
21
0.024463
31
0.0
0
LINE
8
0
6
CONTINUOUS
10
0.060004
20
0.024463
30
0.0
11
0.060004
21
0.022130
31
0.0
0
LINE
8
0
6
CONTINUOUS
10
0.075389
20
0.015502
30
0.0
11
0.077950
21
0.009740
31
0.0
0
LINE
8
0
6
CONTINUOUS
10
0.077950
20
0.022130
30
0.0
11
0.075419
21
0.016435
31
0.0
0
LINE
8
0
6
CONTINUOUS
10
0.077950
20
0.030658
30
0.0
11
0.075389
21
0.030658
31
0.0
0
LINE
8
0
6
CONTINUOUS
10
0.075419
20
0.030158
30
0.0
11
0.077950
21
0.024463
31
0.0
0
LINE
8
0
6
CONTINUOUS
10
0.077950
20
0.007408
30
0.0
11
0.075419
21
0.001713
31
0.0
0
LINE
8
0
6
CONTINUOUS
10
0.075389
20
0.001213
30
0.0
11
0.077934
21
0.001213
31
0.0
0
LINE
8
0
6
CONTINUOUS
10
0.075389
20
0.001213
30
0.0
11
0.075419
21
0.001713
31
0.0
0
LINE
8
0
6
CONTINUOUS
10
0.062565
20
0.001213
30
0.0
11
0.075389
21
0.001213
31
0.0
0
LINE
8
0
6
CONTINUOUS
10
0.062535
20
0.001713
30
0.0
11
0.062565
21
0.001213
31
0.0
0
LINE
8
0
6
CONTINUOUS
10
0.075419
20
0.001713
30
0.0
11
0.062535
21
0.001713
31
0.0
0
LINE
8
0
6
CONTINUOUS
10
0.075389
20
0.015502
30
0.0
11
0.075419
21
0.016435
31
0.0
0
LINE
8
0
6
CONTINUOUS
10
0.062565
20
0.015502
30
0.0
11
0.075389
21
0.015502
31
0.0
0
LINE
8
0
6
CONTINUOUS
10
0.062535
20
0.016435
30
0.0
11
0.062565
21
0.015502
31
0.0
0
LINE
8
0
6
CONTINUOUS
10
0.075419
20
0.016435
30
0.0
11
0.062535
21
0.016435
31
0.0
0
LINE
8
0
6
CONTINUOUS
10
0.075389
20
0.030658
30
0.0
11
0.062565
21
0.030658
31
0.0
0
LINE
8
0
6
CONTINUOUS
10
0.075419
20
0.030158
30
0.0
11
0.075389
21
0.030658
31
0.0
0
LINE
8
0
6
CONTINUOUS
10
0.062535
20
0.030158
30
0.0
11
0.075419
21
0.030158
31
0.0
0
LINE
8
0
6
CONTINUOUS
10
0.062565
20
0.030658
30
0.0
11
0.062535
21
0.030158
31
0.0
0
LINE
8
0
6
CONTINUOUS
10
0.077613
20
0.003018
30
0.0
11
0.077613
21
0.001930
31
0.0
0
LINE
8
0
6
CONTINUOUS
10
0.077613
20
0.001930
30
0.0
11
0.077613
21
0.001875
31
0.0
0
LINE
8
0
6
CONTINUOUS
10
0.077613
20
0.004770
30
0.0
11
0.077613
21
0.003018
31
0.0
0
LINE
8
0
6
CONTINUOUS
10
0.077613
20
0.007098
30
0.0
11
0.077613
21
0.006665
31
0.0
0
LINE
8
0
6
CONTINUOUS
10
0.077613
20
0.006639
30
0.0
11
0.077613
21
0.004770
31
0.0
0
LINE
8
0
6
CONTINUOUS
10
0.077613
20
0.009887
30
0.0
11
0.077613
21
0.007098
31
0.0
0
LINE
8
0
6
CONTINUOUS
10
0.077613
20
0.012995
30
0.0
11
0.077613
21
0.009887
31
0.0
0
LINE
8
0
6
CONTINUOUS
10
0.077613
20
0.016268
30
0.0
11
0.077613
21
0.012995
31
0.0
0
LINE
8
0
6
CONTINUOUS
10
0.077613
20
0.019540
30
0.0
11
0.077613
21
0.016268
31
0.0
0
LINE
8
0
6
CONTINUOUS
10
0.077613
20
0.022649
30
0.0
11
0.077613
21
0.019540
31
0.0
0
LINE
8
0
6
CONTINUOUS
10
0.077613
20
0.025437
30
0.0
11
0.077613
21
0.022649
31
0.0
0
LINE
8
0
6
CONTINUOUS
10
0.077613
20
0.027766
30
0.0
11
0.077613
21
0.025437
31
0.0
0
LINE
8
0
6
CONTINUOUS
10
0.077613
20
0.029518
30
0.0
11
0.077613
21
0.027766
31
0.0
0
LINE
8
0
6
CONTINUOUS
10
0.077613
20
0.030606
30
0.0
11
0.077613
21
0.029518
31
0.0
0
LINE
8
0
6
CONTINUOUS
10
0.077613
20
0.030974
30
0.0
11
0.077613
21
0.030606
31
0.0
0
LINE
8
0
6
CONTINUOUS
10
0.077838
20
0.031217
30
0.0
11
0.077613
21
0.030974
31
0.0
0
LINE
8
0
6
CONTINUOUS
10
0.077934
20
0.001213
30
0.0
11
0.095809
21
-0.018374
31
0.0
0
LINE
8
0
6
CONTINUOUS
10
0.095809
20
0.050910
30
0.0
11
0.077838
21
0.031217
31
0.0
0
LINE
8
0
6
CONTINUOUS
10
0.096123
20
-0.018727
30
0.0
11
0.096634
21
-0.019083
31
0.0
0
LINE
8
0
6
CONTINUOUS
10
0.096634
20
-0.019083
30
0.0
11
0.097231
21
-0.019232
31
0.0
0
LINE
8
0
6
CONTINUOUS
10
0.096634
20
0.051619
30
0.0
11
0.096123
21
0.051263
31
0.0
0
LINE
8
0
6
CONTINUOUS
10
0.097231
20
0.051768
30
0.0
11
0.096634
21
0.051619
31
0.0
0
LINE
8
0
6
CONTINUOUS
10
0.102500
20
-0.018342
30
0.0
11
0.102500
21
-0.015717
31
0.0
0
LINE
8
0
6
CONTINUOUS
10
0.102076
20
-0.019232
30
0.0
11
0.102500
21
-0.019232
31
0.0
0
LINE
8
0
6
CONTINUOUS
10
0.102500
20
-0.019232
30
0.0
11
0.102500
21
-0.018342
31
0.0
0
LINE
8
0
6
CONTINUOUS
10
0.102500
20
-0.015717
30
0.0
11
0.102500
21
-0.011487
31
0.0
0
LINE
8
0
6
CONTINUOUS
10
0.102500
20
-0.011487
30
0.0
11
0.102500
21
-0.005866
31
0.0
0
LINE
8
0
6
CONTINUOUS
10
0.102500
20
-0.005866
30
0.0
11
0.102500
21
0.000865
31
0.0
0
LINE
8
0
6
CONTINUOUS
10
0.102500
20
0.000865
30
0.0
11
0.102500
21
0.008368
31
0.0
0
LINE
8
0
6
CONTINUOUS
10
0.102500
20
0.008368
30
0.0
11
0.102500
21
0.016268
31
0.0
0
LINE
8
0
6
CONTINUOUS
10
0.102500
20
0.016268
30
0.0
11
0.102500
21
0.024167
31
0.0
0
LINE
8
0
6
CONTINUOUS
10
0.102500
20
0.024167
30
0.0
11
0.102500
21
0.031671
31
0.0
0
LINE
8
0
6
CONTINUOUS
10
0.102500
20
0.031671
30
0.0
11
0.102500
21
0.038402
31
0.0
0
LINE
8
0
6
CONTINUOUS
10
0.102500
20
0.038402
30
0.0
11
0.102500
21
0.044023
31
0.0
0
LINE
8
0
6
CONTINUOUS
10
0.102500
20
0.044023
30
0.0
11
0.102500
21
0.048252
31
0.0
0
LINE
8
0
6
CONTINUOUS
10
0.102500
20
0.048252
30
0.0
11
0.102500
21
0.050878
31
0.0
0
LINE
8
0
6
CONTINUOUS
10
0.102500
20
0.051768
30
0.0
11
0.102076
21
0.051768
31
0.0
0
LINE
8
0
6
CONTINUOUS
10
0.102500
20
0.050878
30
0.0
11
0.102500
21
0.051768
31
0.0
0
LINE
8
0
6
CONTINUOUS
10
0.097609
20
-0.019232
30
0.0
11
0.102076
21
-0.019232
31
0.0
0
LINE
8
0
6
CONTINUOUS
10
0.102076
20
0.051768
30
0.0
11
0.097609
21
0.051768
31
0.0
0
LINE
8
0
6
CONTINUOUS
10
0.097609
20
0.051768
30
0.0
11
0.097231
21
0.051768
31
0.0
0
LINE
8
0
6
CONTINUOUS
10
0.095809
20
-0.018374
30
0.0
11
0.096123
21
-0.018727
31
0.0
0
LINE
8
0
6
CONTINUOUS
10
0.096123
20
0.051263
30
0.0
11
0.095809
21
0.050910
31
0.0
0
LINE
8
0
6
CONTINUOUS
10
0.097231
20
-0.019232
30
0.0
11
0.097609
21
-0.019232
31
0.0
0
LINE
8
0
6
CONTINUOUS
10
0.060004
20
0.026119
30
0.0
11
0.059000
21
0.026119
31
0.0
0
LINE
8
0
6
CONTINUOUS
10
0.062565
20
0.030658
30
0.0
11
0.060004
21
0.030658
31
0.0
0
LINE
8
0
6
CONTINUOUS
10
0.077950
20
0.030658
30
0.0
11
0.075389
21
0.030658
31
0.0
0
LINE
8
0
6
CONTINUOUS
10
0.075389
20
0.030658
30
0.0
11
0.062565
21
0.030658
31
0.0
0
LINE
8
0
6
CONTINUOUS
10
0.102500
20
0.051768
30
0.0
11
0.102076
21
0.051768
31
0.0
0
LINE
8
0
6
CONTINUOUS
10
0.102076
20
0.051768
30
0.0
11
0.097609
21
0.051768
31
0.0
0
LINE
8
0
6
CONTINUOUS
10
0.097609
20
0.051768
30
0.0
11
0.097231
21
0.051768
31
0.0
0
LINE
8
0
6
CONTINUOUS
10
0.077680
20
0.001761
30
0.0
11
0.077613
21
0.001875
31
0.0
0
LINE
8
0
6
CONTINUOUS
10
0.077680
20
0.001761
30
0.0
11
0.077613
21
0.001875
31
0.0
0
LINE
8
0
6
CONTINUOUS
10
0.077680
20
0.001761
30
0.0
11
0.077613
21
0.001875
31
0.0
0
LINE
8
0
6
CONTINUOUS
10
0.077680
20
0.001761
30
0.0
11
0.077613
21
0.001875
31
0.0
0
LINE
8
0
6
CONTINUOUS
10
-0.015391
20
0.001306
30
0.0
11
-0.015782
21
0.002085
31
0.0
0
LINE
8
0
6
CONTINUOUS
10
-0.029707
20
0.004905
30
0.0
11
-0.029202
21
0.005088
31
0.0
0
LINE
8
0
6
CONTINUOUS
10
-0.033640
20
0.003180
30
0.0
11
-0.031842
21
0.004267
31
0.0
0
LINE
8
0
6
CONTINUOUS
10
-0.080156
20
0.012382
30
0.0
11
-0.081657
21
0.013825
31
0.0
0
LINE
8
0
6
CONTINUOUS
10
-0.079940
20
0.012129
30
0.0
11
-0.080156
21
0.012382
31
0.0
0
LINE
8
0
6
CONTINUOUS
10
-0.081657
20
0.013825
30
0.0
11
-0.081713
21
0.013878
31
0.0
0
LINE
8
0
6
CONTINUOUS
10
-0.083210
20
0.015255
30
0.0
11
-0.082183
21
0.014346
31
0.0
0
LINE
8
0
6
CONTINUOUS
10
-0.081713
20
0.013878
30
0.0
11
-0.082183
21
0.014346
31
0.0
0
LINE
8
0
6
CONTINUOUS
10
-0.088532
20
0.019295
30
0.0
11
-0.087823
21
0.018780
31
0.0
0
ENDSEC
0
EOF
