999
Erzeugt mit innoplus bad 
0
SECTION
2
HEADER
9
$ACADVER
1
AC1009
9
$DWGCODEPAGE
3
ISO8859-1
0
ENDSEC
0
SECTION
2
TABLES
0
TABLE
2
LAYER
70
1
0
LAYER
2
0
70
0
62
7
6
CONTINUOUS
0
ENDTAB
0
ENDSEC
0
SECTION
2
ENTITIES
0
LINE
8
0
6
CONTINUOUS
10
0.029656
20
0.030621
30
0.0
11
0.029656
21
0.028853
31
0.0
0
LINE
8
0
6
CONTINUOUS
10
0.064760
20
0.028821
30
0.0
11
0.064760
21
0.030621
31
0.0
0
LINE
8
0
6
CONTINUOUS
10
-0.061500
20
0.000499
30
0.0
11
-0.061100
21
0.000499
31
0.0
0
LINE
8
0
6
CONTINUOUS
10
-0.061500
20
0.004295
30
0.0
11
-0.061500
21
0.002215
31
0.0
0
LINE
8
0
6
CONTINUOUS
10
-0.061100
20
0.026499
30
0.0
11
-0.061500
21
0.026499
31
0.0
0
LINE
8
0
6
CONTINUOUS
10
-0.051803
20
0.026499
30
0.0
11
-0.061100
21
0.026499
31
0.0
0
LINE
8
0
6
CONTINUOUS
10
-0.051423
20
0.007051
30
0.0
11
-0.051423
21
0.010171
31
0.0
0
LINE
8
0
6
CONTINUOUS
10
-0.051423
20
0.000967
30
0.0
11
-0.051423
21
0.002215
31
0.0
0
LINE
8
0
6
CONTINUOUS
10
-0.051423
20
0.000499
30
0.0
11
-0.051423
21
0.000967
31
0.0
0
LINE
8
0
6
CONTINUOUS
10
-0.051803
20
0.000499
30
0.0
11
-0.051423
21
0.000499
31
0.0
0
LINE
8
0
6
CONTINUOUS
10
-0.061500
20
0.007051
30
0.0
11
-0.061500
21
0.004295
31
0.0
0
LINE
8
0
6
CONTINUOUS
10
-0.061500
20
0.025499
30
0.0
11
-0.069087
21
0.025499
31
0.0
0
LINE
8
0
6
CONTINUOUS
10
-0.069254
20
0.001499
30
0.0
11
-0.069087
21
0.001499
31
0.0
0
LINE
8
0
6
CONTINUOUS
10
-0.069500
20
0.008582
30
0.0
11
-0.069500
21
0.006505
31
0.0
0
LINE
8
0
6
CONTINUOUS
10
-0.069500
20
0.023627
30
0.0
11
-0.069500
21
0.023502
31
0.0
0
LINE
8
0
6
CONTINUOUS
10
-0.069500
20
0.023627
30
0.0
11
-0.069500
21
0.023502
31
0.0
0
LINE
8
0
6
CONTINUOUS
10
-0.069087
20
0.025499
30
0.0
11
-0.069254
21
0.025499
31
0.0
0
LINE
8
0
6
CONTINUOUS
10
-0.069087
20
0.001499
30
0.0
11
-0.061500
21
0.001499
31
0.0
0
LINE
8
0
6
CONTINUOUS
10
-0.045332
20
0.025499
30
0.0
11
-0.051423
21
0.025499
31
0.0
0
LINE
8
0
6
CONTINUOUS
10
-0.051423
20
0.001499
30
0.0
11
-0.038906
21
0.001499
31
0.0
0
LINE
8
0
6
CONTINUOUS
10
-0.051423
20
0.026499
30
0.0
11
-0.051803
21
0.026499
31
0.0
0
LINE
8
0
6
CONTINUOUS
10
-0.051423
20
0.026031
30
0.0
11
-0.051423
21
0.026499
31
0.0
0
LINE
8
0
6
CONTINUOUS
10
-0.061100
20
0.000499
30
0.0
11
-0.051803
21
0.000499
31
0.0
0
LINE
8
0
6
CONTINUOUS
10
-0.051423
20
0.019947
30
0.0
11
-0.051423
21
0.022703
31
0.0
0
LINE
8
0
6
CONTINUOUS
10
-0.051423
20
0.024783
30
0.0
11
-0.051423
21
0.026031
31
0.0
0
LINE
8
0
6
CONTINUOUS
10
-0.051423
20
0.022703
30
0.0
11
-0.051423
21
0.024783
31
0.0
0
LINE
8
0
6
CONTINUOUS
10
-0.051423
20
0.016827
30
0.0
11
-0.051423
21
0.013499
31
0.0
0
LINE
8
0
6
CONTINUOUS
10
-0.051423
20
0.019947
30
0.0
11
-0.051423
21
0.016827
31
0.0
0
LINE
8
0
6
CONTINUOUS
10
-0.051423
20
0.013499
30
0.0
11
-0.051423
21
0.010171
31
0.0
0
LINE
8
0
6
CONTINUOUS
10
-0.051423
20
0.007051
30
0.0
11
-0.051423
21
0.004295
31
0.0
0
LINE
8
0
6
CONTINUOUS
10
-0.051423
20
0.004295
30
0.0
11
-0.051423
21
0.002215
31
0.0
0
LINE
8
0
6
CONTINUOUS
10
-0.061500
20
0.013499
30
0.0
11
-0.061500
21
0.016827
31
0.0
0
LINE
8
0
6
CONTINUOUS
10
-0.061500
20
0.016827
30
0.0
11
-0.061500
21
0.019947
31
0.0
0
LINE
8
0
6
CONTINUOUS
10
-0.061500
20
0.019947
30
0.0
11
-0.061500
21
0.022703
31
0.0
0
LINE
8
0
6
CONTINUOUS
10
-0.061500
20
0.022703
30
0.0
11
-0.061500
21
0.024783
31
0.0
0
LINE
8
0
6
CONTINUOUS
10
-0.061500
20
0.024783
30
0.0
11
-0.061500
21
0.026031
31
0.0
0
LINE
8
0
6
CONTINUOUS
10
-0.061500
20
0.026031
30
0.0
11
-0.061500
21
0.026499
31
0.0
0
LINE
8
0
6
CONTINUOUS
10
-0.061500
20
0.010171
30
0.0
11
-0.061500
21
0.013499
31
0.0
0
LINE
8
0
6
CONTINUOUS
10
-0.061500
20
0.007051
30
0.0
11
-0.061500
21
0.010171
31
0.0
0
LINE
8
0
6
CONTINUOUS
10
-0.061500
20
0.000967
30
0.0
11
-0.061500
21
0.002215
31
0.0
0
LINE
8
0
6
CONTINUOUS
10
-0.061500
20
0.000499
30
0.0
11
-0.061500
21
0.000967
31
0.0
0
LINE
8
0
6
CONTINUOUS
10
-0.069500
20
0.016523
30
0.0
11
-0.069500
21
0.013499
31
0.0
0
LINE
8
0
6
CONTINUOUS
10
-0.069254
20
0.013499
30
0.0
11
-0.069254
21
0.016571
31
0.0
0
LINE
8
0
6
CONTINUOUS
10
-0.069500
20
0.019307
30
0.0
11
-0.069500
21
0.016523
31
0.0
0
LINE
8
0
6
CONTINUOUS
10
-0.069254
20
0.016571
30
0.0
11
-0.069254
21
0.019451
31
0.0
0
LINE
8
0
6
CONTINUOUS
10
-0.069500
20
0.021755
30
0.0
11
-0.069500
21
0.019307
31
0.0
0
LINE
8
0
6
CONTINUOUS
10
-0.069254
20
0.019451
30
0.0
11
-0.069254
21
0.021995
31
0.0
0
LINE
8
0
6
CONTINUOUS
10
-0.069500
20
0.023627
30
0.0
11
-0.069500
21
0.021755
31
0.0
0
LINE
8
0
6
CONTINUOUS
10
-0.069254
20
0.021995
30
0.0
11
-0.069254
21
0.023915
31
0.0
0
LINE
8
0
6
CONTINUOUS
10
-0.069500
20
0.024779
30
0.0
11
-0.069500
21
0.023627
31
0.0
0
LINE
8
0
6
CONTINUOUS
10
-0.069254
20
0.023915
30
0.0
11
-0.069254
21
0.025067
31
0.0
0
LINE
8
0
6
CONTINUOUS
10
-0.069500
20
0.025211
30
0.0
11
-0.069500
21
0.024779
31
0.0
0
LINE
8
0
6
CONTINUOUS
10
-0.069254
20
0.025499
30
0.0
11
-0.069500
21
0.025211
31
0.0
0
LINE
8
0
6
CONTINUOUS
10
-0.069254
20
0.025067
30
0.0
11
-0.069254
21
0.025499
31
0.0
0
LINE
8
0
6
CONTINUOUS
10
-0.069254
20
0.010427
30
0.0
11
-0.069254
21
0.013499
31
0.0
0
LINE
8
0
6
CONTINUOUS
10
-0.069500
20
0.013499
30
0.0
11
-0.069500
21
0.010475
31
0.0
0
LINE
8
0
6
CONTINUOUS
10
-0.069254
20
0.007547
30
0.0
11
-0.069254
21
0.010427
31
0.0
0
LINE
8
0
6
CONTINUOUS
10
-0.069500
20
0.010475
30
0.0
11
-0.069500
21
0.007691
31
0.0
0
LINE
8
0
6
CONTINUOUS
10
-0.069254
20
0.005003
30
0.0
11
-0.069254
21
0.007547
31
0.0
0
LINE
8
0
6
CONTINUOUS
10
-0.069500
20
0.007691
30
0.0
11
-0.069500
21
0.005243
31
0.0
0
LINE
8
0
6
CONTINUOUS
10
-0.069254
20
0.003083
30
0.0
11
-0.069254
21
0.005003
31
0.0
0
LINE
8
0
6
CONTINUOUS
10
-0.069500
20
0.005243
30
0.0
11
-0.069500
21
0.003371
31
0.0
0
LINE
8
0
6
CONTINUOUS
10
-0.069254
20
0.001931
30
0.0
11
-0.069254
21
0.003083
31
0.0
0
LINE
8
0
6
CONTINUOUS
10
-0.069500
20
0.003371
30
0.0
11
-0.069500
21
0.002219
31
0.0
0
LINE
8
0
6
CONTINUOUS
10
-0.069254
20
0.001499
30
0.0
11
-0.069254
21
0.001931
31
0.0
0
LINE
8
0
6
CONTINUOUS
10
-0.069500
20
0.001787
30
0.0
11
-0.069254
21
0.001499
31
0.0
0
LINE
8
0
6
CONTINUOUS
10
-0.069500
20
0.002219
30
0.0
11
-0.069500
21
0.001787
31
0.0
0
LINE
8
0
6
CONTINUOUS
10
-0.069500
20
0.013499
30
0.0
11
-0.069500
21
0.010946
31
0.0
0
LINE
8
0
6
CONTINUOUS
10
-0.069500
20
0.010907
30
0.0
11
-0.069500
21
0.013499
31
0.0
0
LINE
8
0
6
CONTINUOUS
10
-0.069500
20
0.008582
30
0.0
11
-0.069500
21
0.006505
31
0.0
0
LINE
8
0
6
CONTINUOUS
10
-0.069500
20
0.023569
30
0.0
11
-0.069500
21
0.023423
31
0.0
0
LINE
8
0
6
CONTINUOUS
10
0.014426
20
0.055536
30
0.0
11
0.019494
21
0.054626
31
0.0
0
LINE
8
0
6
CONTINUOUS
10
0.027892
20
0.044750
30
0.0
11
0.028144
21
0.043341
31
0.0
0
LINE
8
0
6
CONTINUOUS
10
0.042239
20
0.064501
30
0.0
11
0.031167
21
0.064501
31
0.0
0
LINE
8
0
6
CONTINUOUS
10
0.031155
20
0.064501
30
0.0
11
0.020071
21
0.064501
31
0.0
0
LINE
8
0
6
CONTINUOUS
10
0.037664
20
0.030301
30
0.0
11
0.042239
21
0.030301
31
0.0
0
LINE
8
0
6
CONTINUOUS
10
0.047184
20
0.064501
30
0.0
11
0.042239
21
0.064501
31
0.0
0
LINE
8
0
6
CONTINUOUS
10
0.042239
20
0.064501
30
0.0
11
0.031155
21
0.064501
31
0.0
0
LINE
8
0
6
CONTINUOUS
10
0.066224
20
0.057436
30
0.0
11
0.066224
21
0.060693
31
0.0
0
LINE
8
0
6
CONTINUOUS
10
0.006862
20
0.056593
30
0.0
11
0.014426
21
0.055536
31
0.0
0
LINE
8
0
6
CONTINUOUS
10
0.012782
20
0.064501
30
0.0
11
0.005468
21
0.064501
31
0.0
0
LINE
8
0
6
CONTINUOUS
10
0.005452
20
0.064501
30
0.0
11
-0.001857
21
0.064501
31
0.0
0
LINE
8
0
6
CONTINUOUS
10
0.012762
20
0.064501
30
0.0
11
0.005452
21
0.064501
31
0.0
0
LINE
8
0
6
CONTINUOUS
10
-0.012821
20
0.064501
30
0.0
11
-0.023785
21
0.064501
31
0.0
0
LINE
8
0
6
CONTINUOUS
10
-0.023785
20
0.064501
30
0.0
11
-0.027358
21
0.064501
31
0.0
0
LINE
8
0
6
CONTINUOUS
10
0.020071
20
0.064501
30
0.0
11
0.012762
21
0.064501
31
0.0
0
LINE
8
0
6
CONTINUOUS
10
-0.030063
20
0.064501
30
0.0
11
-0.030844
21
0.064501
31
0.0
0
LINE
8
0
6
CONTINUOUS
10
-0.001857
20
0.064501
30
0.0
11
-0.012821
21
0.064501
31
0.0
0
LINE
8
0
6
CONTINUOUS
10
0.047184
20
0.064501
30
0.0
11
0.042239
21
0.064501
31
0.0
0
LINE
8
0
6
CONTINUOUS
10
-0.027358
20
0.064501
30
0.0
11
-0.029917
21
0.064501
31
0.0
0
LINE
8
0
6
CONTINUOUS
10
-0.027261
20
0.063933
30
0.0
11
-0.027358
21
0.064501
31
0.0
0
LINE
8
0
6
CONTINUOUS
10
-0.029917
20
0.064501
30
0.0
11
-0.030844
21
0.064501
31
0.0
0
LINE
8
0
6
CONTINUOUS
10
-0.029790
20
0.063929
30
0.0
11
-0.029917
21
0.064501
31
0.0
0
LINE
8
0
6
CONTINUOUS
10
0.052112
20
0.064501
30
0.0
11
0.047184
21
0.064501
31
0.0
0
LINE
8
0
6
CONTINUOUS
10
0.056704
20
0.064501
30
0.0
11
0.052112
21
0.064501
31
0.0
0
LINE
8
0
6
CONTINUOUS
10
0.060647
20
0.064501
30
0.0
11
0.056704
21
0.064501
31
0.0
0
LINE
8
0
6
CONTINUOUS
10
0.063673
20
0.064501
30
0.0
11
0.060647
21
0.064501
31
0.0
0
LINE
8
0
6
CONTINUOUS
10
0.065575
20
0.064501
30
0.0
11
0.063673
21
0.064501
31
0.0
0
LINE
8
0
6
CONTINUOUS
10
0.066224
20
0.064501
30
0.0
11
0.065575
21
0.064501
31
0.0
0
LINE
8
0
6
CONTINUOUS
10
0.066224
20
0.063949
30
0.0
11
0.066224
21
0.064501
31
0.0
0
LINE
8
0
6
CONTINUOUS
10
0.012760
20
0.058694
30
0.0
11
0.020844
21
0.058310
31
0.0
0
LINE
8
0
6
CONTINUOUS
10
0.020095
20
0.064501
30
0.0
11
0.012782
21
0.064501
31
0.0
0
LINE
8
0
6
CONTINUOUS
10
-0.022704
20
0.059666
30
0.0
11
-0.011659
21
0.058327
31
0.0
0
LINE
8
0
6
CONTINUOUS
10
-0.007312
20
0.059544
30
0.0
11
-0.019370
21
0.060031
31
0.0
0
LINE
8
0
6
CONTINUOUS
10
-0.001845
20
0.064501
30
0.0
11
-0.012815
21
0.064501
31
0.0
0
LINE
8
0
6
CONTINUOUS
10
0.047192
20
0.030301
30
0.0
11
0.052104
21
0.030301
31
0.0
0
LINE
8
0
6
CONTINUOUS
10
0.060648
20
0.030301
30
0.0
11
0.063675
21
0.030301
31
0.0
0
LINE
8
0
6
CONTINUOUS
10
0.056701
20
0.030301
30
0.0
11
0.060648
21
0.030301
31
0.0
0
LINE
8
0
6
CONTINUOUS
10
0.052104
20
0.030301
30
0.0
11
0.056701
21
0.030301
31
0.0
0
LINE
8
0
6
CONTINUOUS
10
0.063675
20
0.030301
30
0.0
11
0.065577
21
0.030301
31
0.0
0
LINE
8
0
6
CONTINUOUS
10
0.066224
20
0.030301
30
0.0
11
0.066224
21
0.030775
31
0.0
0
LINE
8
0
6
CONTINUOUS
10
0.065577
20
0.030301
30
0.0
11
0.066224
21
0.030301
31
0.0
0
LINE
8
0
6
CONTINUOUS
10
0.042239
20
0.030301
30
0.0
11
0.047192
21
0.030301
31
0.0
0
LINE
8
0
6
CONTINUOUS
10
0.033721
20
0.030301
30
0.0
11
0.037664
21
0.030301
31
0.0
0
LINE
8
0
6
CONTINUOUS
10
0.030695
20
0.030301
30
0.0
11
0.033721
21
0.030301
31
0.0
0
LINE
8
0
6
CONTINUOUS
10
0.028793
20
0.030301
30
0.0
11
0.030695
21
0.030301
31
0.0
0
LINE
8
0
6
CONTINUOUS
10
0.028144
20
0.030301
30
0.0
11
0.028793
21
0.030301
31
0.0
0
LINE
8
0
6
CONTINUOUS
10
0.028144
20
0.030775
30
0.0
11
0.028144
21
0.030301
31
0.0
0
LINE
8
0
6
CONTINUOUS
10
0.028144
20
0.043341
30
0.0
11
0.028144
21
0.030775
31
0.0
0
LINE
8
0
6
CONTINUOUS
10
0.056704
20
0.064501
30
0.0
11
0.056380
21
0.064501
31
0.0
0
LINE
8
0
6
CONTINUOUS
10
0.065649
20
0.064501
30
0.0
11
0.056704
21
0.064501
31
0.0
0
LINE
8
0
6
CONTINUOUS
10
0.053916
20
0.064501
30
0.0
11
0.052354
21
0.064501
31
0.0
0
LINE
8
0
6
CONTINUOUS
10
0.060080
20
0.064501
30
0.0
11
0.053916
21
0.064501
31
0.0
0
LINE
8
0
6
CONTINUOUS
10
-0.023785
20
0.064501
30
0.0
11
-0.030063
21
0.064501
31
0.0
0
LINE
8
0
6
CONTINUOUS
10
-0.026403
20
0.062059
30
0.0
11
-0.027261
21
0.063933
31
0.0
0
LINE
8
0
6
CONTINUOUS
10
0.056380
20
0.064501
30
0.0
11
0.047184
21
0.064501
31
0.0
0
LINE
8
0
6
CONTINUOUS
10
-0.029790
20
0.063929
30
0.0
11
-0.030844
21
0.063910
31
0.0
0
LINE
8
0
6
CONTINUOUS
10
-0.029290
20
0.062619
30
0.0
11
-0.029790
21
0.063929
31
0.0
0
LINE
8
0
6
CONTINUOUS
10
-0.029290
20
0.062619
30
0.0
11
-0.030844
21
0.063910
31
0.0
0
LINE
8
0
6
CONTINUOUS
10
-0.030844
20
0.063910
30
0.0
11
-0.030844
21
0.062996
31
0.0
0
LINE
8
0
6
CONTINUOUS
10
0.031167
20
0.064501
30
0.0
11
0.020095
21
0.064501
31
0.0
0
LINE
8
0
6
CONTINUOUS
10
0.022622
20
0.053140
30
0.0
11
0.025374
21
0.051095
31
0.0
0
LINE
8
0
6
CONTINUOUS
10
0.066224
20
0.051798
30
0.0
11
0.066224
21
0.054626
31
0.0
0
LINE
8
0
6
CONTINUOUS
10
-0.026403
20
0.062059
30
0.0
11
-0.029290
21
0.062619
31
0.0
0
LINE
8
0
6
CONTINUOUS
10
-0.028796
20
0.061790
30
0.0
11
-0.026337
21
0.060973
31
0.0
0
LINE
8
0
6
CONTINUOUS
10
-0.020187
20
0.061513
30
0.0
11
-0.010010
21
0.061407
31
0.0
0
LINE
8
0
6
CONTINUOUS
10
0.066224
20
0.054626
30
0.0
11
0.066224
21
0.057436
31
0.0
0
LINE
8
0
6
CONTINUOUS
10
0.066224
20
0.046160
30
0.0
11
0.066224
21
0.048979
31
0.0
0
LINE
8
0
6
CONTINUOUS
10
0.066224
20
0.048979
30
0.0
11
0.066224
21
0.051798
31
0.0
0
LINE
8
0
6
CONTINUOUS
10
0.066224
20
0.060693
30
0.0
11
0.066224
21
0.063949
31
0.0
0
LINE
8
0
6
CONTINUOUS
10
0.005468
20
0.064501
30
0.0
11
-0.001845
21
0.064501
31
0.0
0
LINE
8
0
6
CONTINUOUS
10
-0.020187
20
0.061513
30
0.0
11
-0.026403
21
0.062059
31
0.0
0
LINE
8
0
6
CONTINUOUS
10
-0.029580
20
0.061950
30
0.0
11
-0.027024
21
0.060722
31
0.0
0
LINE
8
0
6
CONTINUOUS
10
-0.027024
20
0.060722
30
0.0
11
-0.022639
21
0.059666
31
0.0
0
LINE
8
0
6
CONTINUOUS
10
-0.019370
20
0.060031
30
0.0
11
-0.026337
21
0.060973
31
0.0
0
LINE
8
0
6
CONTINUOUS
10
-0.012815
20
0.064501
30
0.0
11
-0.023785
21
0.064501
31
0.0
0
LINE
8
0
6
CONTINUOUS
10
0.020844
20
0.058310
30
0.0
11
0.033966
21
0.054626
31
0.0
0
LINE
8
0
6
CONTINUOUS
10
0.019494
20
0.054626
30
0.0
11
0.022622
21
0.053140
31
0.0
0
LINE
8
0
6
CONTINUOUS
10
0.025374
20
0.051095
30
0.0
11
0.027145
21
0.048130
31
0.0
0
LINE
8
0
6
CONTINUOUS
10
0.028475
20
0.050980
30
0.0
11
0.026191
21
0.051065
31
0.0
0
LINE
8
0
6
CONTINUOUS
10
0.027253
20
0.054626
30
0.0
11
0.023030
21
0.054626
31
0.0
0
LINE
8
0
6
CONTINUOUS
10
0.032114
20
0.050800
30
0.0
11
0.028475
21
0.050980
31
0.0
0
LINE
8
0
6
CONTINUOUS
10
0.029943
20
0.053007
30
0.0
11
0.035916
21
0.052671
31
0.0
0
LINE
8
0
6
CONTINUOUS
10
0.033966
20
0.054626
30
0.0
11
0.027253
21
0.054626
31
0.0
0
LINE
8
0
6
CONTINUOUS
10
0.037085
20
0.050226
30
0.0
11
0.032114
21
0.050800
31
0.0
0
LINE
8
0
6
CONTINUOUS
10
0.027145
20
0.048130
30
0.0
11
0.027892
21
0.044750
31
0.0
0
LINE
8
0
6
CONTINUOUS
10
0.012760
20
0.058694
30
0.0
11
0.004705
21
0.059030
31
0.0
0
LINE
8
0
6
CONTINUOUS
10
-0.000765
20
0.057158
30
0.0
11
0.006862
21
0.056593
31
0.0
0
LINE
8
0
6
CONTINUOUS
10
-0.011659
20
0.058327
30
0.0
11
-0.000765
21
0.057158
31
0.0
0
LINE
8
0
6
CONTINUOUS
10
0.000316
20
0.061275
30
0.0
11
-0.010010
21
0.061407
31
0.0
0
LINE
8
0
6
CONTINUOUS
10
-0.007312
20
0.059544
30
0.0
11
0.004705
21
0.059030
31
0.0
0
LINE
8
0
6
CONTINUOUS
10
-0.029290
20
0.062619
30
0.0
11
-0.030844
21
0.062996
31
0.0
0
LINE
8
0
6
CONTINUOUS
10
-0.030844
20
0.062996
30
0.0
11
-0.029467
21
0.061924
31
0.0
0
LINE
8
0
6
CONTINUOUS
10
0.066224
20
0.043341
30
0.0
11
0.066224
21
0.046160
31
0.0
0
LINE
8
0
6
CONTINUOUS
10
0.066224
20
0.030775
30
0.0
11
0.066224
21
0.043341
31
0.0
0
LINE
8
0
6
CONTINUOUS
10
0.042239
20
0.064501
30
0.0
11
0.031167
21
0.064501
31
0.0
0
LINE
8
0
6
CONTINUOUS
10
0.047184
20
0.064501
30
0.0
11
0.042239
21
0.064501
31
0.0
0
LINE
8
0
6
CONTINUOUS
10
0.031167
20
0.064501
30
0.0
11
0.020095
21
0.064501
31
0.0
0
LINE
8
0
6
CONTINUOUS
10
0.053916
20
0.064501
30
0.0
11
0.047184
21
0.064501
31
0.0
0
LINE
8
0
6
CONTINUOUS
10
0.055429
20
0.064501
30
0.0
11
0.053916
21
0.064501
31
0.0
0
LINE
8
0
6
CONTINUOUS
10
0.067583
20
-0.010842
30
0.0
11
0.067199
21
-0.000085
31
0.0
0
LINE
8
0
6
CONTINUOUS
10
0.067199
20
-0.000085
30
0.0
11
0.066814
21
0.010671
31
0.0
0
LINE
8
0
6
CONTINUOUS
10
0.066814
20
0.010671
30
0.0
11
0.066430
21
0.021427
31
0.0
0
LINE
8
0
6
CONTINUOUS
10
0.066430
20
0.021427
30
0.0
11
0.066224
21
0.027191
31
0.0
0
LINE
8
0
6
CONTINUOUS
10
0.067967
20
-0.021598
30
0.0
11
0.067583
21
-0.010842
31
0.0
0
LINE
8
0
6
CONTINUOUS
10
-0.032832
20
-0.001577
30
0.0
11
-0.018433
21
-0.001577
31
0.0
0
LINE
8
0
6
CONTINUOUS
10
-0.026031
20
0.028853
30
0.0
11
-0.035734
21
0.028853
31
0.0
0
LINE
8
0
6
CONTINUOUS
10
0.025548
20
-0.015706
30
0.0
11
0.025768
21
-0.021173
31
0.0
0
LINE
8
0
6
CONTINUOUS
10
-0.038345
20
-0.000220
30
0.0
11
-0.037009
21
-0.001145
31
0.0
0
LINE
8
0
6
CONTINUOUS
10
0.056721
20
0.028853
30
0.0
11
0.052134
21
0.028853
31
0.0
0
LINE
8
0
6
CONTINUOUS
10
0.066170
20
0.028853
30
0.0
11
0.065579
21
0.028853
31
0.0
0
LINE
8
0
6
CONTINUOUS
10
0.066224
20
0.027191
30
0.0
11
0.066170
21
0.028853
31
0.0
0
LINE
8
0
6
CONTINUOUS
10
0.060659
20
0.028853
30
0.0
11
0.056721
21
0.028853
31
0.0
0
LINE
8
0
6
CONTINUOUS
10
0.065579
20
0.028853
30
0.0
11
0.063680
21
0.028853
31
0.0
0
LINE
8
0
6
CONTINUOUS
10
-0.035734
20
0.028853
30
0.0
11
-0.037074
21
0.028853
31
0.0
0
LINE
8
0
6
CONTINUOUS
10
-0.037074
20
0.028853
30
0.0
11
-0.040984
21
0.028853
31
0.0
0
LINE
8
0
6
CONTINUOUS
10
-0.043708
20
0.028853
30
0.0
11
-0.045535
21
0.028853
31
0.0
0
LINE
8
0
6
CONTINUOUS
10
-0.045535
20
0.028853
30
0.0
11
-0.045459
21
0.027144
31
0.0
0
LINE
8
0
6
CONTINUOUS
10
-0.040984
20
0.028853
30
0.0
11
-0.043708
21
0.028853
31
0.0
0
LINE
8
0
6
CONTINUOUS
10
-0.040989
20
0.027174
30
0.0
11
-0.040984
21
0.028853
31
0.0
0
LINE
8
0
6
CONTINUOUS
10
0.046510
20
0.028853
30
0.0
11
0.026730
21
0.028853
31
0.0
0
LINE
8
0
6
CONTINUOUS
10
0.052134
20
0.028853
30
0.0
11
0.046510
21
0.028853
31
0.0
0
LINE
8
0
6
CONTINUOUS
10
0.063680
20
0.028853
30
0.0
11
0.060659
21
0.028853
31
0.0
0
LINE
8
0
6
CONTINUOUS
10
0.026730
20
0.028853
30
0.0
11
-0.026031
21
0.028853
31
0.0
0
LINE
8
0
6
CONTINUOUS
10
-0.034827
20
-0.001577
30
0.0
11
-0.032832
21
-0.001577
31
0.0
0
LINE
8
0
6
CONTINUOUS
10
-0.039354
20
0.002734
30
0.0
11
-0.038685
21
0.000891
31
0.0
0
LINE
8
0
6
CONTINUOUS
10
-0.039662
20
0.004205
30
0.0
11
-0.038685
21
0.000891
31
0.0
0
LINE
8
0
6
CONTINUOUS
10
-0.037009
20
-0.001145
30
0.0
11
-0.034827
21
-0.001577
31
0.0
0
LINE
8
0
6
CONTINUOUS
10
-0.038472
20
0.006739
30
0.0
11
-0.040035
21
0.012095
31
0.0
0
LINE
8
0
6
CONTINUOUS
10
-0.037861
20
0.003254
30
0.0
11
-0.037271
21
0.000172
31
0.0
0
LINE
8
0
6
CONTINUOUS
10
-0.045090
20
0.022391
30
0.0
11
-0.045459
21
0.027144
31
0.0
0
LINE
8
0
6
CONTINUOUS
10
-0.038472
20
0.006739
30
0.0
11
-0.037861
21
0.003254
31
0.0
0
LINE
8
0
6
CONTINUOUS
10
-0.039662
20
0.004205
30
0.0
11
-0.039825
21
0.004845
31
0.0
0
LINE
8
0
6
CONTINUOUS
10
-0.038881
20
0.001499
30
0.0
11
-0.038345
21
-0.000220
31
0.0
0
LINE
8
0
6
CONTINUOUS
10
-0.038345
20
-0.000220
30
0.0
11
-0.038685
21
0.000891
31
0.0
0
LINE
8
0
6
CONTINUOUS
10
-0.042519
20
0.013167
30
0.0
11
-0.043203
21
0.017213
31
0.0
0
LINE
8
0
6
CONTINUOUS
10
-0.043203
20
0.017213
30
0.0
11
-0.043668
21
0.022348
31
0.0
0
LINE
8
0
6
CONTINUOUS
10
-0.044767
20
0.020273
30
0.0
11
-0.045090
21
0.022391
31
0.0
0
LINE
8
0
6
CONTINUOUS
10
0.058321
20
-0.064501
30
0.0
11
0.062975
21
-0.064501
31
0.0
0
LINE
8
0
6
CONTINUOUS
10
0.062975
20
-0.064501
30
0.0
11
0.066544
21
-0.064501
31
0.0
0
LINE
8
0
6
CONTINUOUS
10
0.052901
20
-0.064501
30
0.0
11
0.058321
21
-0.064501
31
0.0
0
LINE
8
0
6
CONTINUOUS
10
0.069500
20
-0.064501
30
0.0
11
0.069464
21
-0.063501
31
0.0
0
LINE
8
0
6
CONTINUOUS
10
0.068787
20
-0.064501
30
0.0
11
0.069500
21
-0.064501
31
0.0
0
LINE
8
0
6
CONTINUOUS
10
0.040555
20
-0.064501
30
0.0
11
0.046510
21
-0.064501
31
0.0
0
LINE
8
0
6
CONTINUOUS
10
0.066544
20
-0.064501
30
0.0
11
0.068787
21
-0.064501
31
0.0
0
LINE
8
0
6
CONTINUOUS
10
0.035006
20
-0.064501
30
0.0
11
0.040555
21
-0.064501
31
0.0
0
LINE
8
0
6
CONTINUOUS
10
0.024284
20
-0.064501
30
0.0
11
0.026583
21
-0.064501
31
0.0
0
LINE
8
0
6
CONTINUOUS
10
0.023500
20
-0.064501
30
0.0
11
0.024284
21
-0.064501
31
0.0
0
LINE
8
0
6
CONTINUOUS
10
0.023552
20
-0.063502
30
0.0
11
0.023500
21
-0.064501
31
0.0
0
LINE
8
0
6
CONTINUOUS
10
0.030240
20
-0.064501
30
0.0
11
0.035006
21
-0.064501
31
0.0
0
LINE
8
0
6
CONTINUOUS
10
0.026583
20
-0.064501
30
0.0
11
0.030240
21
-0.064501
31
0.0
0
LINE
8
0
6
CONTINUOUS
10
0.069464
20
-0.063501
30
0.0
11
0.067967
21
-0.021598
31
0.0
0
LINE
8
0
6
CONTINUOUS
10
0.025768
20
-0.021173
30
0.0
11
0.023552
21
-0.063502
31
0.0
0
LINE
8
0
6
CONTINUOUS
10
0.021908
20
-0.005779
30
0.0
11
0.024680
21
-0.010339
31
0.0
0
LINE
8
0
6
CONTINUOUS
10
0.046510
20
-0.064501
30
0.0
11
0.052901
21
-0.064501
31
0.0
0
LINE
8
0
6
CONTINUOUS
10
0.016549
20
-0.002690
30
0.0
11
0.021908
21
-0.005779
31
0.0
0
LINE
8
0
6
CONTINUOUS
10
0.021908
20
-0.005779
30
0.0
11
0.023063
21
-0.004851
31
0.0
0
LINE
8
0
6
CONTINUOUS
10
0.011028
20
-0.001928
30
0.0
11
0.016549
21
-0.002690
31
0.0
0
LINE
8
0
6
CONTINUOUS
10
0.024680
20
-0.010339
30
0.0
11
0.025548
21
-0.015706
31
0.0
0
LINE
8
0
6
CONTINUOUS
10
-0.018433
20
-0.001577
30
0.0
11
0.011028
21
-0.001928
31
0.0
0
LINE
8
0
6
CONTINUOUS
10
0.016086
20
0.010130
30
0.0
11
-0.022832
21
0.012128
31
0.0
0
LINE
8
0
6
CONTINUOUS
10
-0.044767
20
0.020273
30
0.0
11
-0.045031
21
0.021995
31
0.0
0
LINE
8
0
6
CONTINUOUS
10
-0.039784
20
0.004465
30
0.0
11
-0.039825
21
0.004845
31
0.0
0
LINE
8
0
6
CONTINUOUS
10
-0.039825
20
0.004845
30
0.0
11
-0.039754
21
0.005003
31
0.0
0
LINE
8
0
6
CONTINUOUS
10
-0.039354
20
0.002734
30
0.0
11
-0.039400
21
0.003083
31
0.0
0
ENDSEC
0
EOF
