999
Erzeugt mit innoplus bad 
0
SECTION
2
HEADER
9
$ACADVER
1
AC1009
9
$DWGCODEPAGE
3
ISO8859-1
0
ENDSEC
0
SECTION
2
TABLES
0
TABLE
2
LAYER
70
1
0
LAYER
2
0
70
0
62
7
6
CONTINUOUS
0
ENDTAB
0
ENDSEC
0
SECTION
2
ENTITIES
0
LINE
8
0
6
CONTINUOUS
10
-0.013000
20
-0.070289
30
0.0
11
-0.013000
21
-0.070689
31
0.0
0
LINE
8
0
6
CONTINUOUS
10
-0.012000
20
-0.078275
30
0.0
11
-0.012000
21
-0.078443
31
0.0
0
LINE
8
0
6
CONTINUOUS
10
0.013000
20
-0.070689
30
0.0
11
0.013000
21
-0.070289
31
0.0
0
LINE
8
0
6
CONTINUOUS
10
0.013000
20
-0.070289
30
0.0
11
0.013000
21
-0.060992
31
0.0
0
LINE
8
0
6
CONTINUOUS
10
-0.013000
20
-0.060612
30
0.0
11
-0.013000
21
-0.060992
31
0.0
0
LINE
8
0
6
CONTINUOUS
10
-0.006448
20
-0.060612
30
0.0
11
-0.009204
21
-0.060612
31
0.0
0
LINE
8
0
6
CONTINUOUS
10
-0.003328
20
-0.060612
30
0.0
11
-0.006448
21
-0.060612
31
0.0
0
LINE
8
0
6
CONTINUOUS
10
0.000000
20
-0.060612
30
0.0
11
-0.003328
21
-0.060612
31
0.0
0
LINE
8
0
6
CONTINUOUS
10
0.012000
20
-0.078275
30
0.0
11
0.012000
21
-0.070689
31
0.0
0
LINE
8
0
6
CONTINUOUS
10
-0.011712
20
-0.078689
30
0.0
11
-0.011280
21
-0.078689
31
0.0
0
LINE
8
0
6
CONTINUOUS
10
-0.011567
20
-0.078689
30
0.0
11
-0.011712
21
-0.078689
31
0.0
0
LINE
8
0
6
CONTINUOUS
10
-0.009924
20
-0.078689
30
0.0
11
-0.009559
21
-0.078689
31
0.0
0
LINE
8
0
6
CONTINUOUS
10
0.004917
20
-0.078689
30
0.0
11
0.006993
21
-0.078689
31
0.0
0
LINE
8
0
6
CONTINUOUS
10
-0.012000
20
-0.070689
30
0.0
11
-0.012000
21
-0.078275
31
0.0
0
LINE
8
0
6
CONTINUOUS
10
0.012000
20
-0.078443
30
0.0
11
0.012000
21
-0.078275
31
0.0
0
LINE
8
0
6
CONTINUOUS
10
-0.012000
20
-0.053153
30
0.0
11
-0.012000
21
-0.060612
31
0.0
0
LINE
8
0
6
CONTINUOUS
10
0.012000
20
-0.060612
30
0.0
11
0.012000
21
-0.053153
31
0.0
0
LINE
8
0
6
CONTINUOUS
10
0.003328
20
-0.060612
30
0.0
11
0.000000
21
-0.060612
31
0.0
0
LINE
8
0
6
CONTINUOUS
10
0.013000
20
-0.060992
30
0.0
11
0.013000
21
-0.060612
31
0.0
0
LINE
8
0
6
CONTINUOUS
10
0.006448
20
-0.060612
30
0.0
11
0.003328
21
-0.060612
31
0.0
0
LINE
8
0
6
CONTINUOUS
10
-0.013000
20
-0.060992
30
0.0
11
-0.013000
21
-0.070289
31
0.0
0
LINE
8
0
6
CONTINUOUS
10
0.009204
20
-0.060612
30
0.0
11
0.006448
21
-0.060612
31
0.0
0
LINE
8
0
6
CONTINUOUS
10
0.012532
20
-0.060612
30
0.0
11
0.013000
21
-0.060612
31
0.0
0
LINE
8
0
6
CONTINUOUS
10
0.011284
20
-0.060612
30
0.0
11
0.012532
21
-0.060612
31
0.0
0
LINE
8
0
6
CONTINUOUS
10
0.009204
20
-0.060612
30
0.0
11
0.011284
21
-0.060612
31
0.0
0
LINE
8
0
6
CONTINUOUS
10
0.013000
20
-0.070689
30
0.0
11
0.012532
21
-0.070689
31
0.0
0
LINE
8
0
6
CONTINUOUS
10
0.012532
20
-0.070689
30
0.0
11
0.011284
21
-0.070689
31
0.0
0
LINE
8
0
6
CONTINUOUS
10
0.011284
20
-0.070689
30
0.0
11
0.009204
21
-0.070689
31
0.0
0
LINE
8
0
6
CONTINUOUS
10
0.009204
20
-0.070689
30
0.0
11
0.006448
21
-0.070689
31
0.0
0
LINE
8
0
6
CONTINUOUS
10
0.006448
20
-0.070689
30
0.0
11
0.003328
21
-0.070689
31
0.0
0
LINE
8
0
6
CONTINUOUS
10
0.003328
20
-0.070689
30
0.0
11
0.000000
21
-0.070689
31
0.0
0
LINE
8
0
6
CONTINUOUS
10
-0.012532
20
-0.070689
30
0.0
11
-0.013000
21
-0.070689
31
0.0
0
LINE
8
0
6
CONTINUOUS
10
-0.011284
20
-0.070689
30
0.0
11
-0.012532
21
-0.070689
31
0.0
0
LINE
8
0
6
CONTINUOUS
10
-0.009204
20
-0.070689
30
0.0
11
-0.011284
21
-0.070689
31
0.0
0
LINE
8
0
6
CONTINUOUS
10
-0.006448
20
-0.070689
30
0.0
11
-0.009204
21
-0.070689
31
0.0
0
LINE
8
0
6
CONTINUOUS
10
-0.003328
20
-0.070689
30
0.0
11
-0.006448
21
-0.070689
31
0.0
0
LINE
8
0
6
CONTINUOUS
10
0.000000
20
-0.070689
30
0.0
11
-0.003328
21
-0.070689
31
0.0
0
LINE
8
0
6
CONTINUOUS
10
-0.013000
20
-0.060612
30
0.0
11
-0.012532
21
-0.060612
31
0.0
0
LINE
8
0
6
CONTINUOUS
10
-0.012532
20
-0.060612
30
0.0
11
-0.011284
21
-0.060612
31
0.0
0
LINE
8
0
6
CONTINUOUS
10
-0.011284
20
-0.060612
30
0.0
11
-0.009204
21
-0.060612
31
0.0
0
LINE
8
0
6
CONTINUOUS
10
0.011280
20
-0.078689
30
0.0
11
0.011712
21
-0.078689
31
0.0
0
LINE
8
0
6
CONTINUOUS
10
0.012000
20
-0.078443
30
0.0
11
0.011568
21
-0.078443
31
0.0
0
LINE
8
0
6
CONTINUOUS
10
0.011712
20
-0.078689
30
0.0
11
0.012000
21
-0.078443
31
0.0
0
LINE
8
0
6
CONTINUOUS
10
0.010128
20
-0.078689
30
0.0
11
0.011280
21
-0.078689
31
0.0
0
LINE
8
0
6
CONTINUOUS
10
0.011568
20
-0.078443
30
0.0
11
0.010416
21
-0.078443
31
0.0
0
LINE
8
0
6
CONTINUOUS
10
0.008256
20
-0.078689
30
0.0
11
0.010128
21
-0.078689
31
0.0
0
LINE
8
0
6
CONTINUOUS
10
0.010416
20
-0.078443
30
0.0
11
0.008496
21
-0.078443
31
0.0
0
LINE
8
0
6
CONTINUOUS
10
0.005808
20
-0.078689
30
0.0
11
0.008256
21
-0.078689
31
0.0
0
LINE
8
0
6
CONTINUOUS
10
0.008496
20
-0.078443
30
0.0
11
0.005952
21
-0.078443
31
0.0
0
LINE
8
0
6
CONTINUOUS
10
0.003024
20
-0.078689
30
0.0
11
0.005808
21
-0.078689
31
0.0
0
LINE
8
0
6
CONTINUOUS
10
0.005952
20
-0.078443
30
0.0
11
0.003072
21
-0.078443
31
0.0
0
LINE
8
0
6
CONTINUOUS
10
0.000000
20
-0.078689
30
0.0
11
0.003024
21
-0.078689
31
0.0
0
LINE
8
0
6
CONTINUOUS
10
0.003072
20
-0.078443
30
0.0
11
0.000000
21
-0.078443
31
0.0
0
LINE
8
0
6
CONTINUOUS
10
-0.011568
20
-0.078443
30
0.0
11
-0.012000
21
-0.078443
31
0.0
0
LINE
8
0
6
CONTINUOUS
10
-0.011712
20
-0.078689
30
0.0
11
-0.011280
21
-0.078689
31
0.0
0
LINE
8
0
6
CONTINUOUS
10
-0.012000
20
-0.078443
30
0.0
11
-0.011712
21
-0.078689
31
0.0
0
LINE
8
0
6
CONTINUOUS
10
-0.010416
20
-0.078443
30
0.0
11
-0.011568
21
-0.078443
31
0.0
0
LINE
8
0
6
CONTINUOUS
10
-0.011280
20
-0.078689
30
0.0
11
-0.010128
21
-0.078689
31
0.0
0
LINE
8
0
6
CONTINUOUS
10
-0.008496
20
-0.078443
30
0.0
11
-0.010416
21
-0.078443
31
0.0
0
LINE
8
0
6
CONTINUOUS
10
-0.010128
20
-0.078689
30
0.0
11
-0.008256
21
-0.078689
31
0.0
0
LINE
8
0
6
CONTINUOUS
10
-0.005952
20
-0.078443
30
0.0
11
-0.008496
21
-0.078443
31
0.0
0
LINE
8
0
6
CONTINUOUS
10
-0.008256
20
-0.078689
30
0.0
11
-0.005808
21
-0.078689
31
0.0
0
LINE
8
0
6
CONTINUOUS
10
-0.003072
20
-0.078443
30
0.0
11
-0.005952
21
-0.078443
31
0.0
0
LINE
8
0
6
CONTINUOUS
10
-0.005808
20
-0.078689
30
0.0
11
-0.003024
21
-0.078689
31
0.0
0
LINE
8
0
6
CONTINUOUS
10
0.000000
20
-0.078443
30
0.0
11
-0.003072
21
-0.078443
31
0.0
0
LINE
8
0
6
CONTINUOUS
10
-0.003024
20
-0.078689
30
0.0
11
0.000000
21
-0.078689
31
0.0
0
LINE
8
0
6
CONTINUOUS
10
-0.009700
20
-0.078689
30
0.0
11
-0.009559
21
-0.078689
31
0.0
0
LINE
8
0
6
CONTINUOUS
10
0.004917
20
-0.078689
30
0.0
11
0.006993
21
-0.078689
31
0.0
0
LINE
8
0
6
CONTINUOUS
10
0.007097
20
-0.078689
30
0.0
11
0.004990
21
-0.078689
31
0.0
0
LINE
8
0
6
CONTINUOUS
10
0.002270
20
0.070879
30
0.0
11
0.002843
21
0.075538
31
0.0
0
LINE
8
0
6
CONTINUOUS
10
0.001963
20
0.066881
30
0.0
11
0.001985
21
0.067786
31
0.0
0
LINE
8
0
6
CONTINUOUS
10
0.001985
20
0.065972
30
0.0
11
0.001963
21
0.066881
31
0.0
0
LINE
8
0
6
CONTINUOUS
10
0.001959
20
0.065436
30
0.0
11
0.001985
21
0.065972
31
0.0
0
LINE
8
0
6
CONTINUOUS
10
0.001917
20
0.064584
30
0.0
11
0.001959
21
0.065436
31
0.0
0
LINE
8
0
6
CONTINUOUS
10
0.001935
20
0.063961
30
0.0
11
0.001917
21
0.064584
31
0.0
0
LINE
8
0
6
CONTINUOUS
10
0.001958
20
0.067722
30
0.0
11
0.002270
21
0.070879
31
0.0
0
LINE
8
0
6
CONTINUOUS
10
0.002769
20
0.075539
30
0.0
11
0.002070
21
0.070880
31
0.0
0
LINE
8
0
6
CONTINUOUS
10
0.002238
20
0.070875
30
0.0
11
0.002769
21
0.075539
31
0.0
0
LINE
8
0
6
CONTINUOUS
10
0.001811
20
0.066464
30
0.0
11
0.001868
21
0.067805
31
0.0
0
LINE
8
0
6
CONTINUOUS
10
0.001515
20
0.067885
30
0.0
11
0.001397
21
0.066326
31
0.0
0
LINE
8
0
6
CONTINUOUS
10
0.001778
20
0.065208
30
0.0
11
0.001811
21
0.066464
31
0.0
0
LINE
8
0
6
CONTINUOUS
10
0.001397
20
0.066326
30
0.0
11
0.001416
21
0.064974
31
0.0
0
LINE
8
0
6
CONTINUOUS
10
0.001747
20
0.064257
30
0.0
11
0.001778
21
0.065208
31
0.0
0
LINE
8
0
6
CONTINUOUS
10
0.001416
20
0.064974
30
0.0
11
0.001475
21
0.063975
31
0.0
0
LINE
8
0
6
CONTINUOUS
10
0.001475
20
0.063975
30
0.0
11
0.001413
21
0.063117
31
0.0
0
LINE
8
0
6
CONTINUOUS
10
0.001868
20
0.067805
30
0.0
11
0.002238
21
0.070875
31
0.0
0
LINE
8
0
6
CONTINUOUS
10
0.002606
20
0.077594
30
0.0
11
0.002084
21
0.078261
31
0.0
0
LINE
8
0
6
CONTINUOUS
10
0.002533
20
0.077595
30
0.0
11
0.002010
21
0.078263
31
0.0
0
LINE
8
0
6
CONTINUOUS
10
0.002267
20
0.077594
30
0.0
11
0.001745
21
0.078362
31
0.0
0
LINE
8
0
6
CONTINUOUS
10
0.001456
20
0.078508
30
0.0
11
0.000000
21
0.078689
31
0.0
0
LINE
8
0
6
CONTINUOUS
10
0.000000
20
0.078689
30
0.0
11
0.001745
21
0.078362
31
0.0
0
LINE
8
0
6
CONTINUOUS
10
0.002606
20
0.077594
30
0.0
11
0.002533
21
0.077595
31
0.0
0
LINE
8
0
6
CONTINUOUS
10
0.002843
20
0.075538
30
0.0
11
0.002606
21
0.077594
31
0.0
0
LINE
8
0
6
CONTINUOUS
10
0.002769
20
0.075539
30
0.0
11
0.002533
21
0.077595
31
0.0
0
LINE
8
0
6
CONTINUOUS
10
0.001745
20
0.078362
30
0.0
11
0.002010
21
0.078263
31
0.0
0
LINE
8
0
6
CONTINUOUS
10
0.002084
20
0.078261
30
0.0
11
0.001456
21
0.078508
31
0.0
0
LINE
8
0
6
CONTINUOUS
10
0.002010
20
0.078263
30
0.0
11
0.002084
21
0.078261
31
0.0
0
LINE
8
0
6
CONTINUOUS
10
-0.001935
20
0.063961
30
0.0
11
-0.002163
21
0.058175
31
0.0
0
LINE
8
0
6
CONTINUOUS
10
0.001515
20
0.067885
30
0.0
11
0.002070
21
0.070880
31
0.0
0
LINE
8
0
6
CONTINUOUS
10
0.001413
20
0.063117
30
0.0
11
0.000000
21
0.062990
31
0.0
0
LINE
8
0
6
CONTINUOUS
10
0.001022
20
0.058137
30
0.0
11
0.001413
21
0.063117
31
0.0
0
LINE
8
0
6
CONTINUOUS
10
-0.002843
20
0.075538
30
0.0
11
-0.002270
21
0.070879
31
0.0
0
LINE
8
0
6
CONTINUOUS
10
-0.001985
20
0.067786
30
0.0
11
-0.001963
21
0.066881
31
0.0
0
LINE
8
0
6
CONTINUOUS
10
-0.001963
20
0.066881
30
0.0
11
-0.001985
21
0.065972
31
0.0
0
LINE
8
0
6
CONTINUOUS
10
-0.001959
20
0.065436
30
0.0
11
-0.001917
21
0.064584
31
0.0
0
LINE
8
0
6
CONTINUOUS
10
-0.001985
20
0.065972
30
0.0
11
-0.001959
21
0.065436
31
0.0
0
LINE
8
0
6
CONTINUOUS
10
-0.001917
20
0.064584
30
0.0
11
-0.001935
21
0.063961
31
0.0
0
LINE
8
0
6
CONTINUOUS
10
-0.002270
20
0.070879
30
0.0
11
-0.001958
21
0.067722
31
0.0
0
LINE
8
0
6
CONTINUOUS
10
-0.002769
20
0.075539
30
0.0
11
-0.002238
21
0.070875
31
0.0
0
LINE
8
0
6
CONTINUOUS
10
-0.002769
20
0.075539
30
0.0
11
-0.002070
21
0.070880
31
0.0
0
LINE
8
0
6
CONTINUOUS
10
-0.001397
20
0.066326
30
0.0
11
-0.001515
21
0.067885
31
0.0
0
LINE
8
0
6
CONTINUOUS
10
-0.001868
20
0.067805
30
0.0
11
-0.001811
21
0.066464
31
0.0
0
LINE
8
0
6
CONTINUOUS
10
-0.001416
20
0.064974
30
0.0
11
-0.001397
21
0.066326
31
0.0
0
LINE
8
0
6
CONTINUOUS
10
-0.001811
20
0.066464
30
0.0
11
-0.001778
21
0.065208
31
0.0
0
LINE
8
0
6
CONTINUOUS
10
-0.001475
20
0.063975
30
0.0
11
-0.001416
21
0.064974
31
0.0
0
LINE
8
0
6
CONTINUOUS
10
-0.001778
20
0.065208
30
0.0
11
-0.001747
21
0.064257
31
0.0
0
LINE
8
0
6
CONTINUOUS
10
-0.001413
20
0.063117
30
0.0
11
-0.001475
21
0.063975
31
0.0
0
LINE
8
0
6
CONTINUOUS
10
-0.002238
20
0.070875
30
0.0
11
-0.001868
21
0.067805
31
0.0
0
LINE
8
0
6
CONTINUOUS
10
-0.002084
20
0.078261
30
0.0
11
-0.002606
21
0.077594
31
0.0
0
LINE
8
0
6
CONTINUOUS
10
-0.002010
20
0.078263
30
0.0
11
-0.002533
21
0.077595
31
0.0
0
LINE
8
0
6
CONTINUOUS
10
-0.001745
20
0.078362
30
0.0
11
-0.002267
21
0.077594
31
0.0
0
LINE
8
0
6
CONTINUOUS
10
0.000000
20
0.077582
30
0.0
11
0.000000
21
0.078689
31
0.0
0
LINE
8
0
6
CONTINUOUS
10
0.000000
20
0.078689
30
0.0
11
-0.001456
21
0.078508
31
0.0
0
LINE
8
0
6
CONTINUOUS
10
-0.001745
20
0.078362
30
0.0
11
0.000000
21
0.078689
31
0.0
0
LINE
8
0
6
CONTINUOUS
10
-0.002606
20
0.077594
30
0.0
11
-0.002843
21
0.075538
31
0.0
0
LINE
8
0
6
CONTINUOUS
10
-0.002533
20
0.077595
30
0.0
11
-0.002606
21
0.077594
31
0.0
0
LINE
8
0
6
CONTINUOUS
10
-0.002533
20
0.077595
30
0.0
11
-0.002769
21
0.075539
31
0.0
0
LINE
8
0
6
CONTINUOUS
10
-0.002084
20
0.078261
30
0.0
11
-0.002010
21
0.078263
31
0.0
0
LINE
8
0
6
CONTINUOUS
10
-0.001456
20
0.078508
30
0.0
11
-0.002084
21
0.078261
31
0.0
0
LINE
8
0
6
CONTINUOUS
10
-0.002010
20
0.078263
30
0.0
11
-0.001745
21
0.078362
31
0.0
0
LINE
8
0
6
CONTINUOUS
10
-0.002070
20
0.070880
30
0.0
11
-0.001515
21
0.067885
31
0.0
0
LINE
8
0
6
CONTINUOUS
10
-0.001770
20
0.063571
30
0.0
11
-0.001921
21
0.058111
31
0.0
0
LINE
8
0
6
CONTINUOUS
10
0.000000
20
0.062990
30
0.0
11
-0.001413
21
0.063117
31
0.0
0
LINE
8
0
6
CONTINUOUS
10
-0.001413
20
0.063117
30
0.0
11
-0.001373
21
0.058099
31
0.0
0
LINE
8
0
6
CONTINUOUS
10
0.001724
20
0.058222
30
0.0
11
0.001935
21
0.063961
31
0.0
0
LINE
8
0
6
CONTINUOUS
10
-0.017462
20
-0.035220
30
0.0
11
-0.016678
21
-0.044923
31
0.0
0
LINE
8
0
6
CONTINUOUS
10
-0.019783
20
0.037321
30
0.0
11
-0.019268
21
0.033434
31
0.0
0
LINE
8
0
6
CONTINUOUS
10
-0.019327
20
0.037321
30
0.0
11
-0.019006
21
0.016426
31
0.0
0
LINE
8
0
6
CONTINUOUS
10
-0.016455
20
0.047533
30
0.0
11
-0.013435
21
0.051471
31
0.0
0
LINE
8
0
6
CONTINUOUS
10
-0.016678
20
-0.044923
30
0.0
11
-0.016569
21
-0.046262
31
0.0
0
LINE
8
0
6
CONTINUOUS
10
-0.016569
20
-0.046262
30
0.0
11
-0.016540
21
-0.046438
31
0.0
0
LINE
8
0
6
CONTINUOUS
10
-0.014796
20
-0.050173
30
0.0
11
-0.016569
21
-0.046262
31
0.0
0
LINE
8
0
6
CONTINUOUS
10
-0.007670
20
-0.054724
30
0.0
11
0.000000
21
-0.054724
31
0.0
0
LINE
8
0
6
CONTINUOUS
10
-0.008369
20
-0.054647
30
0.0
11
-0.007670
21
-0.054724
31
0.0
0
LINE
8
0
6
CONTINUOUS
10
-0.011581
20
-0.052897
30
0.0
11
-0.007670
21
-0.054724
31
0.0
0
LINE
8
0
6
CONTINUOUS
10
-0.014796
20
-0.050173
30
0.0
11
-0.014931
21
-0.050178
31
0.0
0
LINE
8
0
6
CONTINUOUS
10
-0.014796
20
-0.050173
30
0.0
11
-0.011581
21
-0.052897
31
0.0
0
LINE
8
0
6
CONTINUOUS
10
-0.019000
20
0.037321
30
0.0
11
-0.019000
21
0.017541
31
0.0
0
LINE
8
0
6
CONTINUOUS
10
-0.009500
20
0.054492
30
0.0
11
-0.013435
21
0.051471
31
0.0
0
LINE
8
0
6
CONTINUOUS
10
-0.004918
20
0.056390
30
0.0
11
-0.009500
21
0.054492
31
0.0
0
LINE
8
0
6
CONTINUOUS
10
-0.009527
20
-0.054279
30
0.0
11
-0.008369
21
-0.054647
31
0.0
0
LINE
8
0
6
CONTINUOUS
10
-0.012651
20
-0.052857
30
0.0
11
-0.009527
21
-0.054279
31
0.0
0
LINE
8
0
6
CONTINUOUS
10
-0.019006
20
0.016426
30
0.0
11
-0.017462
21
-0.035220
31
0.0
0
LINE
8
0
6
CONTINUOUS
10
-0.017462
20
-0.035220
30
0.0
11
-0.019000
21
0.017541
31
0.0
0
LINE
8
0
6
CONTINUOUS
10
-0.016455
20
-0.046802
30
0.0
11
-0.015138
21
-0.050275
31
0.0
0
LINE
8
0
6
CONTINUOUS
10
-0.016540
20
-0.046438
30
0.0
11
-0.016455
21
-0.046802
31
0.0
0
LINE
8
0
6
CONTINUOUS
10
-0.015138
20
-0.050275
30
0.0
11
-0.012651
21
-0.052857
31
0.0
0
LINE
8
0
6
CONTINUOUS
10
-0.015875
20
0.053786
30
0.0
11
-0.019443
21
0.049133
31
0.0
0
LINE
8
0
6
CONTINUOUS
10
-0.011225
20
0.057356
30
0.0
11
-0.015875
21
0.053786
31
0.0
0
LINE
8
0
6
CONTINUOUS
10
-0.019443
20
0.049133
30
0.0
11
-0.021685
21
0.043713
31
0.0
0
LINE
8
0
6
CONTINUOUS
10
-0.002089
20
0.060055
30
0.0
11
-0.005811
21
0.059598
31
0.0
0
LINE
8
0
6
CONTINUOUS
10
-0.023000
20
0.037321
30
0.0
11
-0.022218
21
0.031366
31
0.0
0
LINE
8
0
6
CONTINUOUS
10
-0.005811
20
0.059598
30
0.0
11
-0.011225
21
0.057356
31
0.0
0
LINE
8
0
6
CONTINUOUS
10
-0.022218
20
0.031366
30
0.0
11
-0.019922
21
0.025817
31
0.0
0
LINE
8
0
6
CONTINUOUS
10
-0.019922
20
0.025817
30
0.0
11
-0.019135
21
0.024791
31
0.0
0
LINE
8
0
6
CONTINUOUS
10
-0.021685
20
0.043713
30
0.0
11
-0.023000
21
0.037321
31
0.0
0
LINE
8
0
6
CONTINUOUS
10
0.016678
20
-0.044923
30
0.0
11
0.017462
21
-0.035220
31
0.0
0
LINE
8
0
6
CONTINUOUS
10
0.019268
20
0.033434
30
0.0
11
0.019783
21
0.037321
31
0.0
0
LINE
8
0
6
CONTINUOUS
10
0.019006
20
0.016426
30
0.0
11
0.019327
21
0.037321
31
0.0
0
LINE
8
0
6
CONTINUOUS
10
0.013435
20
0.051471
30
0.0
11
0.016455
21
0.047533
31
0.0
0
LINE
8
0
6
CONTINUOUS
10
0.016569
20
-0.046262
30
0.0
11
0.016678
21
-0.044923
31
0.0
0
LINE
8
0
6
CONTINUOUS
10
0.016569
20
-0.046262
30
0.0
11
0.014796
21
-0.050173
31
0.0
0
LINE
8
0
6
CONTINUOUS
10
0.016540
20
-0.046438
30
0.0
11
0.016569
21
-0.046262
31
0.0
0
LINE
8
0
6
CONTINUOUS
10
0.000000
20
-0.054724
30
0.0
11
0.007670
21
-0.054724
31
0.0
0
LINE
8
0
6
CONTINUOUS
10
0.007670
20
-0.054724
30
0.0
11
0.008369
21
-0.054647
31
0.0
0
LINE
8
0
6
CONTINUOUS
10
0.007670
20
-0.054724
30
0.0
11
0.011581
21
-0.052897
31
0.0
0
LINE
8
0
6
CONTINUOUS
10
0.014931
20
-0.050178
30
0.0
11
0.014796
21
-0.050173
31
0.0
0
LINE
8
0
6
CONTINUOUS
10
0.011581
20
-0.052897
30
0.0
11
0.014796
21
-0.050173
31
0.0
0
LINE
8
0
6
CONTINUOUS
10
0.019000
20
0.017541
30
0.0
11
0.019000
21
0.037321
31
0.0
0
LINE
8
0
6
CONTINUOUS
10
0.013435
20
0.051471
30
0.0
11
0.009500
21
0.054492
31
0.0
0
LINE
8
0
6
CONTINUOUS
10
0.009500
20
0.054492
30
0.0
11
0.004918
21
0.056390
31
0.0
0
LINE
8
0
6
CONTINUOUS
10
0.009527
20
-0.054279
30
0.0
11
0.012651
21
-0.052857
31
0.0
0
LINE
8
0
6
CONTINUOUS
10
0.008369
20
-0.054647
30
0.0
11
0.009527
21
-0.054279
31
0.0
0
LINE
8
0
6
CONTINUOUS
10
0.017462
20
-0.035220
30
0.0
11
0.019006
21
0.016426
31
0.0
0
LINE
8
0
6
CONTINUOUS
10
0.019000
20
0.017541
30
0.0
11
0.017462
21
-0.035220
31
0.0
0
LINE
8
0
6
CONTINUOUS
10
0.016455
20
-0.046802
30
0.0
11
0.016540
21
-0.046438
31
0.0
0
LINE
8
0
6
CONTINUOUS
10
0.015138
20
-0.050275
30
0.0
11
0.016455
21
-0.046802
31
0.0
0
LINE
8
0
6
CONTINUOUS
10
0.012651
20
-0.052857
30
0.0
11
0.015138
21
-0.050275
31
0.0
0
LINE
8
0
6
CONTINUOUS
10
0.019443
20
0.049133
30
0.0
11
0.015875
21
0.053786
31
0.0
0
LINE
8
0
6
CONTINUOUS
10
0.015875
20
0.053786
30
0.0
11
0.011225
21
0.057356
31
0.0
0
LINE
8
0
6
CONTINUOUS
10
0.021685
20
0.043713
30
0.0
11
0.019443
21
0.049133
31
0.0
0
LINE
8
0
6
CONTINUOUS
10
0.005811
20
0.059598
30
0.0
11
0.001793
21
0.060091
31
0.0
0
LINE
8
0
6
CONTINUOUS
10
0.022218
20
0.031366
30
0.0
11
0.023000
21
0.037321
31
0.0
0
LINE
8
0
6
CONTINUOUS
10
0.011225
20
0.057356
30
0.0
11
0.005811
21
0.059598
31
0.0
0
LINE
8
0
6
CONTINUOUS
10
0.019922
20
0.025817
30
0.0
11
0.022218
21
0.031366
31
0.0
0
LINE
8
0
6
CONTINUOUS
10
0.019135
20
0.024791
30
0.0
11
0.019922
21
0.025817
31
0.0
0
LINE
8
0
6
CONTINUOUS
10
0.023000
20
0.037321
30
0.0
11
0.021685
21
0.043713
31
0.0
0
LINE
8
0
6
CONTINUOUS
10
0.017119
20
0.010883
30
0.0
11
0.017888
21
0.021966
31
0.0
0
LINE
8
0
6
CONTINUOUS
10
0.017888
20
0.021966
30
0.0
11
0.018657
21
0.033050
31
0.0
0
LINE
8
0
6
CONTINUOUS
10
0.015598
20
-0.011046
30
0.0
11
0.016105
21
-0.003736
31
0.0
0
LINE
8
0
6
CONTINUOUS
10
0.016105
20
-0.003736
30
0.0
11
0.016612
21
0.003573
31
0.0
0
LINE
8
0
6
CONTINUOUS
10
0.014077
20
-0.032974
30
0.0
11
0.014838
21
-0.022010
31
0.0
0
LINE
8
0
6
CONTINUOUS
10
0.012856
20
-0.036546
30
0.0
11
0.014077
21
-0.032974
31
0.0
0
LINE
8
0
6
CONTINUOUS
10
0.016612
20
0.003573
30
0.0
11
0.017119
21
0.010883
31
0.0
0
LINE
8
0
6
CONTINUOUS
10
-0.000000
20
-0.040033
30
0.0
11
0.003216
21
-0.040033
31
0.0
0
LINE
8
0
6
CONTINUOUS
10
0.014838
20
-0.022010
30
0.0
11
0.015598
21
-0.011046
31
0.0
0
LINE
8
0
6
CONTINUOUS
10
0.003216
20
-0.040033
30
0.0
11
0.006432
21
-0.040033
31
0.0
0
LINE
8
0
6
CONTINUOUS
10
0.010085
20
-0.039105
30
0.0
11
0.012856
21
-0.036546
31
0.0
0
LINE
8
0
6
CONTINUOUS
10
0.006432
20
-0.040033
30
0.0
11
0.010085
21
-0.039105
31
0.0
0
LINE
8
0
6
CONTINUOUS
10
0.018353
20
0.042923
30
0.0
11
0.019000
21
0.037995
31
0.0
0
LINE
8
0
6
CONTINUOUS
10
0.018353
20
0.042923
30
0.0
11
0.016454
21
0.047515
31
0.0
0
LINE
8
0
6
CONTINUOUS
10
0.016454
20
0.047515
30
0.0
11
0.013435
21
0.051459
31
0.0
0
LINE
8
0
6
CONTINUOUS
10
0.009500
20
0.054485
30
0.0
11
0.013435
21
0.051459
31
0.0
0
LINE
8
0
6
CONTINUOUS
10
0.004918
20
0.056387
30
0.0
11
0.009500
21
0.054485
31
0.0
0
LINE
8
0
6
CONTINUOUS
10
0.000000
20
0.057036
30
0.0
11
0.004918
21
0.056387
31
0.0
0
LINE
8
0
6
CONTINUOUS
10
0.018657
20
0.033050
30
0.0
11
0.019000
21
0.037995
31
0.0
0
LINE
8
0
6
CONTINUOUS
10
-0.017888
20
0.021966
30
0.0
11
-0.017119
21
0.010883
31
0.0
0
LINE
8
0
6
CONTINUOUS
10
-0.018657
20
0.033050
30
0.0
11
-0.017888
21
0.021966
31
0.0
0
LINE
8
0
6
CONTINUOUS
10
-0.016105
20
-0.003736
30
0.0
11
-0.015598
21
-0.011046
31
0.0
0
LINE
8
0
6
CONTINUOUS
10
-0.016612
20
0.003573
30
0.0
11
-0.016105
21
-0.003736
31
0.0
0
LINE
8
0
6
CONTINUOUS
10
-0.014838
20
-0.022010
30
0.0
11
-0.014077
21
-0.032974
31
0.0
0
LINE
8
0
6
CONTINUOUS
10
-0.014077
20
-0.032974
30
0.0
11
-0.012856
21
-0.036546
31
0.0
0
LINE
8
0
6
CONTINUOUS
10
-0.017119
20
0.010883
30
0.0
11
-0.016612
21
0.003573
31
0.0
0
LINE
8
0
6
CONTINUOUS
10
-0.003216
20
-0.040033
30
0.0
11
-0.000000
21
-0.040033
31
0.0
0
LINE
8
0
6
CONTINUOUS
10
-0.015598
20
-0.011046
30
0.0
11
-0.014838
21
-0.022010
31
0.0
0
LINE
8
0
6
CONTINUOUS
10
-0.006432
20
-0.040033
30
0.0
11
-0.003216
21
-0.040033
31
0.0
0
LINE
8
0
6
CONTINUOUS
10
-0.012856
20
-0.036546
30
0.0
11
-0.010085
21
-0.039105
31
0.0
0
LINE
8
0
6
CONTINUOUS
10
-0.010085
20
-0.039105
30
0.0
11
-0.006432
21
-0.040033
31
0.0
0
LINE
8
0
6
CONTINUOUS
10
-0.019000
20
0.037995
30
0.0
11
-0.018353
21
0.042923
31
0.0
0
LINE
8
0
6
CONTINUOUS
10
-0.016455
20
0.047515
30
0.0
11
-0.018353
21
0.042923
31
0.0
0
LINE
8
0
6
CONTINUOUS
10
-0.013435
20
0.051459
30
0.0
11
-0.016455
21
0.047515
31
0.0
0
LINE
8
0
6
CONTINUOUS
10
-0.013435
20
0.051459
30
0.0
11
-0.009500
21
0.054485
31
0.0
0
LINE
8
0
6
CONTINUOUS
10
-0.009500
20
0.054485
30
0.0
11
-0.004918
21
0.056387
31
0.0
0
LINE
8
0
6
CONTINUOUS
10
-0.004918
20
0.056387
30
0.0
11
0.000000
21
0.057036
31
0.0
0
LINE
8
0
6
CONTINUOUS
10
-0.019000
20
0.037995
30
0.0
11
-0.018657
21
0.033050
31
0.0
0
LINE
8
0
6
CONTINUOUS
10
-0.001545
20
0.058108
30
0.0
11
-0.001373
21
0.058099
31
0.0
0
LINE
8
0
6
CONTINUOUS
10
-0.001921
20
0.058111
30
0.0
11
-0.001545
21
0.058108
31
0.0
0
LINE
8
0
6
CONTINUOUS
10
-0.001997
20
0.058124
30
0.0
11
-0.001921
21
0.058111
31
0.0
0
LINE
8
0
6
CONTINUOUS
10
-0.002062
20
0.058145
30
0.0
11
-0.001997
21
0.058124
31
0.0
0
LINE
8
0
6
CONTINUOUS
10
-0.001373
20
0.058099
30
0.0
11
-0.000908
21
0.058135
31
0.0
0
LINE
8
0
6
CONTINUOUS
10
-0.002163
20
0.058175
30
0.0
11
-0.002062
21
0.058145
31
0.0
0
LINE
8
0
6
CONTINUOUS
10
0.000293
20
0.058207
30
0.0
11
0.001022
21
0.058137
31
0.0
0
LINE
8
0
6
CONTINUOUS
10
0.001635
20
0.058196
30
0.0
11
0.001529
21
0.058153
31
0.0
0
ENDSEC
0
EOF
