999
Erzeugt mit innoplus bad 
0
SECTION
2
HEADER
9
$ACADVER
1
AC1009
9
$DWGCODEPAGE
3
ISO8859-1
0
ENDSEC
0
SECTION
2
TABLES
0
TABLE
2
LAYER
70
1
0
LAYER
2
0
70
0
62
7
6
CONTINUOUS
0
ENDTAB
0
ENDSEC
0
SECTION
2
ENTITIES
0
LINE
8
0
6
CONTINUOUS
10
-0.018992
20
0.042975
30
0.0
11
-0.019051
21
0.037629
31
0.0
0
LINE
8
0
6
CONTINUOUS
10
-0.019051
20
0.037629
30
0.0
11
-0.018965
21
0.031978
31
0.0
0
LINE
8
0
6
CONTINUOUS
10
-0.018996
20
0.032695
30
0.0
11
-0.019000
21
0.022415
31
0.0
0
LINE
8
0
6
CONTINUOUS
10
-0.004918
20
0.061263
30
0.0
11
-0.009500
21
0.059365
31
0.0
0
LINE
8
0
6
CONTINUOUS
10
-0.016455
20
0.052406
30
0.0
11
-0.018353
21
0.047819
31
0.0
0
LINE
8
0
6
CONTINUOUS
10
-0.013435
20
0.056344
30
0.0
11
-0.016455
21
0.052406
31
0.0
0
LINE
8
0
6
CONTINUOUS
10
-0.009500
20
0.059365
30
0.0
11
-0.013435
21
0.056344
31
0.0
0
LINE
8
0
6
CONTINUOUS
10
-0.018353
20
0.047819
30
0.0
11
-0.018992
21
0.042975
31
0.0
0
LINE
8
0
6
CONTINUOUS
10
-0.000000
20
0.061855
30
0.0
11
-0.004918
21
0.061263
31
0.0
0
LINE
8
0
6
CONTINUOUS
10
-0.016853
20
-0.083197
30
0.0
11
-0.014454
21
-0.083815
31
0.0
0
LINE
8
0
6
CONTINUOUS
10
-0.017514
20
-0.080819
30
0.0
11
-0.016853
21
-0.083197
31
0.0
0
LINE
8
0
6
CONTINUOUS
10
-0.012511
20
-0.083815
30
0.0
11
-0.000000
21
-0.083815
31
0.0
0
LINE
8
0
6
CONTINUOUS
10
-0.019000
20
0.022415
30
0.0
11
-0.017550
21
-0.078637
31
0.0
0
LINE
8
0
6
CONTINUOUS
10
-0.017550
20
-0.078637
30
0.0
11
-0.017514
21
-0.080819
31
0.0
0
LINE
8
0
6
CONTINUOUS
10
-0.014454
20
-0.083815
30
0.0
11
-0.012511
21
-0.083815
31
0.0
0
LINE
8
0
6
CONTINUOUS
10
-0.018992
20
0.042975
30
0.0
11
-0.018996
21
0.032695
31
0.0
0
LINE
8
0
6
CONTINUOUS
10
0.019051
20
0.037629
30
0.0
11
0.018992
21
0.042975
31
0.0
0
LINE
8
0
6
CONTINUOUS
10
0.018965
20
0.031978
30
0.0
11
0.019051
21
0.037629
31
0.0
0
LINE
8
0
6
CONTINUOUS
10
0.019000
20
0.022415
30
0.0
11
0.018996
21
0.032695
31
0.0
0
LINE
8
0
6
CONTINUOUS
10
0.009500
20
0.059365
30
0.0
11
0.004918
21
0.061263
31
0.0
0
LINE
8
0
6
CONTINUOUS
10
0.018353
20
0.047819
30
0.0
11
0.016454
21
0.052406
31
0.0
0
LINE
8
0
6
CONTINUOUS
10
0.016454
20
0.052406
30
0.0
11
0.013435
21
0.056344
31
0.0
0
LINE
8
0
6
CONTINUOUS
10
0.013435
20
0.056344
30
0.0
11
0.009500
21
0.059365
31
0.0
0
LINE
8
0
6
CONTINUOUS
10
0.018992
20
0.042975
30
0.0
11
0.018353
21
0.047819
31
0.0
0
LINE
8
0
6
CONTINUOUS
10
0.004918
20
0.061263
30
0.0
11
-0.000000
21
0.061855
31
0.0
0
LINE
8
0
6
CONTINUOUS
10
0.014454
20
-0.083815
30
0.0
11
0.016852
21
-0.083197
31
0.0
0
LINE
8
0
6
CONTINUOUS
10
0.016852
20
-0.083197
30
0.0
11
0.017514
21
-0.080819
31
0.0
0
LINE
8
0
6
CONTINUOUS
10
-0.000000
20
-0.083815
30
0.0
11
0.012511
21
-0.083815
31
0.0
0
LINE
8
0
6
CONTINUOUS
10
0.017550
20
-0.078637
30
0.0
11
0.019000
21
0.022415
31
0.0
0
LINE
8
0
6
CONTINUOUS
10
0.017514
20
-0.080819
30
0.0
11
0.017550
21
-0.078637
31
0.0
0
LINE
8
0
6
CONTINUOUS
10
0.012511
20
-0.083815
30
0.0
11
0.014454
21
-0.083815
31
0.0
0
LINE
8
0
6
CONTINUOUS
10
0.018996
20
0.032695
30
0.0
11
0.018992
21
0.042975
31
0.0
0
LINE
8
0
6
CONTINUOUS
10
0.002269
20
0.072667
30
0.0
11
0.002843
21
0.080664
31
0.0
0
LINE
8
0
6
CONTINUOUS
10
0.001963
20
0.068670
30
0.0
11
0.001985
21
0.069575
31
0.0
0
LINE
8
0
6
CONTINUOUS
10
0.001985
20
0.067761
30
0.0
11
0.001963
21
0.068670
31
0.0
0
LINE
8
0
6
CONTINUOUS
10
0.001959
20
0.067225
30
0.0
11
0.001985
21
0.067761
31
0.0
0
LINE
8
0
6
CONTINUOUS
10
0.001917
20
0.066372
30
0.0
11
0.001959
21
0.067225
31
0.0
0
LINE
8
0
6
CONTINUOUS
10
0.001935
20
0.065750
30
0.0
11
0.001917
21
0.066372
31
0.0
0
LINE
8
0
6
CONTINUOUS
10
0.001958
20
0.069511
30
0.0
11
0.002269
21
0.072667
31
0.0
0
LINE
8
0
6
CONTINUOUS
10
0.001416
20
0.066763
30
0.0
11
0.001475
21
0.065764
31
0.0
0
LINE
8
0
6
CONTINUOUS
10
0.001475
20
0.065764
30
0.0
11
0.001413
21
0.064905
31
0.0
0
LINE
8
0
6
CONTINUOUS
10
0.001868
20
0.069594
30
0.0
11
0.002238
21
0.072663
31
0.0
0
LINE
8
0
6
CONTINUOUS
10
0.002606
20
0.082720
30
0.0
11
0.002084
21
0.083388
31
0.0
0
LINE
8
0
6
CONTINUOUS
10
0.002533
20
0.082722
30
0.0
11
0.002010
21
0.083389
31
0.0
0
LINE
8
0
6
CONTINUOUS
10
0.001456
20
0.083635
30
0.0
11
-0.000000
21
0.083815
31
0.0
0
LINE
8
0
6
CONTINUOUS
10
-0.000000
20
0.083815
30
0.0
11
0.001745
21
0.083488
31
0.0
0
LINE
8
0
6
CONTINUOUS
10
0.002843
20
0.080664
30
0.0
11
0.002606
21
0.082720
31
0.0
0
LINE
8
0
6
CONTINUOUS
10
0.002769
20
0.080666
30
0.0
11
0.002533
21
0.082722
31
0.0
0
LINE
8
0
6
CONTINUOUS
10
0.001745
20
0.083488
30
0.0
11
0.002010
21
0.083389
31
0.0
0
LINE
8
0
6
CONTINUOUS
10
0.002084
20
0.083388
30
0.0
11
0.001456
21
0.083635
31
0.0
0
LINE
8
0
6
CONTINUOUS
10
-0.001935
20
0.065750
30
0.0
11
-0.002070
21
0.061606
31
0.0
0
LINE
8
0
6
CONTINUOUS
10
0.001515
20
0.069674
30
0.0
11
0.002070
21
0.072668
31
0.0
0
LINE
8
0
6
CONTINUOUS
10
0.001203
20
0.061710
30
0.0
11
0.001413
21
0.064905
31
0.0
0
LINE
8
0
6
CONTINUOUS
10
-0.002843
20
0.080664
30
0.0
11
-0.002270
21
0.072667
31
0.0
0
LINE
8
0
6
CONTINUOUS
10
-0.001985
20
0.069575
30
0.0
11
-0.001963
21
0.068670
31
0.0
0
LINE
8
0
6
CONTINUOUS
10
-0.001963
20
0.068670
30
0.0
11
-0.001985
21
0.067761
31
0.0
0
LINE
8
0
6
CONTINUOUS
10
-0.001960
20
0.067225
30
0.0
11
-0.001917
21
0.066372
31
0.0
0
LINE
8
0
6
CONTINUOUS
10
-0.001985
20
0.067761
30
0.0
11
-0.001960
21
0.067225
31
0.0
0
LINE
8
0
6
CONTINUOUS
10
-0.001917
20
0.066372
30
0.0
11
-0.001935
21
0.065750
31
0.0
0
LINE
8
0
6
CONTINUOUS
10
-0.002270
20
0.072667
30
0.0
11
-0.001958
21
0.069511
31
0.0
0
LINE
8
0
6
CONTINUOUS
10
-0.001475
20
0.065764
30
0.0
11
-0.001416
21
0.066763
31
0.0
0
LINE
8
0
6
CONTINUOUS
10
-0.001413
20
0.064905
30
0.0
11
-0.001475
21
0.065764
31
0.0
0
LINE
8
0
6
CONTINUOUS
10
-0.002238
20
0.072663
30
0.0
11
-0.001868
21
0.069594
31
0.0
0
LINE
8
0
6
CONTINUOUS
10
-0.002084
20
0.083388
30
0.0
11
-0.002606
21
0.082720
31
0.0
0
LINE
8
0
6
CONTINUOUS
10
-0.002010
20
0.083389
30
0.0
11
-0.002533
21
0.082722
31
0.0
0
LINE
8
0
6
CONTINUOUS
10
-0.000000
20
0.083815
30
0.0
11
-0.001456
21
0.083635
31
0.0
0
LINE
8
0
6
CONTINUOUS
10
-0.001745
20
0.083488
30
0.0
11
-0.000000
21
0.083815
31
0.0
0
LINE
8
0
6
CONTINUOUS
10
-0.002606
20
0.082720
30
0.0
11
-0.002843
21
0.080664
31
0.0
0
LINE
8
0
6
CONTINUOUS
10
-0.002533
20
0.082722
30
0.0
11
-0.002769
21
0.080666
31
0.0
0
LINE
8
0
6
CONTINUOUS
10
-0.001456
20
0.083635
30
0.0
11
-0.002084
21
0.083388
31
0.0
0
LINE
8
0
6
CONTINUOUS
10
-0.002010
20
0.083389
30
0.0
11
-0.001745
21
0.083488
31
0.0
0
LINE
8
0
6
CONTINUOUS
10
-0.002070
20
0.072668
30
0.0
11
-0.001515
21
0.069674
31
0.0
0
LINE
8
0
6
CONTINUOUS
10
-0.001413
20
0.064905
30
0.0
11
-0.001391
21
0.061687
31
0.0
0
LINE
8
0
6
CONTINUOUS
10
0.001810
20
0.061637
30
0.0
11
0.001935
21
0.065750
31
0.0
0
LINE
8
0
6
CONTINUOUS
10
-0.000000
20
0.068185
30
0.0
11
0.005785
21
0.067533
31
0.0
0
LINE
8
0
6
CONTINUOUS
10
0.005785
20
0.067533
30
0.0
11
0.011281
21
0.065610
31
0.0
0
LINE
8
0
6
CONTINUOUS
10
0.011281
20
0.065610
30
0.0
11
0.016211
21
0.062513
31
0.0
0
LINE
8
0
6
CONTINUOUS
10
0.020328
20
0.058396
30
0.0
11
0.016211
21
0.062513
31
0.0
0
LINE
8
0
6
CONTINUOUS
10
0.023425
20
0.053466
30
0.0
11
0.020328
21
0.058396
31
0.0
0
LINE
8
0
6
CONTINUOUS
10
0.025348
20
0.047970
30
0.0
11
0.023425
21
0.053466
31
0.0
0
LINE
8
0
6
CONTINUOUS
10
0.026000
20
0.042185
30
0.0
11
0.025348
21
0.047970
31
0.0
0
LINE
8
0
6
CONTINUOUS
10
0.025348
20
0.036399
30
0.0
11
0.026000
21
0.042185
31
0.0
0
LINE
8
0
6
CONTINUOUS
10
0.023425
20
0.030904
30
0.0
11
0.025348
21
0.036399
31
0.0
0
LINE
8
0
6
CONTINUOUS
10
0.020328
20
0.025974
30
0.0
11
0.023425
21
0.030904
31
0.0
0
LINE
8
0
6
CONTINUOUS
10
0.020328
20
0.025974
30
0.0
11
0.018999
21
0.024646
31
0.0
0
LINE
8
0
6
CONTINUOUS
10
-0.020328
20
0.025974
30
0.0
11
-0.018999
21
0.024646
31
0.0
0
LINE
8
0
6
CONTINUOUS
10
-0.023425
20
0.030904
30
0.0
11
-0.020328
21
0.025974
31
0.0
0
LINE
8
0
6
CONTINUOUS
10
-0.025348
20
0.036399
30
0.0
11
-0.023425
21
0.030904
31
0.0
0
LINE
8
0
6
CONTINUOUS
10
-0.026000
20
0.042185
30
0.0
11
-0.025348
21
0.036399
31
0.0
0
LINE
8
0
6
CONTINUOUS
10
-0.026000
20
0.042185
30
0.0
11
-0.025348
21
0.047970
31
0.0
0
LINE
8
0
6
CONTINUOUS
10
-0.025348
20
0.047970
30
0.0
11
-0.023425
21
0.053466
31
0.0
0
LINE
8
0
6
CONTINUOUS
10
-0.023425
20
0.053466
30
0.0
11
-0.020328
21
0.058396
31
0.0
0
LINE
8
0
6
CONTINUOUS
10
-0.020328
20
0.058396
30
0.0
11
-0.016211
21
0.062513
31
0.0
0
LINE
8
0
6
CONTINUOUS
10
-0.016211
20
0.062513
30
0.0
11
-0.011281
21
0.065610
31
0.0
0
LINE
8
0
6
CONTINUOUS
10
-0.005786
20
0.067533
30
0.0
11
-0.011281
21
0.065610
31
0.0
0
LINE
8
0
6
CONTINUOUS
10
-0.000000
20
0.068185
30
0.0
11
-0.005786
21
0.067533
31
0.0
0
LINE
8
0
6
CONTINUOUS
10
0.128900
20
0.056867
30
0.0
11
0.125016
21
0.057137
31
0.0
0
LINE
8
0
6
CONTINUOUS
10
0.110574
20
0.046055
30
0.0
11
0.110064
21
0.042185
31
0.0
0
LINE
8
0
6
CONTINUOUS
10
0.112067
20
0.049661
30
0.0
11
0.110574
21
0.046055
31
0.0
0
LINE
8
0
6
CONTINUOUS
10
0.114444
20
0.052758
30
0.0
11
0.112067
21
0.049661
31
0.0
0
LINE
8
0
6
CONTINUOUS
10
0.117540
20
0.055134
30
0.0
11
0.114444
21
0.052758
31
0.0
0
LINE
8
0
6
CONTINUOUS
10
0.121146
20
0.056628
30
0.0
11
0.117540
21
0.055134
31
0.0
0
LINE
8
0
6
CONTINUOUS
10
0.125016
20
0.057137
30
0.0
11
0.121146
21
0.056628
31
0.0
0
LINE
8
0
6
CONTINUOUS
10
0.197000
20
0.047246
30
0.0
11
0.196124
21
0.050121
31
0.0
0
LINE
8
0
6
CONTINUOUS
10
0.196124
20
0.050121
30
0.0
11
0.193709
21
0.052302
31
0.0
0
LINE
8
0
6
CONTINUOUS
10
0.197000
20
0.044716
30
0.0
11
0.197000
21
0.047246
31
0.0
0
LINE
8
0
6
CONTINUOUS
10
0.179989
20
0.053862
30
0.0
11
0.169641
21
0.054460
31
0.0
0
LINE
8
0
6
CONTINUOUS
10
0.197000
20
0.042185
30
0.0
11
0.197000
21
0.044716
31
0.0
0
LINE
8
0
6
CONTINUOUS
10
0.156827
20
0.055258
30
0.0
11
0.150800
21
0.055657
31
0.0
0
LINE
8
0
6
CONTINUOUS
10
0.193709
20
0.052302
30
0.0
11
0.190337
21
0.053263
31
0.0
0
LINE
8
0
6
CONTINUOUS
10
0.190337
20
0.053263
30
0.0
11
0.179989
21
0.053862
31
0.0
0
LINE
8
0
6
CONTINUOUS
10
0.162853
20
0.054859
30
0.0
11
0.156827
21
0.055258
31
0.0
0
LINE
8
0
6
CONTINUOUS
10
0.169641
20
0.054460
30
0.0
11
0.162853
21
0.054859
31
0.0
0
LINE
8
0
6
CONTINUOUS
10
0.141662
20
0.056262
30
0.0
11
0.128900
21
0.056867
31
0.0
0
LINE
8
0
6
CONTINUOUS
10
0.150800
20
0.055657
30
0.0
11
0.141662
21
0.056262
31
0.0
0
LINE
8
0
6
CONTINUOUS
10
0.125016
20
0.027233
30
0.0
11
0.128900
21
0.027503
31
0.0
0
LINE
8
0
6
CONTINUOUS
10
0.110064
20
0.042185
30
0.0
11
0.110574
21
0.038315
31
0.0
0
LINE
8
0
6
CONTINUOUS
10
0.110574
20
0.038315
30
0.0
11
0.112067
21
0.034709
31
0.0
0
LINE
8
0
6
CONTINUOUS
10
0.112067
20
0.034709
30
0.0
11
0.114444
21
0.031612
31
0.0
0
LINE
8
0
6
CONTINUOUS
10
0.114444
20
0.031612
30
0.0
11
0.117540
21
0.029236
31
0.0
0
LINE
8
0
6
CONTINUOUS
10
0.117540
20
0.029236
30
0.0
11
0.121146
21
0.027742
31
0.0
0
LINE
8
0
6
CONTINUOUS
10
0.121146
20
0.027742
30
0.0
11
0.125016
21
0.027233
31
0.0
0
LINE
8
0
6
CONTINUOUS
10
0.196124
20
0.034249
30
0.0
11
0.197000
21
0.037123
31
0.0
0
LINE
8
0
6
CONTINUOUS
10
0.193709
20
0.032068
30
0.0
11
0.196124
21
0.034249
31
0.0
0
LINE
8
0
6
CONTINUOUS
10
0.197000
20
0.037123
30
0.0
11
0.197000
21
0.039654
31
0.0
0
LINE
8
0
6
CONTINUOUS
10
0.169641
20
0.029910
30
0.0
11
0.179989
21
0.030508
31
0.0
0
LINE
8
0
6
CONTINUOUS
10
0.197000
20
0.039654
30
0.0
11
0.197000
21
0.042185
31
0.0
0
LINE
8
0
6
CONTINUOUS
10
0.150800
20
0.028713
30
0.0
11
0.156827
21
0.029112
31
0.0
0
LINE
8
0
6
CONTINUOUS
10
0.190337
20
0.031107
30
0.0
11
0.193709
21
0.032068
31
0.0
0
LINE
8
0
6
CONTINUOUS
10
0.179989
20
0.030508
30
0.0
11
0.190337
21
0.031107
31
0.0
0
LINE
8
0
6
CONTINUOUS
10
0.156827
20
0.029112
30
0.0
11
0.162853
21
0.029511
31
0.0
0
LINE
8
0
6
CONTINUOUS
10
0.162853
20
0.029511
30
0.0
11
0.169641
21
0.029910
31
0.0
0
LINE
8
0
6
CONTINUOUS
10
0.128900
20
0.027503
30
0.0
11
0.141662
21
0.028108
31
0.0
0
LINE
8
0
6
CONTINUOUS
10
0.141662
20
0.028108
30
0.0
11
0.150800
21
0.028713
31
0.0
0
LINE
8
0
6
CONTINUOUS
10
-0.128900
20
0.027503
30
0.0
11
-0.125016
21
0.027233
31
0.0
0
LINE
8
0
6
CONTINUOUS
10
-0.110574
20
0.038315
30
0.0
11
-0.110064
21
0.042185
31
0.0
0
LINE
8
0
6
CONTINUOUS
10
-0.112067
20
0.034709
30
0.0
11
-0.110574
21
0.038315
31
0.0
0
LINE
8
0
6
CONTINUOUS
10
-0.114444
20
0.031612
30
0.0
11
-0.112067
21
0.034709
31
0.0
0
LINE
8
0
6
CONTINUOUS
10
-0.117540
20
0.029236
30
0.0
11
-0.114444
21
0.031612
31
0.0
0
LINE
8
0
6
CONTINUOUS
10
-0.121146
20
0.027742
30
0.0
11
-0.117540
21
0.029236
31
0.0
0
LINE
8
0
6
CONTINUOUS
10
-0.125016
20
0.027233
30
0.0
11
-0.121146
21
0.027742
31
0.0
0
LINE
8
0
6
CONTINUOUS
10
-0.197000
20
0.037123
30
0.0
11
-0.196124
21
0.034249
31
0.0
0
LINE
8
0
6
CONTINUOUS
10
-0.196124
20
0.034249
30
0.0
11
-0.193709
21
0.032068
31
0.0
0
LINE
8
0
6
CONTINUOUS
10
-0.197000
20
0.039654
30
0.0
11
-0.197000
21
0.037123
31
0.0
0
LINE
8
0
6
CONTINUOUS
10
-0.179989
20
0.030508
30
0.0
11
-0.169641
21
0.029910
31
0.0
0
LINE
8
0
6
CONTINUOUS
10
-0.197000
20
0.042185
30
0.0
11
-0.197000
21
0.039654
31
0.0
0
LINE
8
0
6
CONTINUOUS
10
-0.156827
20
0.029112
30
0.0
11
-0.150800
21
0.028713
31
0.0
0
LINE
8
0
6
CONTINUOUS
10
-0.193709
20
0.032068
30
0.0
11
-0.190337
21
0.031107
31
0.0
0
LINE
8
0
6
CONTINUOUS
10
-0.190337
20
0.031107
30
0.0
11
-0.179989
21
0.030508
31
0.0
0
LINE
8
0
6
CONTINUOUS
10
-0.162853
20
0.029511
30
0.0
11
-0.156827
21
0.029112
31
0.0
0
LINE
8
0
6
CONTINUOUS
10
-0.169641
20
0.029910
30
0.0
11
-0.162853
21
0.029511
31
0.0
0
LINE
8
0
6
CONTINUOUS
10
-0.141662
20
0.028108
30
0.0
11
-0.128900
21
0.027503
31
0.0
0
LINE
8
0
6
CONTINUOUS
10
-0.150800
20
0.028713
30
0.0
11
-0.141662
21
0.028108
31
0.0
0
LINE
8
0
6
CONTINUOUS
10
-0.125016
20
0.057137
30
0.0
11
-0.128900
21
0.056867
31
0.0
0
LINE
8
0
6
CONTINUOUS
10
-0.110064
20
0.042185
30
0.0
11
-0.110574
21
0.046055
31
0.0
0
LINE
8
0
6
CONTINUOUS
10
-0.110574
20
0.046055
30
0.0
11
-0.112067
21
0.049661
31
0.0
0
LINE
8
0
6
CONTINUOUS
10
-0.112067
20
0.049661
30
0.0
11
-0.114444
21
0.052758
31
0.0
0
LINE
8
0
6
CONTINUOUS
10
-0.114444
20
0.052758
30
0.0
11
-0.117540
21
0.055134
31
0.0
0
LINE
8
0
6
CONTINUOUS
10
-0.117540
20
0.055134
30
0.0
11
-0.121146
21
0.056628
31
0.0
0
LINE
8
0
6
CONTINUOUS
10
-0.121146
20
0.056628
30
0.0
11
-0.125016
21
0.057137
31
0.0
0
LINE
8
0
6
CONTINUOUS
10
-0.196124
20
0.050121
30
0.0
11
-0.197000
21
0.047247
31
0.0
0
LINE
8
0
6
CONTINUOUS
10
-0.193709
20
0.052302
30
0.0
11
-0.196124
21
0.050121
31
0.0
0
LINE
8
0
6
CONTINUOUS
10
-0.197000
20
0.047247
30
0.0
11
-0.197000
21
0.044716
31
0.0
0
LINE
8
0
6
CONTINUOUS
10
-0.169641
20
0.054460
30
0.0
11
-0.179989
21
0.053862
31
0.0
0
LINE
8
0
6
CONTINUOUS
10
-0.197000
20
0.044716
30
0.0
11
-0.197000
21
0.042185
31
0.0
0
LINE
8
0
6
CONTINUOUS
10
-0.150800
20
0.055657
30
0.0
11
-0.156827
21
0.055258
31
0.0
0
LINE
8
0
6
CONTINUOUS
10
-0.190337
20
0.053263
30
0.0
11
-0.193709
21
0.052302
31
0.0
0
LINE
8
0
6
CONTINUOUS
10
-0.179989
20
0.053862
30
0.0
11
-0.190337
21
0.053263
31
0.0
0
LINE
8
0
6
CONTINUOUS
10
-0.156827
20
0.055258
30
0.0
11
-0.162853
21
0.054859
31
0.0
0
LINE
8
0
6
CONTINUOUS
10
-0.162853
20
0.054859
30
0.0
11
-0.169641
21
0.054460
31
0.0
0
LINE
8
0
6
CONTINUOUS
10
-0.128900
20
0.056867
30
0.0
11
-0.141662
21
0.056262
31
0.0
0
LINE
8
0
6
CONTINUOUS
10
-0.141662
20
0.056262
30
0.0
11
-0.150800
21
0.055657
31
0.0
0
LINE
8
0
6
CONTINUOUS
10
-0.125000
20
0.068185
30
0.0
11
-0.119215
21
0.067533
31
0.0
0
LINE
8
0
6
CONTINUOUS
10
-0.119215
20
0.067533
30
0.0
11
-0.113719
21
0.065610
31
0.0
0
LINE
8
0
6
CONTINUOUS
10
-0.113719
20
0.065610
30
0.0
11
-0.108789
21
0.062513
31
0.0
0
LINE
8
0
6
CONTINUOUS
10
-0.104672
20
0.058396
30
0.0
11
-0.108789
21
0.062513
31
0.0
0
LINE
8
0
6
CONTINUOUS
10
-0.101575
20
0.053466
30
0.0
11
-0.104672
21
0.058396
31
0.0
0
LINE
8
0
6
CONTINUOUS
10
-0.099652
20
0.047970
30
0.0
11
-0.101575
21
0.053466
31
0.0
0
LINE
8
0
6
CONTINUOUS
10
-0.099000
20
0.042185
30
0.0
11
-0.099652
21
0.047970
31
0.0
0
LINE
8
0
6
CONTINUOUS
10
-0.099652
20
0.036399
30
0.0
11
-0.099000
21
0.042185
31
0.0
0
LINE
8
0
6
CONTINUOUS
10
-0.101575
20
0.030904
30
0.0
11
-0.099652
21
0.036399
31
0.0
0
LINE
8
0
6
CONTINUOUS
10
-0.104672
20
0.025974
30
0.0
11
-0.101575
21
0.030904
31
0.0
0
LINE
8
0
6
CONTINUOUS
10
-0.104672
20
0.025974
30
0.0
11
-0.108789
21
0.021857
31
0.0
0
LINE
8
0
6
CONTINUOUS
10
-0.108789
20
0.021857
30
0.0
11
-0.113719
21
0.018760
31
0.0
0
LINE
8
0
6
CONTINUOUS
10
-0.119214
20
0.016837
30
0.0
11
-0.113719
21
0.018760
31
0.0
0
LINE
8
0
6
CONTINUOUS
10
-0.125000
20
0.016185
30
0.0
11
-0.119214
21
0.016837
31
0.0
0
LINE
8
0
6
CONTINUOUS
10
-0.130786
20
0.016837
30
0.0
11
-0.125000
21
0.016185
31
0.0
0
LINE
8
0
6
CONTINUOUS
10
-0.136281
20
0.018760
30
0.0
11
-0.130786
21
0.016837
31
0.0
0
LINE
8
0
6
CONTINUOUS
10
-0.141211
20
0.021857
30
0.0
11
-0.136281
21
0.018760
31
0.0
0
LINE
8
0
6
CONTINUOUS
10
-0.145328
20
0.025974
30
0.0
11
-0.141211
21
0.021857
31
0.0
0
LINE
8
0
6
CONTINUOUS
10
-0.146886
20
0.028454
30
0.0
11
-0.145328
21
0.025974
31
0.0
0
LINE
8
0
6
CONTINUOUS
10
-0.146886
20
0.055916
30
0.0
11
-0.145328
21
0.058396
31
0.0
0
LINE
8
0
6
CONTINUOUS
10
-0.145328
20
0.058396
30
0.0
11
-0.141211
21
0.062513
31
0.0
0
LINE
8
0
6
CONTINUOUS
10
-0.141211
20
0.062513
30
0.0
11
-0.136281
21
0.065610
31
0.0
0
LINE
8
0
6
CONTINUOUS
10
-0.130786
20
0.067533
30
0.0
11
-0.136281
21
0.065610
31
0.0
0
LINE
8
0
6
CONTINUOUS
10
-0.125000
20
0.068185
30
0.0
11
-0.130786
21
0.067533
31
0.0
0
LINE
8
0
6
CONTINUOUS
10
0.125000
20
0.068185
30
0.0
11
0.130785
21
0.067533
31
0.0
0
LINE
8
0
6
CONTINUOUS
10
0.130785
20
0.067533
30
0.0
11
0.136281
21
0.065610
31
0.0
0
LINE
8
0
6
CONTINUOUS
10
0.136281
20
0.065610
30
0.0
11
0.141211
21
0.062513
31
0.0
0
LINE
8
0
6
CONTINUOUS
10
0.145328
20
0.058396
30
0.0
11
0.141211
21
0.062513
31
0.0
0
LINE
8
0
6
CONTINUOUS
10
0.146885
20
0.055916
30
0.0
11
0.145328
21
0.058396
31
0.0
0
LINE
8
0
6
CONTINUOUS
10
0.145328
20
0.025974
30
0.0
11
0.146885
21
0.028454
31
0.0
0
LINE
8
0
6
CONTINUOUS
10
0.145328
20
0.025974
30
0.0
11
0.141211
21
0.021857
31
0.0
0
LINE
8
0
6
CONTINUOUS
10
0.141211
20
0.021857
30
0.0
11
0.136281
21
0.018760
31
0.0
0
LINE
8
0
6
CONTINUOUS
10
0.130786
20
0.016837
30
0.0
11
0.136281
21
0.018760
31
0.0
0
LINE
8
0
6
CONTINUOUS
10
0.125000
20
0.016185
30
0.0
11
0.130786
21
0.016837
31
0.0
0
LINE
8
0
6
CONTINUOUS
10
0.119214
20
0.016837
30
0.0
11
0.125000
21
0.016185
31
0.0
0
LINE
8
0
6
CONTINUOUS
10
0.113719
20
0.018760
30
0.0
11
0.119214
21
0.016837
31
0.0
0
LINE
8
0
6
CONTINUOUS
10
0.108789
20
0.021857
30
0.0
11
0.113719
21
0.018760
31
0.0
0
LINE
8
0
6
CONTINUOUS
10
0.104672
20
0.025974
30
0.0
11
0.108789
21
0.021857
31
0.0
0
LINE
8
0
6
CONTINUOUS
10
0.101575
20
0.030904
30
0.0
11
0.104672
21
0.025974
31
0.0
0
LINE
8
0
6
CONTINUOUS
10
0.099652
20
0.036399
30
0.0
11
0.101575
21
0.030904
31
0.0
0
LINE
8
0
6
CONTINUOUS
10
0.099000
20
0.042185
30
0.0
11
0.099652
21
0.036399
31
0.0
0
LINE
8
0
6
CONTINUOUS
10
0.099000
20
0.042185
30
0.0
11
0.099652
21
0.047970
31
0.0
0
LINE
8
0
6
CONTINUOUS
10
0.099652
20
0.047970
30
0.0
11
0.101575
21
0.053466
31
0.0
0
LINE
8
0
6
CONTINUOUS
10
0.101575
20
0.053466
30
0.0
11
0.104672
21
0.058396
31
0.0
0
LINE
8
0
6
CONTINUOUS
10
0.104672
20
0.058396
30
0.0
11
0.108789
21
0.062513
31
0.0
0
LINE
8
0
6
CONTINUOUS
10
0.108789
20
0.062513
30
0.0
11
0.113719
21
0.065610
31
0.0
0
LINE
8
0
6
CONTINUOUS
10
0.119214
20
0.067533
30
0.0
11
0.113719
21
0.065610
31
0.0
0
LINE
8
0
6
CONTINUOUS
10
0.125000
20
0.068185
30
0.0
11
0.119214
21
0.067533
31
0.0
0
ENDSEC
0
EOF
