999
Erzeugt mit innoplus bad 
0
SECTION
2
HEADER
9
$ACADVER
1
AC1009
9
$DWGCODEPAGE
3
ISO8859-1
0
ENDSEC
0
SECTION
2
TABLES
0
TABLE
2
LAYER
70
1
0
LAYER
2
0
70
0
62
7
6
CONTINUOUS
0
ENDTAB
0
ENDSEC
0
SECTION
2
ENTITIES
0
LINE
8
0
6
CONTINUOUS
10
0.119000
20
0.004352
30
0.0
11
0.119000
21
0.009233
31
0.0
0
LINE
8
0
6
CONTINUOUS
10
0.119000
20
0.009233
30
0.0
11
0.119000
21
0.014801
31
0.0
0
LINE
8
0
6
CONTINUOUS
10
0.119000
20
0.014801
30
0.0
11
0.119000
21
0.022000
31
0.0
0
LINE
8
0
6
CONTINUOUS
10
0.119000
20
-0.011721
30
0.0
11
0.119000
21
-0.011425
31
0.0
0
LINE
8
0
6
CONTINUOUS
10
0.119000
20
-0.011425
30
0.0
11
0.119000
21
-0.011008
31
0.0
0
LINE
8
0
6
CONTINUOUS
10
0.119000
20
-0.005972
30
0.0
11
0.119000
21
-0.002625
31
0.0
0
LINE
8
0
6
CONTINUOUS
10
0.119000
20
-0.011008
30
0.0
11
0.119000
21
-0.010183
31
0.0
0
LINE
8
0
6
CONTINUOUS
10
0.119000
20
-0.002625
30
0.0
11
0.119000
21
0.000984
31
0.0
0
LINE
8
0
6
CONTINUOUS
10
0.119000
20
0.000984
30
0.0
11
0.119000
21
0.004352
31
0.0
0
LINE
8
0
6
CONTINUOUS
10
0.119000
20
-0.011913
30
0.0
11
0.119000
21
-0.011721
31
0.0
0
LINE
8
0
6
CONTINUOUS
10
0.119000
20
-0.010183
30
0.0
11
0.119000
21
-0.008588
31
0.0
0
LINE
8
0
6
CONTINUOUS
10
0.119000
20
-0.008588
30
0.0
11
0.119000
21
-0.005972
31
0.0
0
LINE
8
0
6
CONTINUOUS
10
0.119000
20
-0.012000
30
0.0
11
0.119000
21
-0.011913
31
0.0
0
LINE
8
0
6
CONTINUOUS
10
0.118799
20
-0.012000
30
0.0
11
0.119000
21
-0.012000
31
0.0
0
LINE
8
0
6
CONTINUOUS
10
0.111533
20
-0.012000
30
0.0
11
0.111734
21
-0.012000
31
0.0
0
LINE
8
0
6
CONTINUOUS
10
0.111734
20
-0.012000
30
0.0
11
0.118799
21
-0.012000
31
0.0
0
LINE
8
0
6
CONTINUOUS
10
0.111000
20
-0.009793
30
0.0
11
0.111000
21
-0.010640
31
0.0
0
LINE
8
0
6
CONTINUOUS
10
0.111000
20
0.009429
30
0.0
11
0.111000
21
0.004530
31
0.0
0
LINE
8
0
6
CONTINUOUS
10
0.111160
20
0.009294
30
0.0
11
0.111160
21
0.014826
31
0.0
0
LINE
8
0
6
CONTINUOUS
10
0.111000
20
0.014887
30
0.0
11
0.111000
21
0.009429
31
0.0
0
LINE
8
0
6
CONTINUOUS
10
0.111533
20
-0.011721
30
0.0
11
0.111533
21
-0.011425
31
0.0
0
LINE
8
0
6
CONTINUOUS
10
0.111000
20
-0.011561
30
0.0
11
0.111160
21
-0.011868
31
0.0
0
LINE
8
0
6
CONTINUOUS
10
0.111000
20
-0.011483
30
0.0
11
0.111000
21
-0.011561
31
0.0
0
LINE
8
0
6
CONTINUOUS
10
0.111000
20
0.022000
30
0.0
11
0.111000
21
0.014887
31
0.0
0
LINE
8
0
6
CONTINUOUS
10
0.111160
20
0.014826
30
0.0
11
0.111160
21
0.022000
31
0.0
0
LINE
8
0
6
CONTINUOUS
10
0.111160
20
0.009294
30
0.0
11
0.111160
21
0.004441
31
0.0
0
LINE
8
0
6
CONTINUOUS
10
0.111000
20
-0.002372
30
0.0
11
0.111000
21
-0.005680
31
0.0
0
LINE
8
0
6
CONTINUOUS
10
0.111160
20
0.001055
30
0.0
11
0.111160
21
0.004441
31
0.0
0
LINE
8
0
6
CONTINUOUS
10
0.111000
20
0.004530
30
0.0
11
0.111000
21
0.001176
31
0.0
0
LINE
8
0
6
CONTINUOUS
10
0.111000
20
-0.005680
30
0.0
11
0.111000
21
-0.008237
31
0.0
0
LINE
8
0
6
CONTINUOUS
10
0.111160
20
-0.008488
30
0.0
11
0.111160
21
-0.005869
31
0.0
0
LINE
8
0
6
CONTINUOUS
10
0.111000
20
-0.010640
30
0.0
11
0.111000
21
-0.011034
31
0.0
0
LINE
8
0
6
CONTINUOUS
10
0.111000
20
-0.011034
30
0.0
11
0.111000
21
-0.011316
31
0.0
0
LINE
8
0
6
CONTINUOUS
10
0.111160
20
-0.011586
30
0.0
11
0.111160
21
-0.011265
31
0.0
0
LINE
8
0
6
CONTINUOUS
10
0.111000
20
-0.011316
30
0.0
11
0.111000
21
-0.011483
31
0.0
0
LINE
8
0
6
CONTINUOUS
10
0.111160
20
-0.011766
30
0.0
11
0.111160
21
-0.011586
31
0.0
0
LINE
8
0
6
CONTINUOUS
10
0.111160
20
-0.002538
30
0.0
11
0.111160
21
-0.005869
31
0.0
0
LINE
8
0
6
CONTINUOUS
10
0.111000
20
0.001176
30
0.0
11
0.111000
21
-0.002372
31
0.0
0
LINE
8
0
6
CONTINUOUS
10
0.111160
20
-0.010866
30
0.0
11
0.111160
21
-0.011265
31
0.0
0
LINE
8
0
6
CONTINUOUS
10
0.111533
20
-0.011425
30
0.0
11
0.111533
21
-0.011008
31
0.0
0
LINE
8
0
6
CONTINUOUS
10
0.111160
20
-0.010053
30
0.0
11
0.111160
21
-0.008488
31
0.0
0
LINE
8
0
6
CONTINUOUS
10
0.111000
20
-0.008237
30
0.0
11
0.111000
21
-0.009793
31
0.0
0
LINE
8
0
6
CONTINUOUS
10
0.111160
20
-0.010053
30
0.0
11
0.111160
21
-0.010866
31
0.0
0
LINE
8
0
6
CONTINUOUS
10
0.111160
20
-0.011868
30
0.0
11
0.111533
21
-0.012000
31
0.0
0
LINE
8
0
6
CONTINUOUS
10
0.111160
20
-0.011766
30
0.0
11
0.111160
21
-0.011868
31
0.0
0
LINE
8
0
6
CONTINUOUS
10
0.119000
20
0.034767
30
0.0
11
0.119000
21
0.039648
31
0.0
0
LINE
8
0
6
CONTINUOUS
10
0.119000
20
0.029199
30
0.0
11
0.119000
21
0.034767
31
0.0
0
LINE
8
0
6
CONTINUOUS
10
0.119000
20
0.022000
30
0.0
11
0.119000
21
0.029199
31
0.0
0
LINE
8
0
6
CONTINUOUS
10
0.111160
20
0.001055
30
0.0
11
0.111160
21
-0.002538
31
0.0
0
LINE
8
0
6
CONTINUOUS
10
0.119000
20
0.055425
30
0.0
11
0.119000
21
0.055721
31
0.0
0
LINE
8
0
6
CONTINUOUS
10
0.119000
20
0.055008
30
0.0
11
0.119000
21
0.055425
31
0.0
0
LINE
8
0
6
CONTINUOUS
10
0.119000
20
0.046625
30
0.0
11
0.119000
21
0.049972
31
0.0
0
LINE
8
0
6
CONTINUOUS
10
0.119000
20
0.054183
30
0.0
11
0.119000
21
0.055008
31
0.0
0
LINE
8
0
6
CONTINUOUS
10
0.119000
20
0.043016
30
0.0
11
0.119000
21
0.046625
31
0.0
0
LINE
8
0
6
CONTINUOUS
10
0.119000
20
0.039648
30
0.0
11
0.119000
21
0.043016
31
0.0
0
LINE
8
0
6
CONTINUOUS
10
0.119000
20
0.055721
30
0.0
11
0.119000
21
0.055913
31
0.0
0
LINE
8
0
6
CONTINUOUS
10
0.119000
20
0.052588
30
0.0
11
0.119000
21
0.054183
31
0.0
0
LINE
8
0
6
CONTINUOUS
10
0.119000
20
0.049972
30
0.0
11
0.119000
21
0.052588
31
0.0
0
LINE
8
0
6
CONTINUOUS
10
0.119000
20
0.056000
30
0.0
11
0.118799
21
0.056000
31
0.0
0
LINE
8
0
6
CONTINUOUS
10
0.119000
20
0.055913
30
0.0
11
0.119000
21
0.056000
31
0.0
0
LINE
8
0
6
CONTINUOUS
10
0.111734
20
0.056000
30
0.0
11
0.111533
21
0.056000
31
0.0
0
LINE
8
0
6
CONTINUOUS
10
0.118799
20
0.056000
30
0.0
11
0.111734
21
0.056000
31
0.0
0
LINE
8
0
6
CONTINUOUS
10
0.111000
20
0.054640
30
0.0
11
0.111000
21
0.053793
31
0.0
0
LINE
8
0
6
CONTINUOUS
10
0.111000
20
0.039470
30
0.0
11
0.111000
21
0.034571
31
0.0
0
LINE
8
0
6
CONTINUOUS
10
0.111000
20
0.034571
30
0.0
11
0.111000
21
0.029113
31
0.0
0
LINE
8
0
6
CONTINUOUS
10
0.111160
20
0.029174
30
0.0
11
0.111160
21
0.034706
31
0.0
0
LINE
8
0
6
CONTINUOUS
10
0.111533
20
0.055425
30
0.0
11
0.111533
21
0.055721
31
0.0
0
LINE
8
0
6
CONTINUOUS
10
0.111000
20
0.055561
30
0.0
11
0.111000
21
0.055483
31
0.0
0
LINE
8
0
6
CONTINUOUS
10
0.111160
20
0.055868
30
0.0
11
0.111000
21
0.055561
31
0.0
0
LINE
8
0
6
CONTINUOUS
10
0.111160
20
0.022000
30
0.0
11
0.111160
21
0.029174
31
0.0
0
LINE
8
0
6
CONTINUOUS
10
0.111000
20
0.029113
30
0.0
11
0.111000
21
0.022000
31
0.0
0
LINE
8
0
6
CONTINUOUS
10
0.111160
20
0.039559
30
0.0
11
0.111160
21
0.034706
31
0.0
0
LINE
8
0
6
CONTINUOUS
10
0.111000
20
0.049680
30
0.0
11
0.111000
21
0.046372
31
0.0
0
LINE
8
0
6
CONTINUOUS
10
0.111000
20
0.042824
30
0.0
11
0.111000
21
0.039470
31
0.0
0
LINE
8
0
6
CONTINUOUS
10
0.111160
20
0.039559
30
0.0
11
0.111160
21
0.042945
31
0.0
0
LINE
8
0
6
CONTINUOUS
10
0.111160
20
0.049869
30
0.0
11
0.111160
21
0.052488
31
0.0
0
LINE
8
0
6
CONTINUOUS
10
0.111000
20
0.052237
30
0.0
11
0.111000
21
0.049680
31
0.0
0
LINE
8
0
6
CONTINUOUS
10
0.111000
20
0.055034
30
0.0
11
0.111000
21
0.054640
31
0.0
0
LINE
8
0
6
CONTINUOUS
10
0.111160
20
0.055265
30
0.0
11
0.111160
21
0.055586
31
0.0
0
LINE
8
0
6
CONTINUOUS
10
0.111000
20
0.055316
30
0.0
11
0.111000
21
0.055034
31
0.0
0
LINE
8
0
6
CONTINUOUS
10
0.111160
20
0.055586
30
0.0
11
0.111160
21
0.055766
31
0.0
0
LINE
8
0
6
CONTINUOUS
10
0.111000
20
0.055483
30
0.0
11
0.111000
21
0.055316
31
0.0
0
LINE
8
0
6
CONTINUOUS
10
0.111160
20
0.049869
30
0.0
11
0.111160
21
0.046538
31
0.0
0
LINE
8
0
6
CONTINUOUS
10
0.111160
20
0.042945
30
0.0
11
0.111160
21
0.046538
31
0.0
0
LINE
8
0
6
CONTINUOUS
10
0.111000
20
0.046372
30
0.0
11
0.111000
21
0.042824
31
0.0
0
LINE
8
0
6
CONTINUOUS
10
0.111533
20
0.055008
30
0.0
11
0.111533
21
0.055425
31
0.0
0
LINE
8
0
6
CONTINUOUS
10
0.111160
20
0.055265
30
0.0
11
0.111160
21
0.054866
31
0.0
0
LINE
8
0
6
CONTINUOUS
10
0.111000
20
0.053793
30
0.0
11
0.111000
21
0.052237
31
0.0
0
LINE
8
0
6
CONTINUOUS
10
0.111160
20
0.052488
30
0.0
11
0.111160
21
0.054053
31
0.0
0
LINE
8
0
6
CONTINUOUS
10
0.111160
20
0.054866
30
0.0
11
0.111160
21
0.054053
31
0.0
0
LINE
8
0
6
CONTINUOUS
10
0.111160
20
0.055868
30
0.0
11
0.111160
21
0.055766
31
0.0
0
LINE
8
0
6
CONTINUOUS
10
0.111533
20
0.056000
30
0.0
11
0.111160
21
0.055868
31
0.0
0
LINE
8
0
6
CONTINUOUS
10
-0.079312
20
0.008398
30
0.0
11
-0.074963
21
0.008195
31
0.0
0
LINE
8
0
6
CONTINUOUS
10
-0.097268
20
0.015340
30
0.0
11
-0.102914
21
0.019640
31
0.0
0
LINE
8
0
6
CONTINUOUS
10
-0.115000
20
0.027854
30
0.0
11
-0.111976
21
0.025569
31
0.0
0
LINE
8
0
6
CONTINUOUS
10
0.066000
20
0.034978
30
0.0
11
-0.100458
21
0.034978
31
0.0
0
LINE
8
0
6
CONTINUOUS
10
-0.100458
20
0.034978
30
0.0
11
-0.104773
21
0.034978
31
0.0
0
LINE
8
0
6
CONTINUOUS
10
-0.104773
20
0.034978
30
0.0
11
-0.109070
21
0.034978
31
0.0
0
LINE
8
0
6
CONTINUOUS
10
-0.109070
20
0.034978
30
0.0
11
-0.113202
21
0.034978
31
0.0
0
LINE
8
0
6
CONTINUOUS
10
-0.113202
20
0.034978
30
0.0
11
-0.116539
21
0.034978
31
0.0
0
LINE
8
0
6
CONTINUOUS
10
-0.116539
20
0.034978
30
0.0
11
-0.118228
21
0.034978
31
0.0
0
LINE
8
0
6
CONTINUOUS
10
-0.116539
20
0.033338
30
0.0
11
-0.116539
21
0.034978
31
0.0
0
LINE
8
0
6
CONTINUOUS
10
-0.118228
20
0.034978
30
0.0
11
-0.118812
21
0.034978
31
0.0
0
LINE
8
0
6
CONTINUOUS
10
-0.118812
20
0.034978
30
0.0
11
-0.119000
21
0.034978
31
0.0
0
LINE
8
0
6
CONTINUOUS
10
-0.119000
20
0.034978
30
0.0
11
-0.119000
21
0.033338
31
0.0
0
LINE
8
0
6
CONTINUOUS
10
-0.083660
20
0.008602
30
0.0
11
-0.079312
21
0.008398
31
0.0
0
LINE
8
0
6
CONTINUOUS
10
-0.097268
20
0.015340
30
0.0
11
-0.093918
21
0.011985
31
0.0
0
LINE
8
0
6
CONTINUOUS
10
-0.079564
20
0.011536
30
0.0
11
-0.083587
21
0.012337
31
0.0
0
LINE
8
0
6
CONTINUOUS
10
-0.079289
20
0.008481
30
0.0
11
-0.074957
21
0.008319
31
0.0
0
LINE
8
0
6
CONTINUOUS
10
-0.083587
20
0.012337
30
0.0
11
-0.087842
21
0.013201
31
0.0
0
LINE
8
0
6
CONTINUOUS
10
-0.083621
20
0.008643
30
0.0
11
-0.079289
21
0.008481
31
0.0
0
LINE
8
0
6
CONTINUOUS
10
-0.083621
20
0.008643
30
0.0
11
-0.088695
21
0.009858
31
0.0
0
LINE
8
0
6
CONTINUOUS
10
-0.088200
20
0.009177
30
0.0
11
-0.083660
21
0.008602
31
0.0
0
LINE
8
0
6
CONTINUOUS
10
-0.088695
20
0.009858
30
0.0
11
-0.093918
21
0.011985
31
0.0
0
LINE
8
0
6
CONTINUOUS
10
-0.092753
20
0.011381
30
0.0
11
-0.088200
21
0.009177
31
0.0
0
LINE
8
0
6
CONTINUOUS
10
-0.074963
20
0.008195
30
0.0
11
0.066000
21
0.002731
31
0.0
0
LINE
8
0
6
CONTINUOUS
10
0.102004
20
0.001335
30
0.0
11
0.102560
21
0.001314
31
0.0
0
LINE
8
0
6
CONTINUOUS
10
0.066000
20
0.007981
30
0.0
11
-0.079564
21
0.011536
31
0.0
0
LINE
8
0
6
CONTINUOUS
10
-0.074957
20
0.008319
30
0.0
11
0.066000
21
0.003953
31
0.0
0
LINE
8
0
6
CONTINUOUS
10
-0.113202
20
0.033338
30
0.0
11
-0.116539
21
0.033338
31
0.0
0
LINE
8
0
6
CONTINUOUS
10
-0.108352
20
0.028059
30
0.0
11
-0.113202
21
0.033338
31
0.0
0
LINE
8
0
6
CONTINUOUS
10
-0.103065
20
0.023040
30
0.0
11
-0.108352
21
0.028059
31
0.0
0
LINE
8
0
6
CONTINUOUS
10
-0.118812
20
0.033338
30
0.0
11
-0.119000
21
0.033338
31
0.0
0
LINE
8
0
6
CONTINUOUS
10
-0.119000
20
0.033338
30
0.0
11
-0.115000
21
0.027854
31
0.0
0
LINE
8
0
6
CONTINUOUS
10
-0.118228
20
0.033338
30
0.0
11
-0.118812
21
0.033338
31
0.0
0
LINE
8
0
6
CONTINUOUS
10
-0.116539
20
0.033338
30
0.0
11
-0.118228
21
0.033338
31
0.0
0
LINE
8
0
6
CONTINUOUS
10
-0.112489
20
0.028076
30
0.0
11
-0.116539
21
0.033338
31
0.0
0
LINE
8
0
6
CONTINUOUS
10
-0.118228
20
0.033338
30
0.0
11
-0.114039
21
0.027978
31
0.0
0
LINE
8
0
6
CONTINUOUS
10
-0.102914
20
0.019640
30
0.0
11
-0.107287
21
0.023197
31
0.0
0
LINE
8
0
6
CONTINUOUS
10
-0.107287
20
0.023197
30
0.0
11
-0.112489
21
0.028076
31
0.0
0
LINE
8
0
6
CONTINUOUS
10
0.102004
20
0.021952
30
0.0
11
0.102004
21
0.027645
31
0.0
0
LINE
8
0
6
CONTINUOUS
10
0.102004
20
0.037547
30
0.0
11
0.102004
21
0.041057
31
0.0
0
LINE
8
0
6
CONTINUOUS
10
0.102004
20
0.032973
30
0.0
11
0.102004
21
0.037547
31
0.0
0
LINE
8
0
6
CONTINUOUS
10
0.102004
20
0.027645
30
0.0
11
0.102004
21
0.032973
31
0.0
0
LINE
8
0
6
CONTINUOUS
10
0.102004
20
0.041057
30
0.0
11
0.102004
21
0.043261
31
0.0
0
LINE
8
0
6
CONTINUOUS
10
0.102004
20
0.044011
30
0.0
11
0.101453
21
0.044011
31
0.0
0
LINE
8
0
6
CONTINUOUS
10
0.102004
20
0.043261
30
0.0
11
0.102004
21
0.044011
31
0.0
0
LINE
8
0
6
CONTINUOUS
10
0.102004
20
0.016230
30
0.0
11
0.102004
21
0.021952
31
0.0
0
LINE
8
0
6
CONTINUOUS
10
0.102004
20
0.010908
30
0.0
11
0.102004
21
0.016230
31
0.0
0
LINE
8
0
6
CONTINUOUS
10
0.102004
20
0.006337
30
0.0
11
0.102004
21
0.010908
31
0.0
0
LINE
8
0
6
CONTINUOUS
10
0.102004
20
0.002830
30
0.0
11
0.102004
21
0.006337
31
0.0
0
LINE
8
0
6
CONTINUOUS
10
0.102004
20
0.000625
30
0.0
11
0.102004
21
0.002830
31
0.0
0
LINE
8
0
6
CONTINUOUS
10
0.102004
20
-0.000127
30
0.0
11
0.102004
21
0.000625
31
0.0
0
LINE
8
0
6
CONTINUOUS
10
0.101453
20
-0.000127
30
0.0
11
0.102004
21
-0.000127
31
0.0
0
LINE
8
0
6
CONTINUOUS
10
0.089070
20
-0.000127
30
0.0
11
0.101453
21
-0.000127
31
0.0
0
LINE
8
0
6
CONTINUOUS
10
0.066000
20
0.006243
30
0.0
11
0.066000
21
-0.009456
31
0.0
0
LINE
8
0
6
CONTINUOUS
10
0.066000
20
-0.047818
30
0.0
11
0.066000
21
-0.051959
31
0.0
0
LINE
8
0
6
CONTINUOUS
10
0.066000
20
-0.009456
30
0.0
11
0.066000
21
-0.021889
31
0.0
0
LINE
8
0
6
CONTINUOUS
10
0.066000
20
-0.021889
30
0.0
11
0.066000
21
-0.047818
31
0.0
0
LINE
8
0
6
CONTINUOUS
10
0.066000
20
0.021942
30
0.0
11
0.066000
21
0.006243
31
0.0
0
LINE
8
0
6
CONTINUOUS
10
0.066000
20
-0.051959
30
0.0
11
0.066000
21
-0.054925
31
0.0
0
LINE
8
0
6
CONTINUOUS
10
0.066551
20
-0.051959
30
0.0
11
0.066000
21
-0.051959
31
0.0
0
LINE
8
0
6
CONTINUOUS
10
0.066000
20
-0.056000
30
0.0
11
0.066551
21
-0.056000
31
0.0
0
LINE
8
0
6
CONTINUOUS
10
0.066000
20
-0.054925
30
0.0
11
0.066000
21
-0.056000
31
0.0
0
LINE
8
0
6
CONTINUOUS
10
0.066551
20
-0.054925
30
0.0
11
0.066000
21
-0.054925
31
0.0
0
LINE
8
0
6
CONTINUOUS
10
0.066000
20
0.027654
30
0.0
11
0.066000
21
0.021942
31
0.0
0
LINE
8
0
6
CONTINUOUS
10
0.066000
20
0.032977
30
0.0
11
0.066000
21
0.027654
31
0.0
0
LINE
8
0
6
CONTINUOUS
10
0.066000
20
0.037547
30
0.0
11
0.066000
21
0.032977
31
0.0
0
LINE
8
0
6
CONTINUOUS
10
0.066000
20
0.041054
30
0.0
11
0.066000
21
0.037547
31
0.0
0
LINE
8
0
6
CONTINUOUS
10
0.066000
20
0.043259
30
0.0
11
0.066000
21
0.041054
31
0.0
0
LINE
8
0
6
CONTINUOUS
10
0.066000
20
0.044011
30
0.0
11
0.066000
21
0.043259
31
0.0
0
LINE
8
0
6
CONTINUOUS
10
0.066551
20
0.044011
30
0.0
11
0.066000
21
0.044011
31
0.0
0
LINE
8
0
6
CONTINUOUS
10
0.071143
20
0.044011
30
0.0
11
0.066551
21
0.044011
31
0.0
0
LINE
8
0
6
CONTINUOUS
10
0.066551
20
-0.056000
30
0.0
11
0.067819
21
-0.056000
31
0.0
0
LINE
8
0
6
CONTINUOUS
10
0.069116
20
-0.051450
30
0.0
11
0.066551
21
-0.051959
31
0.0
0
LINE
8
0
6
CONTINUOUS
10
0.078297
20
-0.004607
30
0.0
11
0.081093
21
-0.002173
31
0.0
0
LINE
8
0
6
CONTINUOUS
10
0.079228
20
0.044011
30
0.0
11
0.076575
21
0.044011
31
0.0
0
LINE
8
0
6
CONTINUOUS
10
0.069116
20
-0.051450
30
0.0
11
0.068328
21
-0.054433
31
0.0
0
LINE
8
0
6
CONTINUOUS
10
0.069288
20
-0.053626
30
0.0
11
0.070286
21
-0.050775
31
0.0
0
LINE
8
0
6
CONTINUOUS
10
0.072851
20
-0.005896
30
0.0
11
0.073047
21
0.008131
31
0.0
0
LINE
8
0
6
CONTINUOUS
10
0.084535
20
0.044011
30
0.0
11
0.081881
21
0.044011
31
0.0
0
LINE
8
0
6
CONTINUOUS
10
0.081881
20
0.044011
30
0.0
11
0.079228
21
0.044011
31
0.0
0
LINE
8
0
6
CONTINUOUS
10
0.076575
20
0.044011
30
0.0
11
0.074585
21
0.044011
31
0.0
0
LINE
8
0
6
CONTINUOUS
10
0.074585
20
0.044011
30
0.0
11
0.073310
21
0.044011
31
0.0
0
LINE
8
0
6
CONTINUOUS
10
0.073310
20
0.044011
30
0.0
11
0.071143
21
0.044011
31
0.0
0
LINE
8
0
6
CONTINUOUS
10
0.069928
20
-0.043967
30
0.0
11
0.069116
21
-0.051450
31
0.0
0
LINE
8
0
6
CONTINUOUS
10
0.067819
20
-0.056000
30
0.0
11
0.069093
21
-0.054534
31
0.0
0
LINE
8
0
6
CONTINUOUS
10
0.069093
20
-0.054534
30
0.0
11
0.070593
21
-0.051571
31
0.0
0
LINE
8
0
6
CONTINUOUS
10
0.070593
20
-0.051571
30
0.0
11
0.071883
21
-0.046489
31
0.0
0
LINE
8
0
6
CONTINUOUS
10
0.070520
20
-0.023863
30
0.0
11
0.072851
21
-0.005896
31
0.0
0
LINE
8
0
6
CONTINUOUS
10
0.074694
20
-0.020838
30
0.0
11
0.076575
21
-0.007923
31
0.0
0
LINE
8
0
6
CONTINUOUS
10
0.074632
20
-0.008681
30
0.0
11
0.076575
21
0.006996
31
0.0
0
LINE
8
0
6
CONTINUOUS
10
0.074679
20
0.000776
30
0.0
11
0.076575
21
0.014193
31
0.0
0
LINE
8
0
6
CONTINUOUS
10
0.076575
20
-0.007923
30
0.0
11
0.078297
21
-0.004607
31
0.0
0
LINE
8
0
6
CONTINUOUS
10
0.081093
20
-0.002173
30
0.0
11
0.084535
21
-0.000724
31
0.0
0
LINE
8
0
6
CONTINUOUS
10
0.078323
20
-0.003669
30
0.0
11
0.078405
21
-0.000927
31
0.0
0
LINE
8
0
6
CONTINUOUS
10
0.076575
20
-0.003925
30
0.0
11
0.076575
21
-0.006906
31
0.0
0
LINE
8
0
6
CONTINUOUS
10
0.078405
20
-0.000927
30
0.0
11
0.078560
21
0.003408
31
0.0
0
LINE
8
0
6
CONTINUOUS
10
0.076575
20
0.000817
30
0.0
11
0.076575
21
-0.003925
31
0.0
0
LINE
8
0
6
CONTINUOUS
10
0.078560
20
0.003408
30
0.0
11
0.078801
21
0.008981
31
0.0
0
LINE
8
0
6
CONTINUOUS
10
0.076575
20
0.006996
30
0.0
11
0.076575
21
0.000817
31
0.0
0
LINE
8
0
6
CONTINUOUS
10
0.076575
20
0.014193
30
0.0
11
0.076575
21
0.006996
31
0.0
0
LINE
8
0
6
CONTINUOUS
10
0.084535
20
-0.000724
30
0.0
11
0.089070
21
-0.000127
31
0.0
0
LINE
8
0
6
CONTINUOUS
10
0.074632
20
-0.008681
30
0.0
11
0.074679
21
0.000776
31
0.0
0
LINE
8
0
6
CONTINUOUS
10
0.072667
20
-0.022704
30
0.0
11
0.074679
21
0.000776
31
0.0
0
LINE
8
0
6
CONTINUOUS
10
0.073069
20
-0.037073
30
0.0
11
0.074694
21
-0.020838
31
0.0
0
LINE
8
0
6
CONTINUOUS
10
0.071882
20
-0.046564
30
0.0
11
0.073069
21
-0.037073
31
0.0
0
LINE
8
0
6
CONTINUOUS
10
0.070520
20
-0.023863
30
0.0
11
0.069928
21
-0.043967
31
0.0
0
LINE
8
0
6
CONTINUOUS
10
0.071437
20
-0.042701
30
0.0
11
0.072667
21
-0.022704
31
0.0
0
LINE
8
0
6
CONTINUOUS
10
0.068328
20
-0.054433
30
0.0
11
0.067819
21
-0.056000
31
0.0
0
LINE
8
0
6
CONTINUOUS
10
0.067819
20
-0.056000
30
0.0
11
0.069125
21
-0.054404
31
0.0
0
LINE
8
0
6
CONTINUOUS
10
0.089070
20
0.044011
30
0.0
11
0.084535
21
0.044011
31
0.0
0
LINE
8
0
6
CONTINUOUS
10
0.101453
20
0.044011
30
0.0
11
0.089070
21
0.044011
31
0.0
0
LINE
8
0
6
CONTINUOUS
10
0.101790
20
0.001504
30
0.0
11
0.105679
21
0.000544
31
0.0
0
LINE
8
0
6
CONTINUOUS
10
0.105679
20
0.043217
30
0.0
11
0.101790
21
0.042258
31
0.0
0
LINE
8
0
6
CONTINUOUS
10
0.109569
20
-0.000078
30
0.0
11
0.111000
21
-0.000093
31
0.0
0
LINE
8
0
6
CONTINUOUS
10
0.105679
20
0.000544
30
0.0
11
0.109569
21
-0.000078
31
0.0
0
LINE
8
0
6
CONTINUOUS
10
0.111000
20
0.043855
30
0.0
11
0.109569
21
0.043839
31
0.0
0
LINE
8
0
6
CONTINUOUS
10
0.109569
20
0.043839
30
0.0
11
0.105679
21
0.043217
31
0.0
0
LINE
8
0
6
CONTINUOUS
10
-0.111902
20
0.017819
30
0.0
11
-0.109395
21
0.015988
31
0.0
0
LINE
8
0
6
CONTINUOUS
10
-0.113833
20
0.019231
30
0.0
11
-0.111902
21
0.017819
31
0.0
0
LINE
8
0
6
CONTINUOUS
10
-0.115001
20
0.020083
30
0.0
11
-0.113833
21
0.019231
31
0.0
0
LINE
8
0
6
CONTINUOUS
10
-0.115402
20
0.020996
30
0.0
11
-0.115289
21
0.020294
31
0.0
0
LINE
8
0
6
CONTINUOUS
10
-0.096758
20
0.006755
30
0.0
11
-0.096055
21
0.006861
31
0.0
0
LINE
8
0
6
CONTINUOUS
10
-0.097377
20
0.007207
30
0.0
11
-0.096758
21
0.006755
31
0.0
0
LINE
8
0
6
CONTINUOUS
10
-0.098842
20
0.008278
30
0.0
11
-0.097377
21
0.007207
31
0.0
0
LINE
8
0
6
CONTINUOUS
10
-0.101010
20
0.009862
30
0.0
11
-0.098842
21
0.008278
31
0.0
0
LINE
8
0
6
CONTINUOUS
10
-0.112031
20
0.025610
30
0.0
11
-0.113179
21
0.024039
31
0.0
0
LINE
8
0
6
CONTINUOUS
10
-0.093701
20
0.010083
30
0.0
11
-0.092753
21
0.011381
31
0.0
0
LINE
8
0
6
CONTINUOUS
10
-0.103270
20
0.012132
30
0.0
11
-0.100494
21
0.010104
31
0.0
0
LINE
8
0
6
CONTINUOUS
10
-0.111866
20
0.018412
30
0.0
11
-0.109248
21
0.016500
31
0.0
0
LINE
8
0
6
CONTINUOUS
10
-0.101010
20
0.009862
30
0.0
11
-0.103668
21
0.011804
31
0.0
0
LINE
8
0
6
CONTINUOUS
10
-0.103668
20
0.011804
30
0.0
11
-0.106554
21
0.013912
31
0.0
0
LINE
8
0
6
CONTINUOUS
10
-0.106554
20
0.013912
30
0.0
11
-0.109395
21
0.015988
31
0.0
0
LINE
8
0
6
CONTINUOUS
10
-0.115001
20
0.020083
30
0.0
11
-0.115289
21
0.020294
31
0.0
0
LINE
8
0
6
CONTINUOUS
10
-0.113348
20
0.023807
30
0.0
11
-0.113563
21
0.023513
31
0.0
0
LINE
8
0
6
CONTINUOUS
10
-0.094091
20
0.009549
30
0.0
11
-0.093862
21
0.009863
31
0.0
0
LINE
8
0
6
CONTINUOUS
10
-0.113179
20
0.024039
30
0.0
11
-0.113348
21
0.023807
31
0.0
0
LINE
8
0
6
CONTINUOUS
10
-0.107183
20
0.019326
30
0.0
11
-0.104222
21
0.017162
31
0.0
0
LINE
8
0
6
CONTINUOUS
10
-0.104222
20
0.017162
30
0.0
11
-0.101205
21
0.014958
31
0.0
0
LINE
8
0
6
CONTINUOUS
10
-0.093862
20
0.009863
30
0.0
11
-0.093701
21
0.010083
31
0.0
0
LINE
8
0
6
CONTINUOUS
10
-0.109248
20
0.016500
30
0.0
11
-0.106554
21
0.013912
31
0.0
0
LINE
8
0
6
CONTINUOUS
10
-0.109081
20
0.016729
30
0.0
11
-0.109248
21
0.016500
31
0.0
0
LINE
8
0
6
CONTINUOUS
10
-0.106554
20
0.013912
30
0.0
11
-0.103270
21
0.012132
31
0.0
0
LINE
8
0
6
CONTINUOUS
10
-0.103270
20
0.012132
30
0.0
11
-0.103103
21
0.012361
31
0.0
0
LINE
8
0
6
CONTINUOUS
10
-0.115236
20
0.021224
30
0.0
11
-0.115402
21
0.020996
31
0.0
0
LINE
8
0
6
CONTINUOUS
10
-0.115402
20
0.020996
30
0.0
11
-0.115101
21
0.020776
31
0.0
0
LINE
8
0
6
CONTINUOUS
10
-0.115101
20
0.020776
30
0.0
11
-0.113882
21
0.019886
31
0.0
0
LINE
8
0
6
CONTINUOUS
10
-0.113882
20
0.019886
30
0.0
11
-0.111866
21
0.018412
31
0.0
0
LINE
8
0
6
CONTINUOUS
10
-0.100494
20
0.010104
30
0.0
11
-0.098230
21
0.008450
31
0.0
0
LINE
8
0
6
CONTINUOUS
10
-0.098230
20
0.008450
30
0.0
11
-0.096701
21
0.007333
31
0.0
0
LINE
8
0
6
CONTINUOUS
10
-0.096055
20
0.006861
30
0.0
11
-0.095878
21
0.007104
31
0.0
0
LINE
8
0
6
CONTINUOUS
10
-0.096701
20
0.007333
30
0.0
11
-0.096055
21
0.006861
31
0.0
0
LINE
8
0
6
CONTINUOUS
10
-0.107399
20
0.019031
30
0.0
11
-0.109081
21
0.016729
31
0.0
0
LINE
8
0
6
CONTINUOUS
10
-0.103103
20
0.012361
30
0.0
11
-0.101421
21
0.014663
31
0.0
0
LINE
8
0
6
CONTINUOUS
10
-0.113563
20
0.023513
30
0.0
11
-0.115236
21
0.021224
31
0.0
0
LINE
8
0
6
CONTINUOUS
10
-0.095878
20
0.007104
30
0.0
11
-0.094091
21
0.009549
31
0.0
0
LINE
8
0
6
CONTINUOUS
10
-0.101205
20
0.014958
30
0.0
11
-0.101421
21
0.014663
31
0.0
0
LINE
8
0
6
CONTINUOUS
10
-0.107399
20
0.019031
30
0.0
11
-0.107183
21
0.019326
31
0.0
0
LINE
8
0
6
CONTINUOUS
10
-0.099080
20
0.016628
30
0.0
11
-0.097833
21
0.015524
31
0.0
0
LINE
8
0
6
CONTINUOUS
10
-0.094993
20
0.012881
30
0.0
11
-0.097034
21
0.014839
31
0.0
0
LINE
8
0
6
CONTINUOUS
10
-0.092730
20
0.011413
30
0.0
11
-0.092868
21
0.011531
31
0.0
0
LINE
8
0
6
CONTINUOUS
10
-0.093451
20
0.011782
30
0.0
11
-0.093940
21
0.011985
31
0.0
0
LINE
8
0
6
CONTINUOUS
10
-0.105091
20
0.021081
30
0.0
11
-0.102650
21
0.019312
31
0.0
0
LINE
8
0
6
CONTINUOUS
10
-0.099659
20
0.017074
30
0.0
11
-0.099080
21
0.016628
31
0.0
0
ENDSEC
0
EOF
