999
Erzeugt mit innoplus bad 
0
SECTION
2
HEADER
9
$ACADVER
1
AC1009
9
$DWGCODEPAGE
3
ISO8859-1
0
ENDSEC
0
SECTION
2
TABLES
0
TABLE
2
LAYER
70
1
0
LAYER
2
0
70
0
62
7
6
CONTINUOUS
0
ENDTAB
0
ENDSEC
0
SECTION
2
ENTITIES
0
LINE
8
0
6
CONTINUOUS
10
0.017119
20
0.060743
30
0.0
11
0.017888
21
0.071826
31
0.0
0
LINE
8
0
6
CONTINUOUS
10
0.017888
20
0.071826
30
0.0
11
0.018657
21
0.082910
31
0.0
0
LINE
8
0
6
CONTINUOUS
10
0.015598
20
0.038814
30
0.0
11
0.016105
21
0.046124
31
0.0
0
LINE
8
0
6
CONTINUOUS
10
0.016105
20
0.046124
30
0.0
11
0.016612
21
0.053433
31
0.0
0
LINE
8
0
6
CONTINUOUS
10
0.014077
20
0.016886
30
0.0
11
0.014838
21
0.027850
31
0.0
0
LINE
8
0
6
CONTINUOUS
10
0.012856
20
0.013313
30
0.0
11
0.014077
21
0.016886
31
0.0
0
LINE
8
0
6
CONTINUOUS
10
0.016612
20
0.053433
30
0.0
11
0.017119
21
0.060743
31
0.0
0
LINE
8
0
6
CONTINUOUS
10
-0.000000
20
0.009827
30
0.0
11
0.003216
21
0.009827
31
0.0
0
LINE
8
0
6
CONTINUOUS
10
0.014838
20
0.027850
30
0.0
11
0.015598
21
0.038814
31
0.0
0
LINE
8
0
6
CONTINUOUS
10
0.003216
20
0.009827
30
0.0
11
0.006432
21
0.009827
31
0.0
0
LINE
8
0
6
CONTINUOUS
10
0.010085
20
0.010755
30
0.0
11
0.012856
21
0.013313
31
0.0
0
LINE
8
0
6
CONTINUOUS
10
0.006432
20
0.009827
30
0.0
11
0.010085
21
0.010755
31
0.0
0
LINE
8
0
6
CONTINUOUS
10
0.018353
20
0.092783
30
0.0
11
0.019000
21
0.087855
31
0.0
0
LINE
8
0
6
CONTINUOUS
10
0.018353
20
0.092783
30
0.0
11
0.016454
21
0.097375
31
0.0
0
LINE
8
0
6
CONTINUOUS
10
0.016454
20
0.097375
30
0.0
11
0.013435
21
0.101319
31
0.0
0
LINE
8
0
6
CONTINUOUS
10
0.009500
20
0.104345
30
0.0
11
0.013435
21
0.101319
31
0.0
0
LINE
8
0
6
CONTINUOUS
10
0.004918
20
0.106247
30
0.0
11
0.009500
21
0.104345
31
0.0
0
LINE
8
0
6
CONTINUOUS
10
0.000000
20
0.106895
30
0.0
11
0.004918
21
0.106247
31
0.0
0
LINE
8
0
6
CONTINUOUS
10
0.018657
20
0.082910
30
0.0
11
0.019000
21
0.087855
31
0.0
0
LINE
8
0
6
CONTINUOUS
10
-0.017888
20
0.071826
30
0.0
11
-0.017119
21
0.060743
31
0.0
0
LINE
8
0
6
CONTINUOUS
10
-0.018657
20
0.082910
30
0.0
11
-0.017888
21
0.071826
31
0.0
0
LINE
8
0
6
CONTINUOUS
10
-0.016105
20
0.046124
30
0.0
11
-0.015598
21
0.038814
31
0.0
0
LINE
8
0
6
CONTINUOUS
10
-0.016612
20
0.053433
30
0.0
11
-0.016105
21
0.046124
31
0.0
0
LINE
8
0
6
CONTINUOUS
10
-0.014838
20
0.027850
30
0.0
11
-0.014077
21
0.016886
31
0.0
0
LINE
8
0
6
CONTINUOUS
10
-0.014077
20
0.016886
30
0.0
11
-0.012856
21
0.013313
31
0.0
0
LINE
8
0
6
CONTINUOUS
10
-0.017119
20
0.060743
30
0.0
11
-0.016612
21
0.053433
31
0.0
0
LINE
8
0
6
CONTINUOUS
10
-0.003216
20
0.009827
30
0.0
11
-0.000000
21
0.009827
31
0.0
0
LINE
8
0
6
CONTINUOUS
10
-0.015598
20
0.038814
30
0.0
11
-0.014838
21
0.027850
31
0.0
0
LINE
8
0
6
CONTINUOUS
10
-0.006432
20
0.009827
30
0.0
11
-0.003216
21
0.009827
31
0.0
0
LINE
8
0
6
CONTINUOUS
10
-0.012856
20
0.013313
30
0.0
11
-0.010085
21
0.010755
31
0.0
0
LINE
8
0
6
CONTINUOUS
10
-0.010085
20
0.010755
30
0.0
11
-0.006432
21
0.009827
31
0.0
0
LINE
8
0
6
CONTINUOUS
10
-0.019000
20
0.087855
30
0.0
11
-0.018353
21
0.092783
31
0.0
0
LINE
8
0
6
CONTINUOUS
10
-0.016455
20
0.097375
30
0.0
11
-0.018353
21
0.092783
31
0.0
0
LINE
8
0
6
CONTINUOUS
10
-0.013435
20
0.101319
30
0.0
11
-0.016455
21
0.097375
31
0.0
0
LINE
8
0
6
CONTINUOUS
10
-0.013435
20
0.101319
30
0.0
11
-0.009500
21
0.104345
31
0.0
0
LINE
8
0
6
CONTINUOUS
10
-0.009500
20
0.104345
30
0.0
11
-0.004918
21
0.106247
31
0.0
0
LINE
8
0
6
CONTINUOUS
10
-0.004918
20
0.106247
30
0.0
11
0.000000
21
0.106895
31
0.0
0
LINE
8
0
6
CONTINUOUS
10
-0.019000
20
0.087855
30
0.0
11
-0.018657
21
0.082910
31
0.0
0
LINE
8
0
6
CONTINUOUS
10
0.019106
20
0.086958
30
0.0
11
0.019285
21
0.089144
31
0.0
0
LINE
8
0
6
CONTINUOUS
10
0.019012
20
0.075725
30
0.0
11
0.019034
21
0.089194
31
0.0
0
LINE
8
0
6
CONTINUOUS
10
0.009500
20
0.105586
30
0.0
11
0.004918
21
0.107484
31
0.0
0
LINE
8
0
6
CONTINUOUS
10
0.018353
20
0.094040
30
0.0
11
0.016455
21
0.098627
31
0.0
0
LINE
8
0
6
CONTINUOUS
10
0.016455
20
0.098627
30
0.0
11
0.013435
21
0.102565
31
0.0
0
LINE
8
0
6
CONTINUOUS
10
0.013435
20
0.102565
30
0.0
11
0.009500
21
0.105586
31
0.0
0
LINE
8
0
6
CONTINUOUS
10
0.018992
20
0.089196
30
0.0
11
0.018353
21
0.094040
31
0.0
0
LINE
8
0
6
CONTINUOUS
10
0.000000
20
0.108075
30
0.0
11
0.004918
21
0.107484
31
0.0
0
LINE
8
0
6
CONTINUOUS
10
0.014454
20
-0.111406
30
0.0
11
0.016852
21
-0.110788
31
0.0
0
LINE
8
0
6
CONTINUOUS
10
0.016852
20
-0.110788
30
0.0
11
0.017514
21
-0.108410
31
0.0
0
LINE
8
0
6
CONTINUOUS
10
0.000000
20
-0.111406
30
0.0
11
0.012511
21
-0.111406
31
0.0
0
LINE
8
0
6
CONTINUOUS
10
0.017550
20
-0.106227
30
0.0
11
0.019000
21
0.068635
31
0.0
0
LINE
8
0
6
CONTINUOUS
10
0.019001
20
0.075711
30
0.0
11
0.019127
21
0.089175
31
0.0
0
LINE
8
0
6
CONTINUOUS
10
0.017514
20
-0.108410
30
0.0
11
0.017550
21
-0.106227
31
0.0
0
LINE
8
0
6
CONTINUOUS
10
0.012511
20
-0.111406
30
0.0
11
0.014454
21
-0.111406
31
0.0
0
LINE
8
0
6
CONTINUOUS
10
0.019000
20
0.068635
30
0.0
11
0.018992
21
0.089196
31
0.0
0
LINE
8
0
6
CONTINUOUS
10
0.019001
20
0.075711
30
0.0
11
0.019922
21
0.076911
31
0.0
0
LINE
8
0
6
CONTINUOUS
10
0.019922
20
0.076911
30
0.0
11
0.022218
21
0.082461
31
0.0
0
LINE
8
0
6
CONTINUOUS
10
0.011505
20
0.108265
30
0.0
11
0.005955
21
0.110563
31
0.0
0
LINE
8
0
6
CONTINUOUS
10
0.005955
20
0.110563
30
0.0
11
0.000000
21
0.111406
31
0.0
0
LINE
8
0
6
CONTINUOUS
10
0.023000
20
0.088416
30
0.0
11
0.022225
21
0.094282
31
0.0
0
LINE
8
0
6
CONTINUOUS
10
0.016270
20
0.104606
30
0.0
11
0.011505
21
0.108265
31
0.0
0
LINE
8
0
6
CONTINUOUS
10
0.019927
20
0.099837
30
0.0
11
0.016270
21
0.104606
31
0.0
0
LINE
8
0
6
CONTINUOUS
10
0.022225
20
0.094282
30
0.0
11
0.019927
21
0.099837
31
0.0
0
LINE
8
0
6
CONTINUOUS
10
0.022218
20
0.082461
30
0.0
11
0.023000
21
0.088416
31
0.0
0
LINE
8
0
6
CONTINUOUS
10
-0.019285
20
0.089144
30
0.0
11
-0.019106
21
0.086958
31
0.0
0
LINE
8
0
6
CONTINUOUS
10
-0.019034
20
0.089194
30
0.0
11
-0.019012
21
0.075725
31
0.0
0
LINE
8
0
6
CONTINUOUS
10
-0.004918
20
0.107484
30
0.0
11
-0.009500
21
0.105586
31
0.0
0
LINE
8
0
6
CONTINUOUS
10
-0.016455
20
0.098627
30
0.0
11
-0.018353
21
0.094040
31
0.0
0
LINE
8
0
6
CONTINUOUS
10
-0.013435
20
0.102565
30
0.0
11
-0.016455
21
0.098627
31
0.0
0
LINE
8
0
6
CONTINUOUS
10
-0.009500
20
0.105586
30
0.0
11
-0.013435
21
0.102565
31
0.0
0
LINE
8
0
6
CONTINUOUS
10
-0.018353
20
0.094040
30
0.0
11
-0.018992
21
0.089196
31
0.0
0
LINE
8
0
6
CONTINUOUS
10
-0.004918
20
0.107484
30
0.0
11
0.000000
21
0.108075
31
0.0
0
LINE
8
0
6
CONTINUOUS
10
-0.016852
20
-0.110788
30
0.0
11
-0.014454
21
-0.111406
31
0.0
0
LINE
8
0
6
CONTINUOUS
10
-0.017514
20
-0.108410
30
0.0
11
-0.016852
21
-0.110788
31
0.0
0
LINE
8
0
6
CONTINUOUS
10
-0.012511
20
-0.111406
30
0.0
11
0.000000
21
-0.111406
31
0.0
0
LINE
8
0
6
CONTINUOUS
10
-0.019000
20
0.068635
30
0.0
11
-0.017550
21
-0.106227
31
0.0
0
LINE
8
0
6
CONTINUOUS
10
-0.019127
20
0.089175
30
0.0
11
-0.019001
21
0.075711
31
0.0
0
LINE
8
0
6
CONTINUOUS
10
-0.017550
20
-0.106227
30
0.0
11
-0.017514
21
-0.108410
31
0.0
0
LINE
8
0
6
CONTINUOUS
10
-0.014454
20
-0.111406
30
0.0
11
-0.012511
21
-0.111406
31
0.0
0
LINE
8
0
6
CONTINUOUS
10
-0.018992
20
0.089196
30
0.0
11
-0.019000
21
0.068635
31
0.0
0
LINE
8
0
6
CONTINUOUS
10
-0.019922
20
0.076911
30
0.0
11
-0.019012
21
0.075725
31
0.0
0
LINE
8
0
6
CONTINUOUS
10
-0.022218
20
0.082461
30
0.0
11
-0.019922
21
0.076911
31
0.0
0
LINE
8
0
6
CONTINUOUS
10
-0.005955
20
0.110563
30
0.0
11
-0.011505
21
0.108265
31
0.0
0
LINE
8
0
6
CONTINUOUS
10
0.000000
20
0.111406
30
0.0
11
-0.005955
21
0.110563
31
0.0
0
LINE
8
0
6
CONTINUOUS
10
-0.022225
20
0.094282
30
0.0
11
-0.023000
21
0.088416
31
0.0
0
LINE
8
0
6
CONTINUOUS
10
-0.011505
20
0.108265
30
0.0
11
-0.016270
21
0.104606
31
0.0
0
LINE
8
0
6
CONTINUOUS
10
-0.016270
20
0.104606
30
0.0
11
-0.019927
21
0.099837
31
0.0
0
LINE
8
0
6
CONTINUOUS
10
-0.019927
20
0.099837
30
0.0
11
-0.022225
21
0.094282
31
0.0
0
LINE
8
0
6
CONTINUOUS
10
-0.023000
20
0.088416
30
0.0
11
-0.022218
21
0.082461
31
0.0
0
ENDSEC
0
EOF
