999
Erzeugt mit innoplus bad 
0
SECTION
2
HEADER
9
$ACADVER
1
AC1009
9
$DWGCODEPAGE
3
ISO8859-1
0
ENDSEC
0
SECTION
2
TABLES
0
TABLE
2
LAYER
70
1
0
LAYER
2
0
70
0
62
7
6
CONTINUOUS
0
ENDTAB
0
ENDSEC
0
SECTION
2
ENTITIES
0
LINE
8
0
6
CONTINUOUS
10
0.055097
20
0.137035
30
0.0
11
0.060165
21
0.136124
31
0.0
0
LINE
8
0
6
CONTINUOUS
10
0.068564
20
0.126249
30
0.0
11
0.068815
21
0.124840
31
0.0
0
LINE
8
0
6
CONTINUOUS
10
0.071838
20
0.146000
30
0.0
11
0.082910
21
0.146000
31
0.0
0
LINE
8
0
6
CONTINUOUS
10
0.082910
20
0.146000
30
0.0
11
0.071838
21
0.146000
31
0.0
0
LINE
8
0
6
CONTINUOUS
10
0.071826
20
0.146000
30
0.0
11
0.060743
21
0.146000
31
0.0
0
LINE
8
0
6
CONTINUOUS
10
0.078335
20
0.111800
30
0.0
11
0.082910
21
0.111800
31
0.0
0
LINE
8
0
6
CONTINUOUS
10
0.087855
20
0.146000
30
0.0
11
0.082910
21
0.146000
31
0.0
0
LINE
8
0
6
CONTINUOUS
10
0.082910
20
0.146000
30
0.0
11
0.071826
21
0.146000
31
0.0
0
LINE
8
0
6
CONTINUOUS
10
0.106895
20
0.138934
30
0.0
11
0.106895
21
0.142191
31
0.0
0
LINE
8
0
6
CONTINUOUS
10
0.047534
20
0.138092
30
0.0
11
0.055097
21
0.137035
31
0.0
0
LINE
8
0
6
CONTINUOUS
10
0.046140
20
0.146000
30
0.0
11
0.053453
21
0.146000
31
0.0
0
LINE
8
0
6
CONTINUOUS
10
0.053453
20
0.146000
30
0.0
11
0.046139
21
0.146000
31
0.0
0
LINE
8
0
6
CONTINUOUS
10
0.046124
20
0.146000
30
0.0
11
0.038814
21
0.146000
31
0.0
0
LINE
8
0
6
CONTINUOUS
10
0.053433
20
0.146000
30
0.0
11
0.046124
21
0.146000
31
0.0
0
LINE
8
0
6
CONTINUOUS
10
0.027850
20
0.146000
30
0.0
11
0.016886
21
0.146000
31
0.0
0
LINE
8
0
6
CONTINUOUS
10
0.016886
20
0.146000
30
0.0
11
0.013313
21
0.146000
31
0.0
0
LINE
8
0
6
CONTINUOUS
10
0.060743
20
0.146000
30
0.0
11
0.053433
21
0.146000
31
0.0
0
LINE
8
0
6
CONTINUOUS
10
0.010608
20
0.146000
30
0.0
11
0.009827
21
0.146000
31
0.0
0
LINE
8
0
6
CONTINUOUS
10
0.009827
20
0.146000
30
0.0
11
0.010608
21
0.146000
31
0.0
0
LINE
8
0
6
CONTINUOUS
10
0.038814
20
0.146000
30
0.0
11
0.027850
21
0.146000
31
0.0
0
LINE
8
0
6
CONTINUOUS
10
0.087855
20
0.146000
30
0.0
11
0.082910
21
0.146000
31
0.0
0
LINE
8
0
6
CONTINUOUS
10
0.013313
20
0.146000
30
0.0
11
0.010755
21
0.146000
31
0.0
0
LINE
8
0
6
CONTINUOUS
10
0.013410
20
0.145432
30
0.0
11
0.013313
21
0.146000
31
0.0
0
LINE
8
0
6
CONTINUOUS
10
0.010755
20
0.146000
30
0.0
11
0.009827
21
0.146000
31
0.0
0
LINE
8
0
6
CONTINUOUS
10
0.010881
20
0.145427
30
0.0
11
0.010755
21
0.146000
31
0.0
0
LINE
8
0
6
CONTINUOUS
10
0.092783
20
0.146000
30
0.0
11
0.087855
21
0.146000
31
0.0
0
LINE
8
0
6
CONTINUOUS
10
0.097375
20
0.146000
30
0.0
11
0.092783
21
0.146000
31
0.0
0
LINE
8
0
6
CONTINUOUS
10
0.101319
20
0.146000
30
0.0
11
0.097375
21
0.146000
31
0.0
0
LINE
8
0
6
CONTINUOUS
10
0.104345
20
0.146000
30
0.0
11
0.101319
21
0.146000
31
0.0
0
LINE
8
0
6
CONTINUOUS
10
0.106247
20
0.146000
30
0.0
11
0.104345
21
0.146000
31
0.0
0
LINE
8
0
6
CONTINUOUS
10
0.106895
20
0.146000
30
0.0
11
0.106247
21
0.146000
31
0.0
0
LINE
8
0
6
CONTINUOUS
10
0.106895
20
0.145448
30
0.0
11
0.106895
21
0.146000
31
0.0
0
LINE
8
0
6
CONTINUOUS
10
0.053432
20
0.140193
30
0.0
11
0.061515
21
0.139809
31
0.0
0
LINE
8
0
6
CONTINUOUS
10
0.053454
20
0.146000
30
0.0
11
0.060766
21
0.146000
31
0.0
0
LINE
8
0
6
CONTINUOUS
10
0.060766
20
0.146000
30
0.0
11
0.053453
21
0.146000
31
0.0
0
LINE
8
0
6
CONTINUOUS
10
0.017968
20
0.141165
30
0.0
11
0.029012
21
0.139825
31
0.0
0
LINE
8
0
6
CONTINUOUS
10
0.033360
20
0.141043
30
0.0
11
0.021301
21
0.141530
31
0.0
0
LINE
8
0
6
CONTINUOUS
10
0.038826
20
0.146000
30
0.0
11
0.027856
21
0.146000
31
0.0
0
LINE
8
0
6
CONTINUOUS
10
0.027853
20
0.146000
30
0.0
11
0.038825
21
0.146000
31
0.0
0
LINE
8
0
6
CONTINUOUS
10
0.087864
20
0.111800
30
0.0
11
0.092776
21
0.111800
31
0.0
0
LINE
8
0
6
CONTINUOUS
10
0.101319
20
0.111800
30
0.0
11
0.104346
21
0.111800
31
0.0
0
LINE
8
0
6
CONTINUOUS
10
0.097372
20
0.111800
30
0.0
11
0.101319
21
0.111800
31
0.0
0
LINE
8
0
6
CONTINUOUS
10
0.092776
20
0.111800
30
0.0
11
0.097372
21
0.111800
31
0.0
0
LINE
8
0
6
CONTINUOUS
10
0.104346
20
0.111800
30
0.0
11
0.106248
21
0.111800
31
0.0
0
LINE
8
0
6
CONTINUOUS
10
0.106895
20
0.111800
30
0.0
11
0.106895
21
0.112274
31
0.0
0
LINE
8
0
6
CONTINUOUS
10
0.106248
20
0.111800
30
0.0
11
0.106895
21
0.111800
31
0.0
0
LINE
8
0
6
CONTINUOUS
10
0.082910
20
0.111800
30
0.0
11
0.087864
21
0.111800
31
0.0
0
LINE
8
0
6
CONTINUOUS
10
0.074392
20
0.111800
30
0.0
11
0.078335
21
0.111800
31
0.0
0
LINE
8
0
6
CONTINUOUS
10
0.071366
20
0.111800
30
0.0
11
0.074392
21
0.111800
31
0.0
0
LINE
8
0
6
CONTINUOUS
10
0.069464
20
0.111800
30
0.0
11
0.071366
21
0.111800
31
0.0
0
LINE
8
0
6
CONTINUOUS
10
0.068815
20
0.111800
30
0.0
11
0.069464
21
0.111800
31
0.0
0
LINE
8
0
6
CONTINUOUS
10
0.068815
20
0.112274
30
0.0
11
0.068815
21
0.111800
31
0.0
0
LINE
8
0
6
CONTINUOUS
10
0.068815
20
0.124840
30
0.0
11
0.068815
21
0.112274
31
0.0
0
LINE
8
0
6
CONTINUOUS
10
0.010608
20
0.146000
30
0.0
11
0.016886
21
0.146000
31
0.0
0
LINE
8
0
6
CONTINUOUS
10
0.097051
20
0.146000
30
0.0
11
0.105673
21
0.146000
31
0.0
0
LINE
8
0
6
CONTINUOUS
10
0.097375
20
0.146000
30
0.0
11
0.097051
21
0.146000
31
0.0
0
LINE
8
0
6
CONTINUOUS
10
0.106320
20
0.146000
30
0.0
11
0.097375
21
0.146000
31
0.0
0
LINE
8
0
6
CONTINUOUS
10
0.105673
20
0.146000
30
0.0
11
0.106320
21
0.146000
31
0.0
0
LINE
8
0
6
CONTINUOUS
10
0.094587
20
0.146000
30
0.0
11
0.093025
21
0.146000
31
0.0
0
LINE
8
0
6
CONTINUOUS
10
0.100751
20
0.146000
30
0.0
11
0.094587
21
0.146000
31
0.0
0
LINE
8
0
6
CONTINUOUS
10
0.016886
20
0.146000
30
0.0
11
0.010608
21
0.146000
31
0.0
0
LINE
8
0
6
CONTINUOUS
10
0.014268
20
0.143558
30
0.0
11
0.013410
21
0.145432
31
0.0
0
LINE
8
0
6
CONTINUOUS
10
0.096100
20
0.146000
30
0.0
11
0.097051
21
0.146000
31
0.0
0
LINE
8
0
6
CONTINUOUS
10
0.097051
20
0.146000
30
0.0
11
0.087855
21
0.146000
31
0.0
0
LINE
8
0
6
CONTINUOUS
10
0.010881
20
0.145427
30
0.0
11
0.009827
21
0.145409
31
0.0
0
LINE
8
0
6
CONTINUOUS
10
0.011381
20
0.144118
30
0.0
11
0.010881
21
0.145427
31
0.0
0
LINE
8
0
6
CONTINUOUS
10
0.011381
20
0.144118
30
0.0
11
0.009827
21
0.145409
31
0.0
0
LINE
8
0
6
CONTINUOUS
10
0.009827
20
0.145409
30
0.0
11
0.009827
21
0.144495
31
0.0
0
LINE
8
0
6
CONTINUOUS
10
0.016886
20
0.146000
30
0.0
11
0.027853
21
0.146000
31
0.0
0
LINE
8
0
6
CONTINUOUS
10
0.038825
20
0.146000
30
0.0
11
0.046140
21
0.146000
31
0.0
0
LINE
8
0
6
CONTINUOUS
10
0.060766
20
0.146000
30
0.0
11
0.071838
21
0.146000
31
0.0
0
LINE
8
0
6
CONTINUOUS
10
0.071838
20
0.146000
30
0.0
11
0.060766
21
0.146000
31
0.0
0
LINE
8
0
6
CONTINUOUS
10
0.063293
20
0.134639
30
0.0
11
0.066045
21
0.132594
31
0.0
0
LINE
8
0
6
CONTINUOUS
10
0.106895
20
0.133297
30
0.0
11
0.106895
21
0.136124
31
0.0
0
LINE
8
0
6
CONTINUOUS
10
0.014268
20
0.143558
30
0.0
11
0.011381
21
0.144118
31
0.0
0
LINE
8
0
6
CONTINUOUS
10
0.011876
20
0.143289
30
0.0
11
0.014335
21
0.142472
31
0.0
0
LINE
8
0
6
CONTINUOUS
10
0.020485
20
0.143011
30
0.0
11
0.030661
21
0.142905
31
0.0
0
LINE
8
0
6
CONTINUOUS
10
0.106895
20
0.136124
30
0.0
11
0.106895
21
0.138934
31
0.0
0
LINE
8
0
6
CONTINUOUS
10
0.106895
20
0.127659
30
0.0
11
0.106895
21
0.130478
31
0.0
0
LINE
8
0
6
CONTINUOUS
10
0.106895
20
0.130478
30
0.0
11
0.106895
21
0.133297
31
0.0
0
LINE
8
0
6
CONTINUOUS
10
0.106895
20
0.142191
30
0.0
11
0.106895
21
0.145448
31
0.0
0
LINE
8
0
6
CONTINUOUS
10
0.046139
20
0.146000
30
0.0
11
0.038826
21
0.146000
31
0.0
0
LINE
8
0
6
CONTINUOUS
10
0.020485
20
0.143011
30
0.0
11
0.014268
21
0.143558
31
0.0
0
LINE
8
0
6
CONTINUOUS
10
0.011092
20
0.143449
30
0.0
11
0.013648
21
0.142221
31
0.0
0
LINE
8
0
6
CONTINUOUS
10
0.013648
20
0.142221
30
0.0
11
0.018033
21
0.141164
31
0.0
0
LINE
8
0
6
CONTINUOUS
10
0.021301
20
0.141530
30
0.0
11
0.014335
21
0.142472
31
0.0
0
LINE
8
0
6
CONTINUOUS
10
0.027856
20
0.146000
30
0.0
11
0.016886
21
0.146000
31
0.0
0
LINE
8
0
6
CONTINUOUS
10
0.061515
20
0.139809
30
0.0
11
0.074637
21
0.136124
31
0.0
0
LINE
8
0
6
CONTINUOUS
10
0.060165
20
0.136124
30
0.0
11
0.063293
21
0.134639
31
0.0
0
LINE
8
0
6
CONTINUOUS
10
0.066045
20
0.132594
30
0.0
11
0.067817
21
0.129629
31
0.0
0
LINE
8
0
6
CONTINUOUS
10
0.069146
20
0.132479
30
0.0
11
0.066862
21
0.132564
31
0.0
0
LINE
8
0
6
CONTINUOUS
10
0.067924
20
0.136124
30
0.0
11
0.063701
21
0.136124
31
0.0
0
LINE
8
0
6
CONTINUOUS
10
0.072785
20
0.132299
30
0.0
11
0.069146
21
0.132479
31
0.0
0
LINE
8
0
6
CONTINUOUS
10
0.070615
20
0.134506
30
0.0
11
0.076587
21
0.134170
31
0.0
0
LINE
8
0
6
CONTINUOUS
10
0.074637
20
0.136124
30
0.0
11
0.067924
21
0.136124
31
0.0
0
LINE
8
0
6
CONTINUOUS
10
0.077756
20
0.131724
30
0.0
11
0.072785
21
0.132299
31
0.0
0
LINE
8
0
6
CONTINUOUS
10
0.067817
20
0.129629
30
0.0
11
0.068564
21
0.126249
31
0.0
0
LINE
8
0
6
CONTINUOUS
10
0.053432
20
0.140193
30
0.0
11
0.045376
21
0.140529
31
0.0
0
LINE
8
0
6
CONTINUOUS
10
0.039906
20
0.138657
30
0.0
11
0.047534
21
0.138092
31
0.0
0
LINE
8
0
6
CONTINUOUS
10
0.029012
20
0.139825
30
0.0
11
0.039906
21
0.138657
31
0.0
0
LINE
8
0
6
CONTINUOUS
10
0.040987
20
0.142774
30
0.0
11
0.030661
21
0.142905
31
0.0
0
LINE
8
0
6
CONTINUOUS
10
0.033360
20
0.141043
30
0.0
11
0.045376
21
0.140529
31
0.0
0
LINE
8
0
6
CONTINUOUS
10
0.011381
20
0.144118
30
0.0
11
0.009827
21
0.144495
31
0.0
0
LINE
8
0
6
CONTINUOUS
10
0.009827
20
0.144495
30
0.0
11
0.011204
21
0.143422
31
0.0
0
LINE
8
0
6
CONTINUOUS
10
0.106895
20
0.124840
30
0.0
11
0.106895
21
0.127659
31
0.0
0
LINE
8
0
6
CONTINUOUS
10
0.106895
20
0.112274
30
0.0
11
0.106895
21
0.124840
31
0.0
0
LINE
8
0
6
CONTINUOUS
10
0.071838
20
0.146000
30
0.0
11
0.082910
21
0.146000
31
0.0
0
LINE
8
0
6
CONTINUOUS
10
0.082910
20
0.146000
30
0.0
11
0.071838
21
0.146000
31
0.0
0
LINE
8
0
6
CONTINUOUS
10
0.087855
20
0.146000
30
0.0
11
0.082910
21
0.146000
31
0.0
0
LINE
8
0
6
CONTINUOUS
10
0.082910
20
0.146000
30
0.0
11
0.087855
21
0.146000
31
0.0
0
LINE
8
0
6
CONTINUOUS
10
0.087855
20
0.146000
30
0.0
11
0.082910
21
0.146000
31
0.0
0
LINE
8
0
6
CONTINUOUS
10
0.060766
20
0.146000
30
0.0
11
0.071838
21
0.146000
31
0.0
0
LINE
8
0
6
CONTINUOUS
10
0.071838
20
0.146000
30
0.0
11
0.060766
21
0.146000
31
0.0
0
LINE
8
0
6
CONTINUOUS
10
0.092783
20
0.146000
30
0.0
11
0.093025
21
0.146000
31
0.0
0
LINE
8
0
6
CONTINUOUS
10
0.097375
20
0.146000
30
0.0
11
0.092783
21
0.146000
31
0.0
0
LINE
8
0
6
CONTINUOUS
10
0.100751
20
0.146000
30
0.0
11
0.101319
21
0.146000
31
0.0
0
LINE
8
0
6
CONTINUOUS
10
0.101319
20
0.146000
30
0.0
11
0.097375
21
0.146000
31
0.0
0
LINE
8
0
6
CONTINUOUS
10
0.094587
20
0.146000
30
0.0
11
0.087855
21
0.146000
31
0.0
0
LINE
8
0
6
CONTINUOUS
10
0.096100
20
0.146000
30
0.0
11
0.094587
21
0.146000
31
0.0
0
LINE
8
0
6
CONTINUOUS
10
-0.084824
20
0.084851
30
0.0
11
-0.082997
21
0.088088
31
0.0
0
LINE
8
0
6
CONTINUOUS
10
-0.102378
20
0.099697
30
0.0
11
-0.104513
21
0.095914
31
0.0
0
LINE
8
0
6
CONTINUOUS
10
-0.104758
20
0.095478
30
0.0
11
-0.104277
21
0.095207
31
0.0
0
LINE
8
0
6
CONTINUOUS
10
-0.104513
20
0.095914
30
0.0
11
-0.104758
21
0.095478
31
0.0
0
LINE
8
0
6
CONTINUOUS
10
-0.102878
20
0.094422
30
0.0
11
-0.104277
21
0.095207
31
0.0
0
LINE
8
0
6
CONTINUOUS
10
-0.100700
20
0.093198
30
0.0
11
-0.102878
21
0.094422
31
0.0
0
LINE
8
0
6
CONTINUOUS
10
-0.097956
20
0.091656
30
0.0
11
-0.100700
21
0.093198
31
0.0
0
LINE
8
0
6
CONTINUOUS
10
-0.094914
20
0.089947
30
0.0
11
-0.097956
21
0.091656
31
0.0
0
LINE
8
0
6
CONTINUOUS
10
-0.094914
20
0.089947
30
0.0
11
-0.091872
21
0.088237
31
0.0
0
LINE
8
0
6
CONTINUOUS
10
-0.091872
20
0.088237
30
0.0
11
-0.089127
21
0.086695
31
0.0
0
LINE
8
0
6
CONTINUOUS
10
-0.086949
20
0.085472
30
0.0
11
-0.089127
21
0.086695
31
0.0
0
LINE
8
0
6
CONTINUOUS
10
-0.086949
20
0.085472
30
0.0
11
-0.085551
21
0.084686
31
0.0
0
LINE
8
0
6
CONTINUOUS
10
-0.085069
20
0.084415
30
0.0
11
-0.084824
21
0.084851
31
0.0
0
LINE
8
0
6
CONTINUOUS
10
-0.085551
20
0.084686
30
0.0
11
-0.085069
21
0.084415
31
0.0
0
LINE
8
0
6
CONTINUOUS
10
0.070324
20
0.111800
30
0.0
11
0.070324
21
0.110003
31
0.0
0
LINE
8
0
6
CONTINUOUS
10
0.108450
20
0.082932
30
0.0
11
0.108319
21
0.093080
31
0.0
0
LINE
8
0
6
CONTINUOUS
10
0.108319
20
0.093080
30
0.0
11
0.108188
21
0.103229
31
0.0
0
LINE
8
0
6
CONTINUOUS
10
0.097910
20
0.111483
30
0.0
11
0.093672
21
0.111483
31
0.0
0
LINE
8
0
6
CONTINUOUS
10
0.101544
20
0.111483
30
0.0
11
0.097910
21
0.111483
31
0.0
0
LINE
8
0
6
CONTINUOUS
10
0.089138
20
0.111483
30
0.0
11
0.088491
21
0.111483
31
0.0
0
LINE
8
0
6
CONTINUOUS
10
0.104327
20
0.111483
30
0.0
11
0.101544
21
0.111483
31
0.0
0
LINE
8
0
6
CONTINUOUS
10
0.106666
20
0.111483
30
0.0
11
0.106072
21
0.111483
31
0.0
0
LINE
8
0
6
CONTINUOUS
10
0.106666
20
0.110003
30
0.0
11
0.106666
21
0.111483
31
0.0
0
LINE
8
0
6
CONTINUOUS
10
0.093672
20
0.111483
30
0.0
11
0.089138
21
0.111483
31
0.0
0
LINE
8
0
6
CONTINUOUS
10
0.106072
20
0.111483
30
0.0
11
0.104327
21
0.111483
31
0.0
0
LINE
8
0
6
CONTINUOUS
10
-0.078271
20
0.086594
30
0.0
11
-0.076093
21
0.086442
31
0.0
0
LINE
8
0
6
CONTINUOUS
10
0.065976
20
0.073444
30
0.0
11
0.067102
21
0.067322
31
0.0
0
LINE
8
0
6
CONTINUOUS
10
0.052933
20
0.083615
30
0.0
11
0.058455
21
0.082056
31
0.0
0
LINE
8
0
6
CONTINUOUS
10
0.058455
20
0.082056
30
0.0
11
0.063691
21
0.078686
31
0.0
0
LINE
8
0
6
CONTINUOUS
10
0.063691
20
0.078686
30
0.0
11
0.065976
21
0.073444
31
0.0
0
LINE
8
0
6
CONTINUOUS
10
0.065202
20
0.079195
30
0.0
11
0.063691
21
0.078686
31
0.0
0
LINE
8
0
6
CONTINUOUS
10
0.067021
20
0.080641
30
0.0
11
0.065202
21
0.079195
31
0.0
0
LINE
8
0
6
CONTINUOUS
10
0.108581
20
0.072784
30
0.0
11
0.108450
21
0.082932
31
0.0
0
LINE
8
0
6
CONTINUOUS
10
0.067440
20
0.061117
30
0.0
11
0.065415
21
-0.145000
31
0.0
0
LINE
8
0
6
CONTINUOUS
10
0.108188
20
0.103229
30
0.0
11
0.108109
21
0.109351
31
0.0
0
LINE
8
0
6
CONTINUOUS
10
0.108712
20
0.062636
30
0.0
11
0.108581
21
0.072784
31
0.0
0
LINE
8
0
6
CONTINUOUS
10
-0.104174
20
0.101059
30
0.0
11
-0.099492
21
0.097507
31
0.0
0
LINE
8
0
6
CONTINUOUS
10
-0.103212
20
0.100769
30
0.0
11
-0.097945
21
0.096889
31
0.0
0
LINE
8
0
6
CONTINUOUS
10
-0.084940
20
0.089508
30
0.0
11
-0.082766
21
0.088214
31
0.0
0
LINE
8
0
6
CONTINUOUS
10
-0.092033
20
0.093413
30
0.0
11
-0.089608
21
0.092118
31
0.0
0
LINE
8
0
6
CONTINUOUS
10
-0.099492
20
0.097507
30
0.0
11
-0.094662
21
0.094520
31
0.0
0
LINE
8
0
6
CONTINUOUS
10
-0.097945
20
0.096889
30
0.0
11
-0.092033
21
0.093413
31
0.0
0
LINE
8
0
6
CONTINUOUS
10
-0.108142
20
0.104942
30
0.0
11
-0.104174
21
0.101059
31
0.0
0
LINE
8
0
6
CONTINUOUS
10
-0.107369
20
0.104766
30
0.0
11
-0.103212
21
0.100769
31
0.0
0
LINE
8
0
6
CONTINUOUS
10
-0.082997
20
0.088088
30
0.0
11
-0.081234
21
0.087092
31
0.0
0
LINE
8
0
6
CONTINUOUS
10
-0.081234
20
0.087092
30
0.0
11
-0.078271
21
0.086594
31
0.0
0
LINE
8
0
6
CONTINUOUS
10
-0.110766
20
0.109011
30
0.0
11
-0.108142
21
0.104942
31
0.0
0
LINE
8
0
6
CONTINUOUS
10
-0.107369
20
0.104766
30
0.0
11
-0.110142
21
0.109016
31
0.0
0
LINE
8
0
6
CONTINUOUS
10
0.089196
20
0.110003
30
0.0
11
0.068635
21
0.110003
31
0.0
0
LINE
8
0
6
CONTINUOUS
10
0.107484
20
0.110003
30
0.0
11
0.105586
21
0.110003
31
0.0
0
LINE
8
0
6
CONTINUOUS
10
0.098627
20
0.110003
30
0.0
11
0.094040
21
0.110003
31
0.0
0
LINE
8
0
6
CONTINUOUS
10
0.102565
20
0.110003
30
0.0
11
0.098627
21
0.110003
31
0.0
0
LINE
8
0
6
CONTINUOUS
10
0.105586
20
0.110003
30
0.0
11
0.102565
21
0.110003
31
0.0
0
LINE
8
0
6
CONTINUOUS
10
0.094040
20
0.110003
30
0.0
11
0.089196
21
0.110003
31
0.0
0
LINE
8
0
6
CONTINUOUS
10
0.108075
20
0.110003
30
0.0
11
0.107484
21
0.110003
31
0.0
0
LINE
8
0
6
CONTINUOUS
10
0.108109
20
0.109351
30
0.0
11
0.108075
21
0.110003
31
0.0
0
LINE
8
0
6
CONTINUOUS
10
-0.110788
20
0.110003
30
0.0
11
-0.111406
21
0.110003
31
0.0
0
LINE
8
0
6
CONTINUOUS
10
-0.111406
20
0.110003
30
0.0
11
-0.110766
21
0.109011
31
0.0
0
LINE
8
0
6
CONTINUOUS
10
-0.108410
20
0.110003
30
0.0
11
-0.110788
21
0.110003
31
0.0
0
LINE
8
0
6
CONTINUOUS
10
-0.110788
20
0.110003
30
0.0
11
-0.110142
21
0.109016
31
0.0
0
LINE
8
0
6
CONTINUOUS
10
-0.110766
20
0.109011
30
0.0
11
-0.111406
21
0.110003
31
0.0
0
LINE
8
0
6
CONTINUOUS
10
-0.111406
20
0.110003
30
0.0
11
-0.110766
21
0.109011
31
0.0
0
LINE
8
0
6
CONTINUOUS
10
0.068635
20
0.110003
30
0.0
11
-0.106227
21
0.110003
31
0.0
0
LINE
8
0
6
CONTINUOUS
10
-0.106227
20
0.110003
30
0.0
11
-0.108410
21
0.110003
31
0.0
0
LINE
8
0
6
CONTINUOUS
10
-0.076093
20
0.086442
30
0.0
11
0.052933
21
0.083615
31
0.0
0
LINE
8
0
6
CONTINUOUS
10
0.067102
20
0.067322
30
0.0
11
0.067440
21
0.061117
31
0.0
0
LINE
8
0
6
CONTINUOUS
10
0.111393
20
-0.145000
30
0.0
11
0.108712
21
0.062636
31
0.0
0
LINE
8
0
6
CONTINUOUS
10
0.072146
20
-0.146000
30
0.0
11
0.068489
21
-0.146000
31
0.0
0
LINE
8
0
6
CONTINUOUS
10
0.076911
20
-0.146000
30
0.0
11
0.072146
21
-0.146000
31
0.0
0
LINE
8
0
6
CONTINUOUS
10
0.065415
20
-0.145000
30
0.0
11
0.065406
21
-0.146000
31
0.0
0
LINE
8
0
6
CONTINUOUS
10
0.066190
20
-0.146000
30
0.0
11
0.065406
21
-0.146000
31
0.0
0
LINE
8
0
6
CONTINUOUS
10
0.068489
20
-0.146000
30
0.0
11
0.066190
21
-0.146000
31
0.0
0
LINE
8
0
6
CONTINUOUS
10
0.082461
20
-0.146000
30
0.0
11
0.076911
21
-0.146000
31
0.0
0
LINE
8
0
6
CONTINUOUS
10
0.110563
20
-0.146000
30
0.0
11
0.108265
21
-0.146000
31
0.0
0
LINE
8
0
6
CONTINUOUS
10
0.111406
20
-0.146000
30
0.0
11
0.111393
21
-0.145000
31
0.0
0
LINE
8
0
6
CONTINUOUS
10
0.111406
20
-0.146000
30
0.0
11
0.110563
21
-0.146000
31
0.0
0
LINE
8
0
6
CONTINUOUS
10
0.094282
20
-0.146000
30
0.0
11
0.088416
21
-0.146000
31
0.0
0
LINE
8
0
6
CONTINUOUS
10
0.108265
20
-0.146000
30
0.0
11
0.104606
21
-0.146000
31
0.0
0
LINE
8
0
6
CONTINUOUS
10
0.099837
20
-0.146000
30
0.0
11
0.104606
21
-0.146000
31
0.0
0
LINE
8
0
6
CONTINUOUS
10
0.099837
20
-0.146000
30
0.0
11
0.094282
21
-0.146000
31
0.0
0
LINE
8
0
6
CONTINUOUS
10
0.088416
20
-0.146000
30
0.0
11
0.082461
21
-0.146000
31
0.0
0
LINE
8
0
6
CONTINUOUS
10
-0.094988
20
0.094756
30
0.0
11
-0.093803
21
0.094159
31
0.0
0
LINE
8
0
6
CONTINUOUS
10
-0.082997
20
0.088088
30
0.0
11
-0.083366
21
0.088470
31
0.0
0
LINE
8
0
6
CONTINUOUS
10
0.088491
20
0.110003
30
0.0
11
0.088491
21
0.111483
31
0.0
0
LINE
8
0
6
CONTINUOUS
10
-0.083366
20
0.088470
30
0.0
11
-0.083401
21
0.088497
31
0.0
0
LINE
8
0
6
CONTINUOUS
10
-0.083401
20
0.088497
30
0.0
11
-0.083796
21
0.088728
31
0.0
0
LINE
8
0
6
CONTINUOUS
10
-0.084940
20
0.089508
30
0.0
11
-0.086540
21
0.090617
31
0.0
0
LINE
8
0
6
CONTINUOUS
10
-0.089608
20
0.092118
30
0.0
11
-0.086798
21
0.090824
31
0.0
0
LINE
8
0
6
CONTINUOUS
10
-0.089665
20
0.092148
30
0.0
11
-0.089608
21
0.092118
31
0.0
0
LINE
8
0
6
CONTINUOUS
10
-0.093803
20
0.094159
30
0.0
11
-0.092802
21
0.093691
31
0.0
0
LINE
8
0
6
CONTINUOUS
10
-0.092802
20
0.093691
30
0.0
11
-0.091520
21
0.093055
31
0.0
0
ENDSEC
0
EOF
