999
Erzeugt mit innoplus bad 
0
SECTION
2
HEADER
9
$ACADVER
1
AC1009
9
$DWGCODEPAGE
3
ISO8859-1
0
ENDSEC
0
SECTION
2
TABLES
0
TABLE
2
LAYER
70
1
0
LAYER
2
0
70
0
62
7
6
CONTINUOUS
0
ENDTAB
0
ENDSEC
0
SECTION
2
ENTITIES
0
LINE
8
0
6
CONTINUOUS
10
0.036124
20
0.047500
30
0.0
11
0.038934
21
0.047500
31
0.0
0
LINE
8
0
6
CONTINUOUS
10
0.046000
20
0.048612
30
0.0
11
0.046000
21
0.049381
31
0.0
0
LINE
8
0
6
CONTINUOUS
10
0.038934
20
0.047500
30
0.0
11
0.042191
21
0.047500
31
0.0
0
LINE
8
0
6
CONTINUOUS
10
0.042191
20
0.047500
30
0.0
11
0.045448
21
0.047500
31
0.0
0
LINE
8
0
6
CONTINUOUS
10
0.046000
20
0.047843
30
0.0
11
0.046000
21
0.048612
31
0.0
0
LINE
8
0
6
CONTINUOUS
10
0.046000
20
0.050395
30
0.0
11
0.046000
21
0.050902
31
0.0
0
LINE
8
0
6
CONTINUOUS
10
0.046000
20
0.049888
30
0.0
11
0.046000
21
0.050395
31
0.0
0
LINE
8
0
6
CONTINUOUS
10
0.046000
20
0.051662
30
0.0
11
0.046000
21
0.052423
31
0.0
0
LINE
8
0
6
CONTINUOUS
10
0.046000
20
0.052423
30
0.0
11
0.046000
21
0.053644
31
0.0
0
LINE
8
0
6
CONTINUOUS
10
0.046000
20
0.049381
30
0.0
11
0.046000
21
0.049888
31
0.0
0
LINE
8
0
6
CONTINUOUS
10
0.046000
20
0.063284
30
0.0
11
0.046000
21
0.066500
31
0.0
0
LINE
8
0
6
CONTINUOUS
10
0.046000
20
0.050902
30
0.0
11
0.046000
21
0.051662
31
0.0
0
LINE
8
0
6
CONTINUOUS
10
0.046000
20
0.047500
30
0.0
11
0.046000
21
0.047843
31
0.0
0
LINE
8
0
6
CONTINUOUS
10
0.045448
20
0.047500
30
0.0
11
0.046000
21
0.047500
31
0.0
0
LINE
8
0
6
CONTINUOUS
10
0.046000
20
0.060068
30
0.0
11
0.046000
21
0.063284
31
0.0
0
LINE
8
0
6
CONTINUOUS
10
0.046000
20
0.053644
30
0.0
11
0.046000
21
0.056415
31
0.0
0
LINE
8
0
6
CONTINUOUS
10
0.045432
20
0.053801
30
0.0
11
0.046000
21
0.053644
31
0.0
0
LINE
8
0
6
CONTINUOUS
10
0.046000
20
0.056415
30
0.0
11
0.046000
21
0.060068
31
0.0
0
LINE
8
0
6
CONTINUOUS
10
0.045427
20
0.056517
30
0.0
11
0.046000
21
0.056415
31
0.0
0
LINE
8
0
6
CONTINUOUS
10
0.040193
20
0.051758
30
0.0
11
0.039809
21
0.050830
31
0.0
0
LINE
8
0
6
CONTINUOUS
10
0.041043
20
0.054103
30
0.0
11
0.041530
21
0.055504
31
0.0
0
LINE
8
0
6
CONTINUOUS
10
0.011800
20
0.048147
30
0.0
11
0.011800
21
0.050045
31
0.0
0
LINE
8
0
6
CONTINUOUS
10
0.011800
20
0.048147
30
0.0
11
0.011800
21
0.047500
31
0.0
0
LINE
8
0
6
CONTINUOUS
10
0.011800
20
0.047500
30
0.0
11
0.012274
21
0.047500
31
0.0
0
LINE
8
0
6
CONTINUOUS
10
0.011800
20
0.053065
30
0.0
11
0.011800
21
0.050045
31
0.0
0
LINE
8
0
6
CONTINUOUS
10
0.011800
20
0.057000
30
0.0
11
0.011800
21
0.053065
31
0.0
0
LINE
8
0
6
CONTINUOUS
10
0.011800
20
0.061582
30
0.0
11
0.011800
21
0.057000
31
0.0
0
LINE
8
0
6
CONTINUOUS
10
0.011800
20
0.066500
30
0.0
11
0.011800
21
0.061582
31
0.0
0
LINE
8
0
6
CONTINUOUS
10
0.043558
20
0.054683
30
0.0
11
0.045432
21
0.053801
31
0.0
0
LINE
8
0
6
CONTINUOUS
10
0.045427
20
0.056517
30
0.0
11
0.045409
21
0.060068
31
0.0
0
LINE
8
0
6
CONTINUOUS
10
0.044118
20
0.056945
30
0.0
11
0.045427
21
0.056517
31
0.0
0
LINE
8
0
6
CONTINUOUS
10
0.044118
20
0.056945
30
0.0
11
0.045409
21
0.060068
31
0.0
0
LINE
8
0
6
CONTINUOUS
10
0.045409
20
0.060068
30
0.0
11
0.044495
21
0.060068
31
0.0
0
LINE
8
0
6
CONTINUOUS
10
0.030478
20
0.047500
30
0.0
11
0.033297
21
0.047500
31
0.0
0
LINE
8
0
6
CONTINUOUS
10
0.043558
20
0.054683
30
0.0
11
0.044118
21
0.056945
31
0.0
0
LINE
8
0
6
CONTINUOUS
10
0.043289
20
0.057580
30
0.0
11
0.042472
21
0.056586
31
0.0
0
LINE
8
0
6
CONTINUOUS
10
0.043011
20
0.053251
30
0.0
11
0.042905
21
0.052409
31
0.0
0
LINE
8
0
6
CONTINUOUS
10
0.033297
20
0.047500
30
0.0
11
0.036124
21
0.047500
31
0.0
0
LINE
8
0
6
CONTINUOUS
10
0.043011
20
0.053251
30
0.0
11
0.043558
21
0.054683
31
0.0
0
LINE
8
0
6
CONTINUOUS
10
0.044495
20
0.060068
30
0.0
11
0.044495
21
0.063284
31
0.0
0
LINE
8
0
6
CONTINUOUS
10
0.044495
20
0.063284
30
0.0
11
0.044495
21
0.066500
31
0.0
0
LINE
8
0
6
CONTINUOUS
10
0.041530
20
0.055504
30
0.0
11
0.042472
21
0.056586
31
0.0
0
LINE
8
0
6
CONTINUOUS
10
0.024840
20
0.047500
30
0.0
11
0.027659
21
0.047500
31
0.0
0
LINE
8
0
6
CONTINUOUS
10
0.039809
20
0.050830
30
0.0
11
0.036124
21
0.050079
31
0.0
0
LINE
8
0
6
CONTINUOUS
10
0.032479
20
0.057019
30
0.0
11
0.032564
21
0.061593
31
0.0
0
LINE
8
0
6
CONTINUOUS
10
0.036124
20
0.053091
30
0.0
11
0.036124
21
0.057039
31
0.0
0
LINE
8
0
6
CONTINUOUS
10
0.032299
20
0.053093
30
0.0
11
0.032479
21
0.057019
31
0.0
0
LINE
8
0
6
CONTINUOUS
10
0.034506
20
0.053095
30
0.0
11
0.034170
21
0.050083
31
0.0
0
LINE
8
0
6
CONTINUOUS
10
0.036124
20
0.050079
30
0.0
11
0.036124
21
0.053091
31
0.0
0
LINE
8
0
6
CONTINUOUS
10
0.031724
20
0.050077
30
0.0
11
0.032299
21
0.053093
31
0.0
0
LINE
8
0
6
CONTINUOUS
10
0.027659
20
0.047500
30
0.0
11
0.030478
21
0.047500
31
0.0
0
LINE
8
0
6
CONTINUOUS
10
0.040193
20
0.051758
30
0.0
11
0.040529
21
0.052698
31
0.0
0
LINE
8
0
6
CONTINUOUS
10
0.042774
20
0.051521
30
0.0
11
0.042905
21
0.052409
31
0.0
0
LINE
8
0
6
CONTINUOUS
10
0.041043
20
0.054103
30
0.0
11
0.040529
21
0.052698
31
0.0
0
LINE
8
0
6
CONTINUOUS
10
0.044118
20
0.056945
30
0.0
11
0.044495
21
0.060068
31
0.0
0
LINE
8
0
6
CONTINUOUS
10
0.012274
20
0.047500
30
0.0
11
0.024840
21
0.047500
31
0.0
0
LINE
8
0
6
CONTINUOUS
10
0.038934
20
0.085500
30
0.0
11
0.036124
21
0.085500
31
0.0
0
LINE
8
0
6
CONTINUOUS
10
0.046000
20
0.083619
30
0.0
11
0.046000
21
0.084388
31
0.0
0
LINE
8
0
6
CONTINUOUS
10
0.042191
20
0.085500
30
0.0
11
0.038934
21
0.085500
31
0.0
0
LINE
8
0
6
CONTINUOUS
10
0.045448
20
0.085500
30
0.0
11
0.042191
21
0.085500
31
0.0
0
LINE
8
0
6
CONTINUOUS
10
0.046000
20
0.084388
30
0.0
11
0.046000
21
0.085157
31
0.0
0
LINE
8
0
6
CONTINUOUS
10
0.046000
20
0.082098
30
0.0
11
0.046000
21
0.082605
31
0.0
0
LINE
8
0
6
CONTINUOUS
10
0.046000
20
0.082605
30
0.0
11
0.046000
21
0.083112
31
0.0
0
LINE
8
0
6
CONTINUOUS
10
0.046000
20
0.080577
30
0.0
11
0.046000
21
0.081338
31
0.0
0
LINE
8
0
6
CONTINUOUS
10
0.046000
20
0.079356
30
0.0
11
0.046000
21
0.080577
31
0.0
0
LINE
8
0
6
CONTINUOUS
10
0.046000
20
0.083112
30
0.0
11
0.046000
21
0.083619
31
0.0
0
LINE
8
0
6
CONTINUOUS
10
0.046000
20
0.066500
30
0.0
11
0.046000
21
0.069716
31
0.0
0
LINE
8
0
6
CONTINUOUS
10
0.046000
20
0.081338
30
0.0
11
0.046000
21
0.082098
31
0.0
0
LINE
8
0
6
CONTINUOUS
10
0.046000
20
0.085500
30
0.0
11
0.045448
21
0.085500
31
0.0
0
LINE
8
0
6
CONTINUOUS
10
0.046000
20
0.085157
30
0.0
11
0.046000
21
0.085500
31
0.0
0
LINE
8
0
6
CONTINUOUS
10
0.046000
20
0.069716
30
0.0
11
0.046000
21
0.072932
31
0.0
0
LINE
8
0
6
CONTINUOUS
10
0.046000
20
0.079356
30
0.0
11
0.045432
21
0.079199
31
0.0
0
LINE
8
0
6
CONTINUOUS
10
0.046000
20
0.076585
30
0.0
11
0.046000
21
0.079356
31
0.0
0
LINE
8
0
6
CONTINUOUS
10
0.046000
20
0.076585
30
0.0
11
0.045427
21
0.076482
31
0.0
0
LINE
8
0
6
CONTINUOUS
10
0.046000
20
0.072932
30
0.0
11
0.046000
21
0.076585
31
0.0
0
LINE
8
0
6
CONTINUOUS
10
0.039809
20
0.082170
30
0.0
11
0.040193
21
0.081242
31
0.0
0
LINE
8
0
6
CONTINUOUS
10
0.041530
20
0.077495
30
0.0
11
0.041043
21
0.078897
31
0.0
0
LINE
8
0
6
CONTINUOUS
10
0.011800
20
0.082954
30
0.0
11
0.011800
21
0.084853
31
0.0
0
LINE
8
0
6
CONTINUOUS
10
0.012274
20
0.085500
30
0.0
11
0.011800
21
0.085500
31
0.0
0
LINE
8
0
6
CONTINUOUS
10
0.011800
20
0.085500
30
0.0
11
0.011800
21
0.084853
31
0.0
0
LINE
8
0
6
CONTINUOUS
10
0.011800
20
0.082954
30
0.0
11
0.011800
21
0.079935
31
0.0
0
LINE
8
0
6
CONTINUOUS
10
0.011800
20
0.079935
30
0.0
11
0.011800
21
0.076000
31
0.0
0
LINE
8
0
6
CONTINUOUS
10
0.011800
20
0.076000
30
0.0
11
0.011800
21
0.071418
31
0.0
0
LINE
8
0
6
CONTINUOUS
10
0.011800
20
0.071418
30
0.0
11
0.011800
21
0.066500
31
0.0
0
LINE
8
0
6
CONTINUOUS
10
0.045432
20
0.079199
30
0.0
11
0.043558
21
0.078316
31
0.0
0
LINE
8
0
6
CONTINUOUS
10
0.044495
20
0.072932
30
0.0
11
0.045409
21
0.072932
31
0.0
0
LINE
8
0
6
CONTINUOUS
10
0.044118
20
0.076055
30
0.0
11
0.045409
21
0.072932
31
0.0
0
LINE
8
0
6
CONTINUOUS
10
0.045427
20
0.076482
30
0.0
11
0.044118
21
0.076055
31
0.0
0
LINE
8
0
6
CONTINUOUS
10
0.045409
20
0.072932
30
0.0
11
0.045427
21
0.076482
31
0.0
0
LINE
8
0
6
CONTINUOUS
10
0.033297
20
0.085500
30
0.0
11
0.030478
21
0.085500
31
0.0
0
LINE
8
0
6
CONTINUOUS
10
0.042472
20
0.076413
30
0.0
11
0.043289
21
0.075420
31
0.0
0
LINE
8
0
6
CONTINUOUS
10
0.044118
20
0.076055
30
0.0
11
0.043558
21
0.078316
31
0.0
0
LINE
8
0
6
CONTINUOUS
10
0.042905
20
0.080591
30
0.0
11
0.043011
21
0.079749
31
0.0
0
LINE
8
0
6
CONTINUOUS
10
0.036124
20
0.085500
30
0.0
11
0.033297
21
0.085500
31
0.0
0
LINE
8
0
6
CONTINUOUS
10
0.043558
20
0.078316
30
0.0
11
0.043011
21
0.079749
31
0.0
0
LINE
8
0
6
CONTINUOUS
10
0.044495
20
0.069716
30
0.0
11
0.044495
21
0.072932
31
0.0
0
LINE
8
0
6
CONTINUOUS
10
0.044495
20
0.066500
30
0.0
11
0.044495
21
0.069716
31
0.0
0
LINE
8
0
6
CONTINUOUS
10
0.042472
20
0.076413
30
0.0
11
0.041530
21
0.077495
31
0.0
0
LINE
8
0
6
CONTINUOUS
10
0.027659
20
0.085500
30
0.0
11
0.024840
21
0.085500
31
0.0
0
LINE
8
0
6
CONTINUOUS
10
0.039809
20
0.082170
30
0.0
11
0.036124
21
0.082921
31
0.0
0
LINE
8
0
6
CONTINUOUS
10
0.032564
20
0.071407
30
0.0
11
0.032479
21
0.075981
31
0.0
0
LINE
8
0
6
CONTINUOUS
10
0.036124
20
0.075961
30
0.0
11
0.036124
21
0.079909
31
0.0
0
LINE
8
0
6
CONTINUOUS
10
0.032479
20
0.075981
30
0.0
11
0.032299
21
0.079907
31
0.0
0
LINE
8
0
6
CONTINUOUS
10
0.036124
20
0.079909
30
0.0
11
0.036124
21
0.082921
31
0.0
0
LINE
8
0
6
CONTINUOUS
10
0.034170
20
0.082917
30
0.0
11
0.034506
21
0.079905
31
0.0
0
LINE
8
0
6
CONTINUOUS
10
0.032299
20
0.079907
30
0.0
11
0.031724
21
0.082923
31
0.0
0
LINE
8
0
6
CONTINUOUS
10
0.030478
20
0.085500
30
0.0
11
0.027659
21
0.085500
31
0.0
0
LINE
8
0
6
CONTINUOUS
10
0.040529
20
0.080302
30
0.0
11
0.040193
21
0.081242
31
0.0
0
LINE
8
0
6
CONTINUOUS
10
0.040529
20
0.080302
30
0.0
11
0.041043
21
0.078897
31
0.0
0
LINE
8
0
6
CONTINUOUS
10
0.042905
20
0.080591
30
0.0
11
0.042774
21
0.081479
31
0.0
0
LINE
8
0
6
CONTINUOUS
10
0.044495
20
0.072932
30
0.0
11
0.044118
21
0.076055
31
0.0
0
LINE
8
0
6
CONTINUOUS
10
0.024840
20
0.085500
30
0.0
11
0.012274
21
0.085500
31
0.0
0
LINE
8
0
6
CONTINUOUS
10
-0.013271
20
0.086173
30
0.0
11
-0.013681
21
0.086222
31
0.0
0
LINE
8
0
6
CONTINUOUS
10
-0.004061
20
0.085375
30
0.0
11
-0.005292
21
0.085424
31
0.0
0
LINE
8
0
6
CONTINUOUS
10
-0.005292
20
0.085424
30
0.0
11
-0.009470
21
0.085760
31
0.0
0
LINE
8
0
6
CONTINUOUS
10
0.002310
20
0.061615
30
0.0
11
0.002873
21
0.066500
31
0.0
0
LINE
8
0
6
CONTINUOUS
10
0.002873
20
0.066500
30
0.0
11
0.002516
21
0.071385
31
0.0
0
LINE
8
0
6
CONTINUOUS
10
0.001323
20
0.075937
30
0.0
11
-0.000491
21
0.079846
31
0.0
0
LINE
8
0
6
CONTINUOUS
10
0.002516
20
0.071385
30
0.0
11
0.001323
21
0.075937
31
0.0
0
LINE
8
0
6
CONTINUOUS
10
-0.004015
20
0.047625
30
0.0
11
0.009097
21
0.047625
31
0.0
0
LINE
8
0
6
CONTINUOUS
10
0.009097
20
0.085375
30
0.0
11
-0.004061
21
0.085375
31
0.0
0
LINE
8
0
6
CONTINUOUS
10
-0.042922
20
0.055006
30
0.0
11
-0.042001
21
0.053804
31
0.0
0
LINE
8
0
6
CONTINUOUS
10
-0.045218
20
0.060555
30
0.0
11
-0.042922
21
0.055006
31
0.0
0
LINE
8
0
6
CONTINUOUS
10
-0.045216
20
0.072444
30
0.0
11
-0.046000
21
0.066510
31
0.0
0
LINE
8
0
6
CONTINUOUS
10
-0.027979
20
0.088931
30
0.0
11
-0.032727
21
0.087362
31
0.0
0
LINE
8
0
6
CONTINUOUS
10
-0.046000
20
0.066510
30
0.0
11
-0.045609
21
0.063533
31
0.0
0
LINE
8
0
6
CONTINUOUS
10
-0.023000
20
0.089500
30
0.0
11
-0.027979
21
0.088931
31
0.0
0
LINE
8
0
6
CONTINUOUS
10
-0.040660
20
0.081298
30
0.0
11
-0.043334
21
0.077084
31
0.0
0
LINE
8
0
6
CONTINUOUS
10
-0.032727
20
0.087362
30
0.0
11
-0.036990
21
0.084734
31
0.0
0
LINE
8
0
6
CONTINUOUS
10
-0.036990
20
0.084734
30
0.0
11
-0.040660
21
0.081298
31
0.0
0
LINE
8
0
6
CONTINUOUS
10
-0.043334
20
0.077084
30
0.0
11
-0.045216
21
0.072444
31
0.0
0
LINE
8
0
6
CONTINUOUS
10
-0.013273
20
0.087362
30
0.0
11
-0.018021
21
0.088931
31
0.0
0
LINE
8
0
6
CONTINUOUS
10
-0.018021
20
0.088931
30
0.0
11
-0.023000
21
0.089500
31
0.0
0
LINE
8
0
6
CONTINUOUS
10
-0.009010
20
0.084734
30
0.0
11
-0.013273
21
0.087362
31
0.0
0
LINE
8
0
6
CONTINUOUS
10
-0.004006
20
0.062940
30
0.0
11
-0.004008
21
0.067290
31
0.0
0
LINE
8
0
6
CONTINUOUS
10
-0.027918
20
0.085578
30
0.0
11
-0.032500
21
0.083680
31
0.0
0
LINE
8
0
6
CONTINUOUS
10
-0.039455
20
0.076721
30
0.0
11
-0.041353
21
0.072134
31
0.0
0
LINE
8
0
6
CONTINUOUS
10
-0.036435
20
0.080659
30
0.0
11
-0.039455
21
0.076721
31
0.0
0
LINE
8
0
6
CONTINUOUS
10
-0.032500
20
0.083680
30
0.0
11
-0.036435
21
0.080659
31
0.0
0
LINE
8
0
6
CONTINUOUS
10
-0.041353
20
0.072134
30
0.0
11
-0.041992
21
0.067290
31
0.0
0
LINE
8
0
6
CONTINUOUS
10
-0.027918
20
0.085578
30
0.0
11
-0.023000
21
0.086170
31
0.0
0
LINE
8
0
6
CONTINUOUS
10
-0.018082
20
0.085578
30
0.0
11
-0.013500
21
0.083680
31
0.0
0
LINE
8
0
6
CONTINUOUS
10
-0.006545
20
0.076721
30
0.0
11
-0.004647
21
0.072134
31
0.0
0
LINE
8
0
6
CONTINUOUS
10
-0.009565
20
0.080659
30
0.0
11
-0.006545
21
0.076721
31
0.0
0
LINE
8
0
6
CONTINUOUS
10
-0.013500
20
0.083680
30
0.0
11
-0.009565
21
0.080659
31
0.0
0
LINE
8
0
6
CONTINUOUS
10
-0.004647
20
0.072134
30
0.0
11
-0.004008
21
0.067290
31
0.0
0
LINE
8
0
6
CONTINUOUS
10
-0.003921
20
0.058717
30
0.0
11
-0.003769
21
0.061898
31
0.0
0
LINE
8
0
6
CONTINUOUS
10
-0.018082
20
0.085578
30
0.0
11
-0.023000
21
0.086170
31
0.0
0
LINE
8
0
6
CONTINUOUS
10
-0.039853
20
-0.088882
30
0.0
11
-0.037454
21
-0.089500
31
0.0
0
LINE
8
0
6
CONTINUOUS
10
-0.040514
20
-0.086504
30
0.0
11
-0.039853
21
-0.088882
31
0.0
0
LINE
8
0
6
CONTINUOUS
10
-0.006148
20
-0.088882
30
0.0
11
-0.005486
21
-0.086504
31
0.0
0
LINE
8
0
6
CONTINUOUS
10
-0.008546
20
-0.089500
30
0.0
11
-0.006148
21
-0.088882
31
0.0
0
LINE
8
0
6
CONTINUOUS
10
-0.035511
20
-0.089500
30
0.0
11
-0.023000
21
-0.089500
31
0.0
0
LINE
8
0
6
CONTINUOUS
10
-0.042000
20
0.046730
30
0.0
11
-0.040550
21
-0.084322
31
0.0
0
LINE
8
0
6
CONTINUOUS
10
-0.005450
20
-0.084322
30
0.0
11
-0.004000
21
0.046730
31
0.0
0
LINE
8
0
6
CONTINUOUS
10
-0.005486
20
-0.086504
30
0.0
11
-0.005450
21
-0.084322
31
0.0
0
LINE
8
0
6
CONTINUOUS
10
-0.040550
20
-0.084322
30
0.0
11
-0.040514
21
-0.086504
31
0.0
0
LINE
8
0
6
CONTINUOUS
10
-0.023000
20
-0.089500
30
0.0
11
-0.010489
21
-0.089500
31
0.0
0
LINE
8
0
6
CONTINUOUS
10
-0.037454
20
-0.089500
30
0.0
11
-0.035511
21
-0.089500
31
0.0
0
LINE
8
0
6
CONTINUOUS
10
-0.010489
20
-0.089500
30
0.0
11
-0.008546
21
-0.089500
31
0.0
0
LINE
8
0
6
CONTINUOUS
10
-0.041992
20
0.067290
30
0.0
11
-0.041994
21
0.063081
31
0.0
0
LINE
8
0
6
CONTINUOUS
10
-0.013681
20
0.086222
30
0.0
11
-0.018079
21
0.086951
31
0.0
0
LINE
8
0
6
CONTINUOUS
10
-0.003976
20
0.053835
30
0.0
11
-0.003921
21
0.058717
31
0.0
0
LINE
8
0
6
CONTINUOUS
10
-0.004000
20
0.046730
30
0.0
11
-0.004006
21
0.062940
31
0.0
0
LINE
8
0
6
CONTINUOUS
10
-0.003993
20
0.055840
30
0.0
11
-0.003976
21
0.062938
31
0.0
0
LINE
8
0
6
CONTINUOUS
10
-0.003769
20
0.061898
30
0.0
11
-0.003636
21
0.062737
31
0.0
0
LINE
8
0
6
CONTINUOUS
10
-0.001721
20
0.058148
30
0.0
11
-0.000630
21
0.062890
31
0.0
0
LINE
8
0
6
CONTINUOUS
10
-0.012236
20
0.086049
30
0.0
11
-0.013271
21
0.086173
31
0.0
0
LINE
8
0
6
CONTINUOUS
10
-0.003881
20
0.058432
30
0.0
11
-0.003925
21
0.058337
31
0.0
0
LINE
8
0
6
CONTINUOUS
10
-0.000630
20
0.062890
30
0.0
11
-0.000321
21
0.066629
31
0.0
0
LINE
8
0
6
CONTINUOUS
10
-0.002800
20
0.063345
30
0.0
11
-0.003881
21
0.058432
31
0.0
0
LINE
8
0
6
CONTINUOUS
10
-0.000321
20
0.066629
30
0.0
11
-0.000579
21
0.070452
31
0.0
0
LINE
8
0
6
CONTINUOUS
10
-0.001651
20
0.075511
30
0.0
11
-0.003555
21
0.079714
31
0.0
0
LINE
8
0
6
CONTINUOUS
10
-0.005944
20
0.078972
30
0.0
11
-0.006048
21
0.078706
31
0.0
0
LINE
8
0
6
CONTINUOUS
10
-0.000579
20
0.070452
30
0.0
11
-0.001651
21
0.075511
31
0.0
0
LINE
8
0
6
CONTINUOUS
10
-0.002400
20
0.069634
30
0.0
11
-0.000579
21
0.070452
31
0.0
0
LINE
8
0
6
CONTINUOUS
10
-0.002710
20
0.069381
30
0.0
11
-0.002400
21
0.069634
31
0.0
0
LINE
8
0
6
CONTINUOUS
10
-0.009470
20
0.085760
30
0.0
11
-0.012236
21
0.086049
31
0.0
0
LINE
8
0
6
CONTINUOUS
10
0.010097
20
0.066500
30
0.0
11
0.010097
21
0.071385
31
0.0
0
LINE
8
0
6
CONTINUOUS
10
0.010097
20
0.071385
30
0.0
11
0.010097
21
0.075937
31
0.0
0
LINE
8
0
6
CONTINUOUS
10
0.010097
20
0.075937
30
0.0
11
0.010097
21
0.079846
31
0.0
0
LINE
8
0
6
CONTINUOUS
10
0.010097
20
0.079846
30
0.0
11
0.010097
21
0.082846
31
0.0
0
LINE
8
0
6
CONTINUOUS
10
0.010097
20
0.085375
30
0.0
11
0.009097
21
0.085375
31
0.0
0
LINE
8
0
6
CONTINUOUS
10
0.010097
20
0.084732
30
0.0
11
0.010097
21
0.085375
31
0.0
0
LINE
8
0
6
CONTINUOUS
10
0.010097
20
0.082846
30
0.0
11
0.010097
21
0.084732
31
0.0
0
LINE
8
0
6
CONTINUOUS
10
0.010097
20
0.061615
30
0.0
11
0.010097
21
0.066500
31
0.0
0
LINE
8
0
6
CONTINUOUS
10
0.010097
20
0.057063
30
0.0
11
0.010097
21
0.061615
31
0.0
0
LINE
8
0
6
CONTINUOUS
10
0.010097
20
0.053154
30
0.0
11
0.010097
21
0.057063
31
0.0
0
LINE
8
0
6
CONTINUOUS
10
0.010097
20
0.050154
30
0.0
11
0.010097
21
0.053154
31
0.0
0
LINE
8
0
6
CONTINUOUS
10
0.009097
20
0.047625
30
0.0
11
0.010097
21
0.047625
31
0.0
0
LINE
8
0
6
CONTINUOUS
10
0.010097
20
0.047625
30
0.0
11
0.010097
21
0.048268
31
0.0
0
LINE
8
0
6
CONTINUOUS
10
0.010097
20
0.048268
30
0.0
11
0.010097
21
0.050154
31
0.0
0
LINE
8
0
6
CONTINUOUS
10
0.008816
20
0.048634
30
0.0
11
0.011800
21
0.048634
31
0.0
0
LINE
8
0
6
CONTINUOUS
10
0.011800
20
0.084366
30
0.0
11
0.008816
21
0.084366
31
0.0
0
LINE
8
0
6
CONTINUOUS
10
-0.042000
20
0.046730
30
0.0
11
-0.041994
21
0.063081
31
0.0
0
LINE
8
0
6
CONTINUOUS
10
-0.045609
20
0.063533
30
0.0
11
-0.045218
21
0.060555
31
0.0
0
ENDSEC
0
EOF
