999
Erzeugt mit innoplus bad 
0
SECTION
2
HEADER
9
$ACADVER
1
AC1009
9
$DWGCODEPAGE
3
ISO8859-1
0
ENDSEC
0
SECTION
2
TABLES
0
TABLE
2
LAYER
70
1
0
LAYER
2
0
70
0
62
7
6
CONTINUOUS
0
ENDTAB
0
ENDSEC
0
SECTION
2
ENTITIES
0
LINE
8
0
6
CONTINUOUS
10
-0.013271
20
0.082131
30
0.0
11
-0.013681
21
0.082180
31
0.0
0
LINE
8
0
6
CONTINUOUS
10
-0.004061
20
0.081333
30
0.0
11
-0.005292
21
0.081382
31
0.0
0
LINE
8
0
6
CONTINUOUS
10
-0.005292
20
0.081382
30
0.0
11
-0.009470
21
0.081718
31
0.0
0
LINE
8
0
6
CONTINUOUS
10
0.002310
20
0.057573
30
0.0
11
0.002873
21
0.062458
31
0.0
0
LINE
8
0
6
CONTINUOUS
10
0.002873
20
0.062458
30
0.0
11
0.002516
21
0.067343
31
0.0
0
LINE
8
0
6
CONTINUOUS
10
0.001323
20
0.071895
30
0.0
11
-0.000491
21
0.075804
31
0.0
0
LINE
8
0
6
CONTINUOUS
10
0.002516
20
0.067343
30
0.0
11
0.001323
21
0.071895
31
0.0
0
LINE
8
0
6
CONTINUOUS
10
-0.004015
20
0.043583
30
0.0
11
0.009097
21
0.043583
31
0.0
0
LINE
8
0
6
CONTINUOUS
10
0.009097
20
0.081333
30
0.0
11
-0.004061
21
0.081333
31
0.0
0
LINE
8
0
6
CONTINUOUS
10
-0.042922
20
0.050964
30
0.0
11
-0.042001
21
0.049762
31
0.0
0
LINE
8
0
6
CONTINUOUS
10
-0.045218
20
0.056513
30
0.0
11
-0.042922
21
0.050964
31
0.0
0
LINE
8
0
6
CONTINUOUS
10
-0.045216
20
0.068402
30
0.0
11
-0.046000
21
0.062468
31
0.0
0
LINE
8
0
6
CONTINUOUS
10
-0.027979
20
0.084889
30
0.0
11
-0.032727
21
0.083319
31
0.0
0
LINE
8
0
6
CONTINUOUS
10
-0.046000
20
0.062468
30
0.0
11
-0.045609
21
0.059490
31
0.0
0
LINE
8
0
6
CONTINUOUS
10
-0.023000
20
0.085458
30
0.0
11
-0.027979
21
0.084889
31
0.0
0
LINE
8
0
6
CONTINUOUS
10
-0.040660
20
0.077256
30
0.0
11
-0.043334
21
0.073042
31
0.0
0
LINE
8
0
6
CONTINUOUS
10
-0.032727
20
0.083319
30
0.0
11
-0.036990
21
0.080692
31
0.0
0
LINE
8
0
6
CONTINUOUS
10
-0.036990
20
0.080692
30
0.0
11
-0.040660
21
0.077256
31
0.0
0
LINE
8
0
6
CONTINUOUS
10
-0.043334
20
0.073042
30
0.0
11
-0.045216
21
0.068402
31
0.0
0
LINE
8
0
6
CONTINUOUS
10
-0.013273
20
0.083319
30
0.0
11
-0.018021
21
0.084889
31
0.0
0
LINE
8
0
6
CONTINUOUS
10
-0.018021
20
0.084889
30
0.0
11
-0.023000
21
0.085458
31
0.0
0
LINE
8
0
6
CONTINUOUS
10
-0.009010
20
0.080692
30
0.0
11
-0.013273
21
0.083319
31
0.0
0
LINE
8
0
6
CONTINUOUS
10
-0.004006
20
0.058898
30
0.0
11
-0.004008
21
0.063248
31
0.0
0
LINE
8
0
6
CONTINUOUS
10
-0.027918
20
0.081536
30
0.0
11
-0.032500
21
0.079638
31
0.0
0
LINE
8
0
6
CONTINUOUS
10
-0.039455
20
0.072679
30
0.0
11
-0.041353
21
0.068092
31
0.0
0
LINE
8
0
6
CONTINUOUS
10
-0.036435
20
0.076617
30
0.0
11
-0.039455
21
0.072679
31
0.0
0
LINE
8
0
6
CONTINUOUS
10
-0.032500
20
0.079638
30
0.0
11
-0.036435
21
0.076617
31
0.0
0
LINE
8
0
6
CONTINUOUS
10
-0.041353
20
0.068092
30
0.0
11
-0.041992
21
0.063248
31
0.0
0
LINE
8
0
6
CONTINUOUS
10
-0.027918
20
0.081536
30
0.0
11
-0.023000
21
0.082128
31
0.0
0
LINE
8
0
6
CONTINUOUS
10
-0.018082
20
0.081536
30
0.0
11
-0.013500
21
0.079638
31
0.0
0
LINE
8
0
6
CONTINUOUS
10
-0.006545
20
0.072679
30
0.0
11
-0.004647
21
0.068092
31
0.0
0
LINE
8
0
6
CONTINUOUS
10
-0.009565
20
0.076617
30
0.0
11
-0.006545
21
0.072679
31
0.0
0
LINE
8
0
6
CONTINUOUS
10
-0.013500
20
0.079638
30
0.0
11
-0.009565
21
0.076617
31
0.0
0
LINE
8
0
6
CONTINUOUS
10
-0.004647
20
0.068092
30
0.0
11
-0.004008
21
0.063248
31
0.0
0
LINE
8
0
6
CONTINUOUS
10
-0.003921
20
0.054675
30
0.0
11
-0.003769
21
0.057856
31
0.0
0
LINE
8
0
6
CONTINUOUS
10
-0.018082
20
0.081536
30
0.0
11
-0.023000
21
0.082128
31
0.0
0
LINE
8
0
6
CONTINUOUS
10
-0.039853
20
-0.092924
30
0.0
11
-0.037454
21
-0.093542
31
0.0
0
LINE
8
0
6
CONTINUOUS
10
-0.040514
20
-0.090546
30
0.0
11
-0.039853
21
-0.092924
31
0.0
0
LINE
8
0
6
CONTINUOUS
10
-0.006148
20
-0.092924
30
0.0
11
-0.005486
21
-0.090546
31
0.0
0
LINE
8
0
6
CONTINUOUS
10
-0.008546
20
-0.093542
30
0.0
11
-0.006148
21
-0.092924
31
0.0
0
LINE
8
0
6
CONTINUOUS
10
-0.035511
20
-0.093542
30
0.0
11
-0.023000
21
-0.093542
31
0.0
0
LINE
8
0
6
CONTINUOUS
10
-0.042000
20
0.042688
30
0.0
11
-0.040550
21
-0.088364
31
0.0
0
LINE
8
0
6
CONTINUOUS
10
-0.005450
20
-0.088364
30
0.0
11
-0.004000
21
0.042688
31
0.0
0
LINE
8
0
6
CONTINUOUS
10
-0.005486
20
-0.090546
30
0.0
11
-0.005450
21
-0.088364
31
0.0
0
LINE
8
0
6
CONTINUOUS
10
-0.040550
20
-0.088364
30
0.0
11
-0.040514
21
-0.090546
31
0.0
0
LINE
8
0
6
CONTINUOUS
10
-0.023000
20
-0.093542
30
0.0
11
-0.010489
21
-0.093542
31
0.0
0
LINE
8
0
6
CONTINUOUS
10
-0.037454
20
-0.093542
30
0.0
11
-0.035511
21
-0.093542
31
0.0
0
LINE
8
0
6
CONTINUOUS
10
-0.010489
20
-0.093542
30
0.0
11
-0.008546
21
-0.093542
31
0.0
0
LINE
8
0
6
CONTINUOUS
10
-0.041992
20
0.063248
30
0.0
11
-0.041994
21
0.059039
31
0.0
0
LINE
8
0
6
CONTINUOUS
10
-0.013681
20
0.082180
30
0.0
11
-0.018079
21
0.082909
31
0.0
0
LINE
8
0
6
CONTINUOUS
10
-0.003976
20
0.049793
30
0.0
11
-0.003921
21
0.054675
31
0.0
0
LINE
8
0
6
CONTINUOUS
10
-0.004000
20
0.042688
30
0.0
11
-0.004006
21
0.058898
31
0.0
0
LINE
8
0
6
CONTINUOUS
10
-0.003993
20
0.051798
30
0.0
11
-0.003976
21
0.058896
31
0.0
0
LINE
8
0
6
CONTINUOUS
10
-0.003769
20
0.057856
30
0.0
11
-0.003636
21
0.058695
31
0.0
0
LINE
8
0
6
CONTINUOUS
10
-0.001721
20
0.054106
30
0.0
11
-0.000630
21
0.058848
31
0.0
0
LINE
8
0
6
CONTINUOUS
10
-0.012236
20
0.082007
30
0.0
11
-0.013271
21
0.082131
31
0.0
0
LINE
8
0
6
CONTINUOUS
10
-0.003881
20
0.054390
30
0.0
11
-0.003925
21
0.054295
31
0.0
0
LINE
8
0
6
CONTINUOUS
10
-0.000630
20
0.058848
30
0.0
11
-0.000321
21
0.062587
31
0.0
0
LINE
8
0
6
CONTINUOUS
10
-0.002800
20
0.059303
30
0.0
11
-0.003881
21
0.054390
31
0.0
0
LINE
8
0
6
CONTINUOUS
10
-0.000321
20
0.062587
30
0.0
11
-0.000579
21
0.066410
31
0.0
0
LINE
8
0
6
CONTINUOUS
10
-0.001651
20
0.071469
30
0.0
11
-0.003555
21
0.075672
31
0.0
0
LINE
8
0
6
CONTINUOUS
10
-0.005944
20
0.074930
30
0.0
11
-0.006048
21
0.074664
31
0.0
0
LINE
8
0
6
CONTINUOUS
10
-0.000579
20
0.066410
30
0.0
11
-0.001651
21
0.071469
31
0.0
0
LINE
8
0
6
CONTINUOUS
10
-0.002400
20
0.065592
30
0.0
11
-0.000579
21
0.066410
31
0.0
0
LINE
8
0
6
CONTINUOUS
10
-0.002710
20
0.065339
30
0.0
11
-0.002400
21
0.065592
31
0.0
0
LINE
8
0
6
CONTINUOUS
10
-0.009470
20
0.081718
30
0.0
11
-0.012236
21
0.082007
31
0.0
0
LINE
8
0
6
CONTINUOUS
10
0.010097
20
0.062458
30
0.0
11
0.010097
21
0.067343
31
0.0
0
LINE
8
0
6
CONTINUOUS
10
0.010097
20
0.067343
30
0.0
11
0.010097
21
0.071895
31
0.0
0
LINE
8
0
6
CONTINUOUS
10
0.010097
20
0.071895
30
0.0
11
0.010097
21
0.075804
31
0.0
0
LINE
8
0
6
CONTINUOUS
10
0.010097
20
0.075804
30
0.0
11
0.010097
21
0.078804
31
0.0
0
LINE
8
0
6
CONTINUOUS
10
0.010097
20
0.081333
30
0.0
11
0.009097
21
0.081333
31
0.0
0
LINE
8
0
6
CONTINUOUS
10
0.010097
20
0.080690
30
0.0
11
0.010097
21
0.081333
31
0.0
0
LINE
8
0
6
CONTINUOUS
10
0.010097
20
0.078804
30
0.0
11
0.010097
21
0.080690
31
0.0
0
LINE
8
0
6
CONTINUOUS
10
0.010097
20
0.057573
30
0.0
11
0.010097
21
0.062458
31
0.0
0
LINE
8
0
6
CONTINUOUS
10
0.010097
20
0.053021
30
0.0
11
0.010097
21
0.057573
31
0.0
0
LINE
8
0
6
CONTINUOUS
10
0.010097
20
0.049112
30
0.0
11
0.010097
21
0.053021
31
0.0
0
LINE
8
0
6
CONTINUOUS
10
0.010097
20
0.046112
30
0.0
11
0.010097
21
0.049112
31
0.0
0
LINE
8
0
6
CONTINUOUS
10
0.009097
20
0.043583
30
0.0
11
0.010097
21
0.043583
31
0.0
0
LINE
8
0
6
CONTINUOUS
10
0.010097
20
0.043583
30
0.0
11
0.010097
21
0.044226
31
0.0
0
LINE
8
0
6
CONTINUOUS
10
0.010097
20
0.044226
30
0.0
11
0.010097
21
0.046112
31
0.0
0
LINE
8
0
6
CONTINUOUS
10
0.008816
20
0.044592
30
0.0
11
0.011800
21
0.044592
31
0.0
0
LINE
8
0
6
CONTINUOUS
10
0.011800
20
0.080324
30
0.0
11
0.008816
21
0.080324
31
0.0
0
LINE
8
0
6
CONTINUOUS
10
-0.042000
20
0.042688
30
0.0
11
-0.041994
21
0.059039
31
0.0
0
LINE
8
0
6
CONTINUOUS
10
-0.045609
20
0.059490
30
0.0
11
-0.045218
21
0.056513
31
0.0
0
LINE
8
0
6
CONTINUOUS
10
0.036124
20
0.043458
30
0.0
11
0.038934
21
0.043458
31
0.0
0
LINE
8
0
6
CONTINUOUS
10
0.046000
20
0.044570
30
0.0
11
0.046000
21
0.045339
31
0.0
0
LINE
8
0
6
CONTINUOUS
10
0.038934
20
0.043458
30
0.0
11
0.042191
21
0.043458
31
0.0
0
LINE
8
0
6
CONTINUOUS
10
0.042191
20
0.043458
30
0.0
11
0.045448
21
0.043458
31
0.0
0
LINE
8
0
6
CONTINUOUS
10
0.046000
20
0.043801
30
0.0
11
0.046000
21
0.044570
31
0.0
0
LINE
8
0
6
CONTINUOUS
10
0.046000
20
0.046353
30
0.0
11
0.046000
21
0.046860
31
0.0
0
LINE
8
0
6
CONTINUOUS
10
0.046000
20
0.045846
30
0.0
11
0.046000
21
0.046353
31
0.0
0
LINE
8
0
6
CONTINUOUS
10
0.046000
20
0.047620
30
0.0
11
0.046000
21
0.048381
31
0.0
0
LINE
8
0
6
CONTINUOUS
10
0.046000
20
0.048381
30
0.0
11
0.046000
21
0.049602
31
0.0
0
LINE
8
0
6
CONTINUOUS
10
0.046000
20
0.045339
30
0.0
11
0.046000
21
0.045846
31
0.0
0
LINE
8
0
6
CONTINUOUS
10
0.046000
20
0.059242
30
0.0
11
0.046000
21
0.062458
31
0.0
0
LINE
8
0
6
CONTINUOUS
10
0.046000
20
0.046860
30
0.0
11
0.046000
21
0.047620
31
0.0
0
LINE
8
0
6
CONTINUOUS
10
0.046000
20
0.043458
30
0.0
11
0.046000
21
0.043801
31
0.0
0
LINE
8
0
6
CONTINUOUS
10
0.045448
20
0.043458
30
0.0
11
0.046000
21
0.043458
31
0.0
0
LINE
8
0
6
CONTINUOUS
10
0.046000
20
0.056026
30
0.0
11
0.046000
21
0.059242
31
0.0
0
LINE
8
0
6
CONTINUOUS
10
0.046000
20
0.049602
30
0.0
11
0.046000
21
0.052373
31
0.0
0
LINE
8
0
6
CONTINUOUS
10
0.045432
20
0.049759
30
0.0
11
0.046000
21
0.049602
31
0.0
0
LINE
8
0
6
CONTINUOUS
10
0.046000
20
0.052373
30
0.0
11
0.046000
21
0.056026
31
0.0
0
LINE
8
0
6
CONTINUOUS
10
0.045427
20
0.052475
30
0.0
11
0.046000
21
0.052373
31
0.0
0
LINE
8
0
6
CONTINUOUS
10
0.040193
20
0.047715
30
0.0
11
0.039809
21
0.046788
31
0.0
0
LINE
8
0
6
CONTINUOUS
10
0.041043
20
0.050061
30
0.0
11
0.041530
21
0.051462
31
0.0
0
LINE
8
0
6
CONTINUOUS
10
0.011800
20
0.044105
30
0.0
11
0.011800
21
0.046003
31
0.0
0
LINE
8
0
6
CONTINUOUS
10
0.011800
20
0.044105
30
0.0
11
0.011800
21
0.043458
31
0.0
0
LINE
8
0
6
CONTINUOUS
10
0.011800
20
0.043458
30
0.0
11
0.012274
21
0.043458
31
0.0
0
LINE
8
0
6
CONTINUOUS
10
0.011800
20
0.049023
30
0.0
11
0.011800
21
0.046003
31
0.0
0
LINE
8
0
6
CONTINUOUS
10
0.011800
20
0.052958
30
0.0
11
0.011800
21
0.049023
31
0.0
0
LINE
8
0
6
CONTINUOUS
10
0.011800
20
0.057540
30
0.0
11
0.011800
21
0.052958
31
0.0
0
LINE
8
0
6
CONTINUOUS
10
0.011800
20
0.062458
30
0.0
11
0.011800
21
0.057540
31
0.0
0
LINE
8
0
6
CONTINUOUS
10
0.043558
20
0.050641
30
0.0
11
0.045432
21
0.049759
31
0.0
0
LINE
8
0
6
CONTINUOUS
10
0.045427
20
0.052475
30
0.0
11
0.045409
21
0.056026
31
0.0
0
LINE
8
0
6
CONTINUOUS
10
0.044118
20
0.052903
30
0.0
11
0.045427
21
0.052475
31
0.0
0
LINE
8
0
6
CONTINUOUS
10
0.044118
20
0.052903
30
0.0
11
0.045409
21
0.056026
31
0.0
0
LINE
8
0
6
CONTINUOUS
10
0.045409
20
0.056026
30
0.0
11
0.044495
21
0.056026
31
0.0
0
LINE
8
0
6
CONTINUOUS
10
0.030478
20
0.043458
30
0.0
11
0.033297
21
0.043458
31
0.0
0
LINE
8
0
6
CONTINUOUS
10
0.043558
20
0.050641
30
0.0
11
0.044118
21
0.052903
31
0.0
0
LINE
8
0
6
CONTINUOUS
10
0.043289
20
0.053538
30
0.0
11
0.042472
21
0.052544
31
0.0
0
LINE
8
0
6
CONTINUOUS
10
0.043011
20
0.049209
30
0.0
11
0.042905
21
0.048367
31
0.0
0
LINE
8
0
6
CONTINUOUS
10
0.033297
20
0.043458
30
0.0
11
0.036124
21
0.043458
31
0.0
0
LINE
8
0
6
CONTINUOUS
10
0.043011
20
0.049209
30
0.0
11
0.043558
21
0.050641
31
0.0
0
LINE
8
0
6
CONTINUOUS
10
0.044495
20
0.056026
30
0.0
11
0.044495
21
0.059242
31
0.0
0
LINE
8
0
6
CONTINUOUS
10
0.044495
20
0.059242
30
0.0
11
0.044495
21
0.062458
31
0.0
0
LINE
8
0
6
CONTINUOUS
10
0.041530
20
0.051462
30
0.0
11
0.042472
21
0.052544
31
0.0
0
LINE
8
0
6
CONTINUOUS
10
0.024840
20
0.043458
30
0.0
11
0.027659
21
0.043458
31
0.0
0
LINE
8
0
6
CONTINUOUS
10
0.039809
20
0.046788
30
0.0
11
0.036124
21
0.046037
31
0.0
0
LINE
8
0
6
CONTINUOUS
10
0.032479
20
0.052977
30
0.0
11
0.032564
21
0.057551
31
0.0
0
LINE
8
0
6
CONTINUOUS
10
0.036124
20
0.049049
30
0.0
11
0.036124
21
0.052997
31
0.0
0
LINE
8
0
6
CONTINUOUS
10
0.032299
20
0.049051
30
0.0
11
0.032479
21
0.052977
31
0.0
0
LINE
8
0
6
CONTINUOUS
10
0.034506
20
0.049053
30
0.0
11
0.034170
21
0.046041
31
0.0
0
LINE
8
0
6
CONTINUOUS
10
0.036124
20
0.046037
30
0.0
11
0.036124
21
0.049049
31
0.0
0
LINE
8
0
6
CONTINUOUS
10
0.031724
20
0.046035
30
0.0
11
0.032299
21
0.049051
31
0.0
0
LINE
8
0
6
CONTINUOUS
10
0.027659
20
0.043458
30
0.0
11
0.030478
21
0.043458
31
0.0
0
LINE
8
0
6
CONTINUOUS
10
0.040193
20
0.047715
30
0.0
11
0.040529
21
0.048656
31
0.0
0
LINE
8
0
6
CONTINUOUS
10
0.042774
20
0.047479
30
0.0
11
0.042905
21
0.048367
31
0.0
0
LINE
8
0
6
CONTINUOUS
10
0.041043
20
0.050061
30
0.0
11
0.040529
21
0.048656
31
0.0
0
LINE
8
0
6
CONTINUOUS
10
0.044118
20
0.052903
30
0.0
11
0.044495
21
0.056026
31
0.0
0
LINE
8
0
6
CONTINUOUS
10
0.012274
20
0.043458
30
0.0
11
0.024840
21
0.043458
31
0.0
0
LINE
8
0
6
CONTINUOUS
10
0.038934
20
0.081458
30
0.0
11
0.036124
21
0.081458
31
0.0
0
LINE
8
0
6
CONTINUOUS
10
0.046000
20
0.079577
30
0.0
11
0.046000
21
0.080346
31
0.0
0
LINE
8
0
6
CONTINUOUS
10
0.042191
20
0.081458
30
0.0
11
0.038934
21
0.081458
31
0.0
0
LINE
8
0
6
CONTINUOUS
10
0.045448
20
0.081458
30
0.0
11
0.042191
21
0.081458
31
0.0
0
LINE
8
0
6
CONTINUOUS
10
0.046000
20
0.080346
30
0.0
11
0.046000
21
0.081115
31
0.0
0
LINE
8
0
6
CONTINUOUS
10
0.046000
20
0.078056
30
0.0
11
0.046000
21
0.078563
31
0.0
0
LINE
8
0
6
CONTINUOUS
10
0.046000
20
0.078563
30
0.0
11
0.046000
21
0.079070
31
0.0
0
LINE
8
0
6
CONTINUOUS
10
0.046000
20
0.076535
30
0.0
11
0.046000
21
0.077296
31
0.0
0
LINE
8
0
6
CONTINUOUS
10
0.046000
20
0.075314
30
0.0
11
0.046000
21
0.076535
31
0.0
0
LINE
8
0
6
CONTINUOUS
10
0.046000
20
0.079070
30
0.0
11
0.046000
21
0.079577
31
0.0
0
LINE
8
0
6
CONTINUOUS
10
0.046000
20
0.062458
30
0.0
11
0.046000
21
0.065674
31
0.0
0
LINE
8
0
6
CONTINUOUS
10
0.046000
20
0.077296
30
0.0
11
0.046000
21
0.078056
31
0.0
0
LINE
8
0
6
CONTINUOUS
10
0.046000
20
0.081458
30
0.0
11
0.045448
21
0.081458
31
0.0
0
LINE
8
0
6
CONTINUOUS
10
0.046000
20
0.081115
30
0.0
11
0.046000
21
0.081458
31
0.0
0
LINE
8
0
6
CONTINUOUS
10
0.046000
20
0.065674
30
0.0
11
0.046000
21
0.068890
31
0.0
0
LINE
8
0
6
CONTINUOUS
10
0.046000
20
0.075314
30
0.0
11
0.045432
21
0.075157
31
0.0
0
LINE
8
0
6
CONTINUOUS
10
0.046000
20
0.072543
30
0.0
11
0.046000
21
0.075314
31
0.0
0
LINE
8
0
6
CONTINUOUS
10
0.046000
20
0.072543
30
0.0
11
0.045427
21
0.072440
31
0.0
0
LINE
8
0
6
CONTINUOUS
10
0.046000
20
0.068890
30
0.0
11
0.046000
21
0.072543
31
0.0
0
LINE
8
0
6
CONTINUOUS
10
0.039809
20
0.078127
30
0.0
11
0.040193
21
0.077200
31
0.0
0
LINE
8
0
6
CONTINUOUS
10
0.041530
20
0.073453
30
0.0
11
0.041043
21
0.074855
31
0.0
0
LINE
8
0
6
CONTINUOUS
10
0.011800
20
0.078912
30
0.0
11
0.011800
21
0.080811
31
0.0
0
LINE
8
0
6
CONTINUOUS
10
0.012274
20
0.081458
30
0.0
11
0.011800
21
0.081458
31
0.0
0
LINE
8
0
6
CONTINUOUS
10
0.011800
20
0.081458
30
0.0
11
0.011800
21
0.080811
31
0.0
0
LINE
8
0
6
CONTINUOUS
10
0.011800
20
0.078912
30
0.0
11
0.011800
21
0.075893
31
0.0
0
LINE
8
0
6
CONTINUOUS
10
0.011800
20
0.075893
30
0.0
11
0.011800
21
0.071958
31
0.0
0
LINE
8
0
6
CONTINUOUS
10
0.011800
20
0.071958
30
0.0
11
0.011800
21
0.067375
31
0.0
0
LINE
8
0
6
CONTINUOUS
10
0.011800
20
0.067375
30
0.0
11
0.011800
21
0.062458
31
0.0
0
LINE
8
0
6
CONTINUOUS
10
0.045432
20
0.075157
30
0.0
11
0.043558
21
0.074274
31
0.0
0
LINE
8
0
6
CONTINUOUS
10
0.044495
20
0.068890
30
0.0
11
0.045409
21
0.068890
31
0.0
0
LINE
8
0
6
CONTINUOUS
10
0.044118
20
0.072013
30
0.0
11
0.045409
21
0.068890
31
0.0
0
LINE
8
0
6
CONTINUOUS
10
0.045427
20
0.072440
30
0.0
11
0.044118
21
0.072013
31
0.0
0
LINE
8
0
6
CONTINUOUS
10
0.045409
20
0.068890
30
0.0
11
0.045427
21
0.072440
31
0.0
0
LINE
8
0
6
CONTINUOUS
10
0.033297
20
0.081458
30
0.0
11
0.030478
21
0.081458
31
0.0
0
LINE
8
0
6
CONTINUOUS
10
0.042472
20
0.072371
30
0.0
11
0.043289
21
0.071378
31
0.0
0
LINE
8
0
6
CONTINUOUS
10
0.044118
20
0.072013
30
0.0
11
0.043558
21
0.074274
31
0.0
0
LINE
8
0
6
CONTINUOUS
10
0.042905
20
0.076549
30
0.0
11
0.043011
21
0.075707
31
0.0
0
LINE
8
0
6
CONTINUOUS
10
0.036124
20
0.081458
30
0.0
11
0.033297
21
0.081458
31
0.0
0
LINE
8
0
6
CONTINUOUS
10
0.043558
20
0.074274
30
0.0
11
0.043011
21
0.075707
31
0.0
0
LINE
8
0
6
CONTINUOUS
10
0.044495
20
0.065674
30
0.0
11
0.044495
21
0.068890
31
0.0
0
LINE
8
0
6
CONTINUOUS
10
0.044495
20
0.062458
30
0.0
11
0.044495
21
0.065674
31
0.0
0
LINE
8
0
6
CONTINUOUS
10
0.042472
20
0.072371
30
0.0
11
0.041530
21
0.073453
31
0.0
0
LINE
8
0
6
CONTINUOUS
10
0.027659
20
0.081458
30
0.0
11
0.024840
21
0.081458
31
0.0
0
LINE
8
0
6
CONTINUOUS
10
0.039809
20
0.078127
30
0.0
11
0.036124
21
0.078879
31
0.0
0
LINE
8
0
6
CONTINUOUS
10
0.032564
20
0.067365
30
0.0
11
0.032479
21
0.071939
31
0.0
0
LINE
8
0
6
CONTINUOUS
10
0.036124
20
0.071919
30
0.0
11
0.036124
21
0.075867
31
0.0
0
LINE
8
0
6
CONTINUOUS
10
0.032479
20
0.071939
30
0.0
11
0.032299
21
0.075865
31
0.0
0
LINE
8
0
6
CONTINUOUS
10
0.036124
20
0.075867
30
0.0
11
0.036124
21
0.078879
31
0.0
0
LINE
8
0
6
CONTINUOUS
10
0.034170
20
0.078875
30
0.0
11
0.034506
21
0.075863
31
0.0
0
LINE
8
0
6
CONTINUOUS
10
0.032299
20
0.075865
30
0.0
11
0.031724
21
0.078881
31
0.0
0
LINE
8
0
6
CONTINUOUS
10
0.030478
20
0.081458
30
0.0
11
0.027659
21
0.081458
31
0.0
0
LINE
8
0
6
CONTINUOUS
10
0.040529
20
0.076260
30
0.0
11
0.040193
21
0.077200
31
0.0
0
LINE
8
0
6
CONTINUOUS
10
0.040529
20
0.076260
30
0.0
11
0.041043
21
0.074855
31
0.0
0
LINE
8
0
6
CONTINUOUS
10
0.042905
20
0.076549
30
0.0
11
0.042774
21
0.077437
31
0.0
0
LINE
8
0
6
CONTINUOUS
10
0.044495
20
0.068890
30
0.0
11
0.044118
21
0.072013
31
0.0
0
LINE
8
0
6
CONTINUOUS
10
0.024840
20
0.081458
30
0.0
11
0.012274
21
0.081458
31
0.0
0
LINE
8
0
6
CONTINUOUS
10
0.000465
20
0.084997
30
0.0
11
0.003604
21
0.088488
31
0.0
0
LINE
8
0
6
CONTINUOUS
10
-0.002076
20
0.081896
30
0.0
11
-0.001539
21
0.082625
31
0.0
0
LINE
8
0
6
CONTINUOUS
10
-0.002578
20
0.081138
30
0.0
11
-0.002076
21
0.081896
31
0.0
0
LINE
8
0
6
CONTINUOUS
10
-0.001598
20
0.082588
30
0.0
11
0.000465
21
0.084997
31
0.0
0
LINE
8
0
6
CONTINUOUS
10
0.003544
20
0.088531
30
0.0
11
0.000303
21
0.085112
31
0.0
0
LINE
8
0
6
CONTINUOUS
10
0.000437
20
0.085012
30
0.0
11
0.003544
21
0.088531
31
0.0
0
LINE
8
0
6
CONTINUOUS
10
-0.002440
20
0.081641
30
0.0
11
-0.001624
21
0.082708
31
0.0
0
LINE
8
0
6
CONTINUOUS
10
-0.001868
20
0.082976
30
0.0
11
-0.002857
21
0.081765
31
0.0
0
LINE
8
0
6
CONTINUOUS
10
-0.002667
20
0.081333
30
0.0
11
-0.002440
21
0.081641
31
0.0
0
LINE
8
0
6
CONTINUOUS
10
-0.002857
20
0.081765
30
0.0
11
-0.003150
21
0.081333
31
0.0
0
LINE
8
0
6
CONTINUOUS
10
-0.001624
20
0.082708
30
0.0
11
0.000437
21
0.085012
31
0.0
0
LINE
8
0
6
CONTINUOUS
10
0.004588
20
0.090308
30
0.0
11
0.004542
21
0.091155
31
0.0
0
LINE
8
0
6
CONTINUOUS
10
0.004528
20
0.090352
30
0.0
11
0.004482
21
0.091198
31
0.0
0
LINE
8
0
6
CONTINUOUS
10
0.004310
20
0.090503
30
0.0
11
0.004322
21
0.091432
31
0.0
0
LINE
8
0
6
CONTINUOUS
10
0.004169
20
0.091717
30
0.0
11
0.003078
21
0.092699
31
0.0
0
LINE
8
0
6
CONTINUOUS
10
0.003078
20
0.092699
30
0.0
11
0.004322
21
0.091432
31
0.0
0
LINE
8
0
6
CONTINUOUS
10
0.004588
20
0.090308
30
0.0
11
0.004528
21
0.090352
31
0.0
0
LINE
8
0
6
CONTINUOUS
10
0.003604
20
0.088488
30
0.0
11
0.004588
21
0.090308
31
0.0
0
LINE
8
0
6
CONTINUOUS
10
0.003544
20
0.088531
30
0.0
11
0.004528
21
0.090352
31
0.0
0
LINE
8
0
6
CONTINUOUS
10
0.004322
20
0.091432
30
0.0
11
0.004482
21
0.091198
31
0.0
0
LINE
8
0
6
CONTINUOUS
10
0.004542
20
0.091155
30
0.0
11
0.004169
21
0.091717
31
0.0
0
LINE
8
0
6
CONTINUOUS
10
0.004482
20
0.091198
30
0.0
11
0.004542
21
0.091155
31
0.0
0
LINE
8
0
6
CONTINUOUS
10
-0.001868
20
0.082976
30
0.0
11
0.000303
21
0.085112
31
0.0
0
LINE
8
0
6
CONTINUOUS
10
-0.001056
20
0.091744
30
0.0
11
-0.003255
21
0.087597
31
0.0
0
LINE
8
0
6
CONTINUOUS
10
-0.004793
20
0.084899
30
0.0
11
-0.005293
21
0.084144
31
0.0
0
LINE
8
0
6
CONTINUOUS
10
-0.005293
20
0.084144
30
0.0
11
-0.005833
21
0.083412
31
0.0
0
LINE
8
0
6
CONTINUOUS
10
-0.006119
20
0.082958
30
0.0
11
-0.006572
21
0.082235
31
0.0
0
LINE
8
0
6
CONTINUOUS
10
-0.005833
20
0.083412
30
0.0
11
-0.006119
21
0.082958
31
0.0
0
LINE
8
0
6
CONTINUOUS
10
-0.006572
20
0.082235
30
0.0
11
-0.006944
21
0.081735
31
0.0
0
LINE
8
0
6
CONTINUOUS
10
-0.003255
20
0.087597
30
0.0
11
-0.004808
21
0.084831
31
0.0
0
LINE
8
0
6
CONTINUOUS
10
-0.000995
20
0.091703
30
0.0
11
-0.003231
21
0.087575
31
0.0
0
LINE
8
0
6
CONTINUOUS
10
-0.000995
20
0.091703
30
0.0
11
-0.003091
21
0.087483
31
0.0
0
LINE
8
0
6
CONTINUOUS
10
-0.005148
20
0.083365
30
0.0
11
-0.004351
21
0.084711
31
0.0
0
LINE
8
0
6
CONTINUOUS
10
-0.004687
20
0.084848
30
0.0
11
-0.005408
21
0.083715
31
0.0
0
LINE
8
0
6
CONTINUOUS
10
-0.005938
20
0.082268
30
0.0
11
-0.005148
21
0.083365
31
0.0
0
LINE
8
0
6
CONTINUOUS
10
-0.005408
20
0.083715
30
0.0
11
-0.006101
21
0.082667
31
0.0
0
LINE
8
0
6
CONTINUOUS
10
-0.006558
20
0.081483
30
0.0
11
-0.005938
21
0.082268
31
0.0
0
LINE
8
0
6
CONTINUOUS
10
-0.006101
20
0.082667
30
0.0
11
-0.006620
21
0.081869
31
0.0
0
LINE
8
0
6
CONTINUOUS
10
-0.003231
20
0.087575
30
0.0
11
-0.004687
21
0.084848
31
0.0
0
LINE
8
0
6
CONTINUOUS
10
0.001126
20
0.093542
30
0.0
11
0.000315
21
0.093294
31
0.0
0
LINE
8
0
6
CONTINUOUS
10
0.001187
20
0.093501
30
0.0
11
0.000376
21
0.093253
31
0.0
0
LINE
8
0
6
CONTINUOUS
10
0.001461
20
0.093430
30
0.0
11
0.000593
21
0.093100
31
0.0
0
LINE
8
0
6
CONTINUOUS
10
0.002444
20
0.091791
30
0.0
11
0.003078
21
0.092699
31
0.0
0
LINE
8
0
6
CONTINUOUS
10
0.003078
20
0.092699
30
0.0
11
0.001782
21
0.093385
31
0.0
0
LINE
8
0
6
CONTINUOUS
10
0.001461
20
0.093430
30
0.0
11
0.003078
21
0.092699
31
0.0
0
LINE
8
0
6
CONTINUOUS
10
0.000315
20
0.093294
30
0.0
11
-0.001056
21
0.091744
31
0.0
0
LINE
8
0
6
CONTINUOUS
10
0.000376
20
0.093253
30
0.0
11
0.000315
21
0.093294
31
0.0
0
LINE
8
0
6
CONTINUOUS
10
0.000376
20
0.093253
30
0.0
11
-0.000995
21
0.091703
31
0.0
0
LINE
8
0
6
CONTINUOUS
10
0.001126
20
0.093542
30
0.0
11
0.001187
21
0.093501
31
0.0
0
LINE
8
0
6
CONTINUOUS
10
0.001782
20
0.093385
30
0.0
11
0.001126
21
0.093542
31
0.0
0
LINE
8
0
6
CONTINUOUS
10
0.001187
20
0.093501
30
0.0
11
0.001461
21
0.093430
31
0.0
0
LINE
8
0
6
CONTINUOUS
10
-0.003091
20
0.087483
30
0.0
11
-0.004351
21
0.084711
31
0.0
0
ENDSEC
0
EOF
