999
Erzeugt mit innoplus bad 
0
SECTION
2
HEADER
9
$ACADVER
1
AC1009
9
$DWGCODEPAGE
3
ISO8859-1
0
ENDSEC
0
SECTION
2
TABLES
0
TABLE
2
LAYER
70
1
0
LAYER
2
0
70
0
62
7
6
CONTINUOUS
0
ENDTAB
0
ENDSEC
0
SECTION
2
ENTITIES
0
LINE
8
0
6
CONTINUOUS
10
0.002980
20
0.055536
30
0.0
11
0.008037
21
0.054625
31
0.0
0
LINE
8
0
6
CONTINUOUS
10
0.016418
20
0.044751
30
0.0
11
0.016668
21
0.043341
31
0.0
0
LINE
8
0
6
CONTINUOUS
10
0.019685
20
0.064500
30
0.0
11
0.030734
21
0.064500
31
0.0
0
LINE
8
0
6
CONTINUOUS
10
0.030734
20
0.064500
30
0.0
11
0.019685
21
0.064500
31
0.0
0
LINE
8
0
6
CONTINUOUS
10
0.019673
20
0.064500
30
0.0
11
0.008613
21
0.064500
31
0.0
0
LINE
8
0
6
CONTINUOUS
10
0.026168
20
0.030302
30
0.0
11
0.030734
21
0.030302
31
0.0
0
LINE
8
0
6
CONTINUOUS
10
0.035668
20
0.064500
30
0.0
11
0.030734
21
0.064500
31
0.0
0
LINE
8
0
6
CONTINUOUS
10
0.030734
20
0.064500
30
0.0
11
0.019673
21
0.064500
31
0.0
0
LINE
8
0
6
CONTINUOUS
10
0.054669
20
0.057435
30
0.0
11
0.054669
21
0.060692
31
0.0
0
LINE
8
0
6
CONTINUOUS
10
-0.004568
20
0.056592
30
0.0
11
0.002980
21
0.055536
31
0.0
0
LINE
8
0
6
CONTINUOUS
10
-0.005959
20
0.064500
30
0.0
11
0.001339
21
0.064500
31
0.0
0
LINE
8
0
6
CONTINUOUS
10
0.001339
20
0.064500
30
0.0
11
-0.005959
21
0.064500
31
0.0
0
LINE
8
0
6
CONTINUOUS
10
-0.005975
20
0.064500
30
0.0
11
-0.013269
21
0.064500
31
0.0
0
LINE
8
0
6
CONTINUOUS
10
0.001319
20
0.064500
30
0.0
11
-0.005975
21
0.064500
31
0.0
0
LINE
8
0
6
CONTINUOUS
10
-0.024210
20
0.064500
30
0.0
11
-0.035151
21
0.064500
31
0.0
0
LINE
8
0
6
CONTINUOUS
10
-0.035151
20
0.064500
30
0.0
11
-0.038716
21
0.064500
31
0.0
0
LINE
8
0
6
CONTINUOUS
10
0.008613
20
0.064500
30
0.0
11
0.001319
21
0.064500
31
0.0
0
LINE
8
0
6
CONTINUOUS
10
-0.041416
20
0.064500
30
0.0
11
-0.042195
21
0.064500
31
0.0
0
LINE
8
0
6
CONTINUOUS
10
-0.042195
20
0.064500
30
0.0
11
-0.041416
21
0.064500
31
0.0
0
LINE
8
0
6
CONTINUOUS
10
-0.013269
20
0.064500
30
0.0
11
-0.024210
21
0.064500
31
0.0
0
LINE
8
0
6
CONTINUOUS
10
0.035668
20
0.064500
30
0.0
11
0.030734
21
0.064500
31
0.0
0
LINE
8
0
6
CONTINUOUS
10
-0.038716
20
0.064500
30
0.0
11
-0.041270
21
0.064500
31
0.0
0
LINE
8
0
6
CONTINUOUS
10
-0.038619
20
0.063932
30
0.0
11
-0.038716
21
0.064500
31
0.0
0
LINE
8
0
6
CONTINUOUS
10
-0.041270
20
0.064500
30
0.0
11
-0.042195
21
0.064500
31
0.0
0
LINE
8
0
6
CONTINUOUS
10
-0.041144
20
0.063927
30
0.0
11
-0.041270
21
0.064500
31
0.0
0
LINE
8
0
6
CONTINUOUS
10
0.040586
20
0.064500
30
0.0
11
0.035668
21
0.064500
31
0.0
0
LINE
8
0
6
CONTINUOUS
10
0.045168
20
0.064500
30
0.0
11
0.040586
21
0.064500
31
0.0
0
LINE
8
0
6
CONTINUOUS
10
0.049104
20
0.064500
30
0.0
11
0.045168
21
0.064500
31
0.0
0
LINE
8
0
6
CONTINUOUS
10
0.052123
20
0.064500
30
0.0
11
0.049104
21
0.064500
31
0.0
0
LINE
8
0
6
CONTINUOUS
10
0.054021
20
0.064500
30
0.0
11
0.052123
21
0.064500
31
0.0
0
LINE
8
0
6
CONTINUOUS
10
0.054669
20
0.064500
30
0.0
11
0.054021
21
0.064500
31
0.0
0
LINE
8
0
6
CONTINUOUS
10
0.054669
20
0.063948
30
0.0
11
0.054669
21
0.064500
31
0.0
0
LINE
8
0
6
CONTINUOUS
10
0.001318
20
0.058693
30
0.0
11
0.009384
21
0.058309
31
0.0
0
LINE
8
0
6
CONTINUOUS
10
0.001339
20
0.064500
30
0.0
11
0.008636
21
0.064500
31
0.0
0
LINE
8
0
6
CONTINUOUS
10
0.008636
20
0.064500
30
0.0
11
0.001339
21
0.064500
31
0.0
0
LINE
8
0
6
CONTINUOUS
10
-0.034072
20
0.059665
30
0.0
11
-0.023051
21
0.058326
31
0.0
0
LINE
8
0
6
CONTINUOUS
10
-0.018712
20
0.059544
30
0.0
11
-0.030746
21
0.060030
31
0.0
0
LINE
8
0
6
CONTINUOUS
10
-0.013257
20
0.064500
30
0.0
11
-0.024204
21
0.064500
31
0.0
0
LINE
8
0
6
CONTINUOUS
10
-0.024207
20
0.064500
30
0.0
11
-0.013258
21
0.064500
31
0.0
0
LINE
8
0
6
CONTINUOUS
10
0.035677
20
0.030302
30
0.0
11
0.040579
21
0.030302
31
0.0
0
LINE
8
0
6
CONTINUOUS
10
0.049104
20
0.030302
30
0.0
11
0.052125
21
0.030302
31
0.0
0
LINE
8
0
6
CONTINUOUS
10
0.045166
20
0.030302
30
0.0
11
0.049104
21
0.030302
31
0.0
0
LINE
8
0
6
CONTINUOUS
10
0.040579
20
0.030302
30
0.0
11
0.045166
21
0.030302
31
0.0
0
LINE
8
0
6
CONTINUOUS
10
0.052125
20
0.030302
30
0.0
11
0.054023
21
0.030302
31
0.0
0
LINE
8
0
6
CONTINUOUS
10
0.054668
20
0.030302
30
0.0
11
0.054668
21
0.030776
31
0.0
0
LINE
8
0
6
CONTINUOUS
10
0.054023
20
0.030302
30
0.0
11
0.054668
21
0.030302
31
0.0
0
LINE
8
0
6
CONTINUOUS
10
0.030734
20
0.030302
30
0.0
11
0.035677
21
0.030302
31
0.0
0
LINE
8
0
6
CONTINUOUS
10
0.022233
20
0.030302
30
0.0
11
0.026168
21
0.030302
31
0.0
0
LINE
8
0
6
CONTINUOUS
10
0.019214
20
0.030302
30
0.0
11
0.022233
21
0.030302
31
0.0
0
LINE
8
0
6
CONTINUOUS
10
0.017316
20
0.030302
30
0.0
11
0.019214
21
0.030302
31
0.0
0
LINE
8
0
6
CONTINUOUS
10
0.016668
20
0.030302
30
0.0
11
0.017316
21
0.030302
31
0.0
0
LINE
8
0
6
CONTINUOUS
10
0.016668
20
0.030776
30
0.0
11
0.016668
21
0.030302
31
0.0
0
LINE
8
0
6
CONTINUOUS
10
0.016668
20
0.043341
30
0.0
11
0.016668
21
0.030776
31
0.0
0
LINE
8
0
6
CONTINUOUS
10
-0.041416
20
0.064500
30
0.0
11
-0.035151
21
0.064500
31
0.0
0
LINE
8
0
6
CONTINUOUS
10
0.044845
20
0.064500
30
0.0
11
0.053449
21
0.064500
31
0.0
0
LINE
8
0
6
CONTINUOUS
10
0.045168
20
0.064500
30
0.0
11
0.044845
21
0.064500
31
0.0
0
LINE
8
0
6
CONTINUOUS
10
0.054095
20
0.064500
30
0.0
11
0.045168
21
0.064500
31
0.0
0
LINE
8
0
6
CONTINUOUS
10
0.053449
20
0.064500
30
0.0
11
0.054095
21
0.064500
31
0.0
0
LINE
8
0
6
CONTINUOUS
10
0.042386
20
0.064500
30
0.0
11
0.040827
21
0.064500
31
0.0
0
LINE
8
0
6
CONTINUOUS
10
0.048537
20
0.064500
30
0.0
11
0.042386
21
0.064500
31
0.0
0
LINE
8
0
6
CONTINUOUS
10
-0.035151
20
0.064500
30
0.0
11
-0.041416
21
0.064500
31
0.0
0
LINE
8
0
6
CONTINUOUS
10
-0.037764
20
0.062058
30
0.0
11
-0.038619
21
0.063932
31
0.0
0
LINE
8
0
6
CONTINUOUS
10
0.043896
20
0.064500
30
0.0
11
0.044845
21
0.064500
31
0.0
0
LINE
8
0
6
CONTINUOUS
10
0.044845
20
0.064500
30
0.0
11
0.035668
21
0.064500
31
0.0
0
LINE
8
0
6
CONTINUOUS
10
-0.041144
20
0.063927
30
0.0
11
-0.042195
21
0.063909
31
0.0
0
LINE
8
0
6
CONTINUOUS
10
-0.040644
20
0.062618
30
0.0
11
-0.041144
21
0.063927
31
0.0
0
LINE
8
0
6
CONTINUOUS
10
-0.040644
20
0.062618
30
0.0
11
-0.042195
21
0.063909
31
0.0
0
LINE
8
0
6
CONTINUOUS
10
-0.042195
20
0.063909
30
0.0
11
-0.042195
21
0.062995
31
0.0
0
LINE
8
0
6
CONTINUOUS
10
-0.035151
20
0.064500
30
0.0
11
-0.024207
21
0.064500
31
0.0
0
LINE
8
0
6
CONTINUOUS
10
-0.013258
20
0.064500
30
0.0
11
-0.005959
21
0.064500
31
0.0
0
LINE
8
0
6
CONTINUOUS
10
0.008636
20
0.064500
30
0.0
11
0.019685
21
0.064500
31
0.0
0
LINE
8
0
6
CONTINUOUS
10
0.019685
20
0.064500
30
0.0
11
0.008636
21
0.064500
31
0.0
0
LINE
8
0
6
CONTINUOUS
10
0.011158
20
0.053140
30
0.0
11
0.013904
21
0.051095
31
0.0
0
LINE
8
0
6
CONTINUOUS
10
0.054669
20
0.051797
30
0.0
11
0.054669
21
0.054625
31
0.0
0
LINE
8
0
6
CONTINUOUS
10
-0.037764
20
0.062058
30
0.0
11
-0.040644
21
0.062618
31
0.0
0
LINE
8
0
6
CONTINUOUS
10
-0.040151
20
0.061789
30
0.0
11
-0.037697
21
0.060972
31
0.0
0
LINE
8
0
6
CONTINUOUS
10
-0.031560
20
0.061512
30
0.0
11
-0.021405
21
0.061405
31
0.0
0
LINE
8
0
6
CONTINUOUS
10
0.054669
20
0.054625
30
0.0
11
0.054669
21
0.057435
31
0.0
0
LINE
8
0
6
CONTINUOUS
10
0.054669
20
0.046160
30
0.0
11
0.054669
21
0.048979
31
0.0
0
LINE
8
0
6
CONTINUOUS
10
0.054669
20
0.048979
30
0.0
11
0.054669
21
0.051797
31
0.0
0
LINE
8
0
6
CONTINUOUS
10
0.054669
20
0.060692
30
0.0
11
0.054669
21
0.063948
31
0.0
0
LINE
8
0
6
CONTINUOUS
10
-0.005959
20
0.064500
30
0.0
11
-0.013257
21
0.064500
31
0.0
0
LINE
8
0
6
CONTINUOUS
10
-0.031560
20
0.061512
30
0.0
11
-0.037764
21
0.062058
31
0.0
0
LINE
8
0
6
CONTINUOUS
10
-0.040933
20
0.061949
30
0.0
11
-0.038382
21
0.060721
31
0.0
0
LINE
8
0
6
CONTINUOUS
10
-0.038382
20
0.060721
30
0.0
11
-0.034007
21
0.059665
31
0.0
0
LINE
8
0
6
CONTINUOUS
10
-0.030746
20
0.060030
30
0.0
11
-0.037697
21
0.060972
31
0.0
0
LINE
8
0
6
CONTINUOUS
10
-0.024204
20
0.064500
30
0.0
11
-0.035151
21
0.064500
31
0.0
0
LINE
8
0
6
CONTINUOUS
10
0.009384
20
0.058309
30
0.0
11
0.022479
21
0.054625
31
0.0
0
LINE
8
0
6
CONTINUOUS
10
0.008037
20
0.054625
30
0.0
11
0.011158
21
0.053140
31
0.0
0
LINE
8
0
6
CONTINUOUS
10
0.013904
20
0.051095
30
0.0
11
0.015672
21
0.048130
31
0.0
0
LINE
8
0
6
CONTINUOUS
10
0.016999
20
0.050980
30
0.0
11
0.014720
21
0.051065
31
0.0
0
LINE
8
0
6
CONTINUOUS
10
0.015779
20
0.054625
30
0.0
11
0.011566
21
0.054625
31
0.0
0
LINE
8
0
6
CONTINUOUS
10
0.020630
20
0.050800
30
0.0
11
0.016999
21
0.050980
31
0.0
0
LINE
8
0
6
CONTINUOUS
10
0.018464
20
0.053007
30
0.0
11
0.024424
21
0.052670
31
0.0
0
LINE
8
0
6
CONTINUOUS
10
0.022479
20
0.054625
30
0.0
11
0.015779
21
0.054625
31
0.0
0
LINE
8
0
6
CONTINUOUS
10
0.025591
20
0.050225
30
0.0
11
0.020630
21
0.050800
31
0.0
0
LINE
8
0
6
CONTINUOUS
10
0.015672
20
0.048130
30
0.0
11
0.016418
21
0.044751
31
0.0
0
LINE
8
0
6
CONTINUOUS
10
0.001318
20
0.058693
30
0.0
11
-0.006721
21
0.059030
31
0.0
0
LINE
8
0
6
CONTINUOUS
10
-0.012180
20
0.057157
30
0.0
11
-0.004568
21
0.056592
31
0.0
0
LINE
8
0
6
CONTINUOUS
10
-0.023051
20
0.058326
30
0.0
11
-0.012180
21
0.057157
31
0.0
0
LINE
8
0
6
CONTINUOUS
10
-0.011101
20
0.061274
30
0.0
11
-0.021405
21
0.061405
31
0.0
0
LINE
8
0
6
CONTINUOUS
10
-0.018712
20
0.059544
30
0.0
11
-0.006721
21
0.059030
31
0.0
0
LINE
8
0
6
CONTINUOUS
10
-0.040644
20
0.062618
30
0.0
11
-0.042195
21
0.062995
31
0.0
0
LINE
8
0
6
CONTINUOUS
10
-0.042195
20
0.062995
30
0.0
11
-0.040821
21
0.061923
31
0.0
0
LINE
8
0
6
CONTINUOUS
10
0.054669
20
0.043341
30
0.0
11
0.054669
21
0.046160
31
0.0
0
LINE
8
0
6
CONTINUOUS
10
0.054668
20
0.030776
30
0.0
11
0.054669
21
0.043341
31
0.0
0
LINE
8
0
6
CONTINUOUS
10
0.019685
20
0.064500
30
0.0
11
0.030734
21
0.064500
31
0.0
0
LINE
8
0
6
CONTINUOUS
10
0.030734
20
0.064500
30
0.0
11
0.019685
21
0.064500
31
0.0
0
LINE
8
0
6
CONTINUOUS
10
0.035668
20
0.064500
30
0.0
11
0.030734
21
0.064500
31
0.0
0
LINE
8
0
6
CONTINUOUS
10
0.030734
20
0.064500
30
0.0
11
0.035668
21
0.064500
31
0.0
0
LINE
8
0
6
CONTINUOUS
10
0.035668
20
0.064500
30
0.0
11
0.030734
21
0.064500
31
0.0
0
LINE
8
0
6
CONTINUOUS
10
0.008636
20
0.064500
30
0.0
11
0.019685
21
0.064500
31
0.0
0
LINE
8
0
6
CONTINUOUS
10
0.019685
20
0.064500
30
0.0
11
0.008636
21
0.064500
31
0.0
0
LINE
8
0
6
CONTINUOUS
10
0.040586
20
0.064500
30
0.0
11
0.040827
21
0.064500
31
0.0
0
LINE
8
0
6
CONTINUOUS
10
0.045168
20
0.064500
30
0.0
11
0.040586
21
0.064500
31
0.0
0
LINE
8
0
6
CONTINUOUS
10
0.048537
20
0.064500
30
0.0
11
0.049104
21
0.064500
31
0.0
0
LINE
8
0
6
CONTINUOUS
10
0.049104
20
0.064500
30
0.0
11
0.045168
21
0.064500
31
0.0
0
LINE
8
0
6
CONTINUOUS
10
0.042386
20
0.064500
30
0.0
11
0.035668
21
0.064500
31
0.0
0
LINE
8
0
6
CONTINUOUS
10
0.043896
20
0.064500
30
0.0
11
0.042386
21
0.064500
31
0.0
0
LINE
8
0
6
CONTINUOUS
10
0.018174
20
0.030302
30
0.0
11
0.018174
21
0.028506
31
0.0
0
LINE
8
0
6
CONTINUOUS
10
0.053204
20
0.028506
30
0.0
11
0.053204
21
0.030302
31
0.0
0
LINE
8
0
6
CONTINUOUS
10
0.064032
20
0.009733
30
0.0
11
0.064518
21
0.010290
31
0.0
0
LINE
8
0
6
CONTINUOUS
10
0.063947
20
0.013428
30
0.0
11
0.062578
21
0.012559
31
0.0
0
LINE
8
0
6
CONTINUOUS
10
0.073139
20
0.012262
30
0.0
11
0.068450
21
0.012627
31
0.0
0
LINE
8
0
6
CONTINUOUS
10
0.073139
20
0.012262
30
0.0
11
0.068619
21
0.012042
31
0.0
0
LINE
8
0
6
CONTINUOUS
10
0.068471
20
0.011862
30
0.0
11
0.073150
21
0.012002
31
0.0
0
LINE
8
0
6
CONTINUOUS
10
0.076273
20
0.012340
30
0.0
11
0.075220
21
0.012253
31
0.0
0
LINE
8
0
6
CONTINUOUS
10
0.075889
20
0.011989
30
0.0
11
0.076273
21
0.012340
31
0.0
0
LINE
8
0
6
CONTINUOUS
10
0.068450
20
0.012627
30
0.0
11
0.073112
21
0.012340
31
0.0
0
LINE
8
0
6
CONTINUOUS
10
0.062578
20
0.012559
30
0.0
11
0.061539
21
0.011582
31
0.0
0
LINE
8
0
6
CONTINUOUS
10
0.063589
20
0.009137
30
0.0
11
0.064032
21
0.009733
31
0.0
0
LINE
8
0
6
CONTINUOUS
10
0.065419
20
0.012465
30
0.0
11
0.064514
21
0.011962
31
0.0
0
LINE
8
0
6
CONTINUOUS
10
0.065096
20
0.010759
30
0.0
11
0.065778
21
0.011040
31
0.0
0
LINE
8
0
6
CONTINUOUS
10
0.065448
20
0.011548
30
0.0
11
0.064735
21
0.011173
31
0.0
0
LINE
8
0
6
CONTINUOUS
10
0.073159
20
0.014284
30
0.0
11
0.068803
21
0.014731
31
0.0
0
LINE
8
0
6
CONTINUOUS
10
0.063686
20
0.010018
30
0.0
11
0.064101
21
0.010710
31
0.0
0
LINE
8
0
6
CONTINUOUS
10
0.063605
20
0.011460
30
0.0
11
0.063069
21
0.010576
31
0.0
0
LINE
8
0
6
CONTINUOUS
10
0.065886
20
0.014303
30
0.0
11
0.063947
21
0.013428
31
0.0
0
LINE
8
0
6
CONTINUOUS
10
0.062217
20
0.010964
30
0.0
11
0.061594
21
0.010139
31
0.0
0
LINE
8
0
6
CONTINUOUS
10
0.063315
20
0.009318
30
0.0
11
0.063686
21
0.010018
31
0.0
0
LINE
8
0
6
CONTINUOUS
10
0.063069
20
0.010576
30
0.0
11
0.062744
21
0.009599
31
0.0
0
LINE
8
0
6
CONTINUOUS
10
0.064735
20
0.011173
30
0.0
11
0.064101
21
0.010710
31
0.0
0
LINE
8
0
6
CONTINUOUS
10
0.064518
20
0.010290
30
0.0
11
0.065096
21
0.010759
31
0.0
0
LINE
8
0
6
CONTINUOUS
10
0.061539
20
0.011582
30
0.0
11
0.060623
21
0.010521
31
0.0
0
LINE
8
0
6
CONTINUOUS
10
0.065419
20
0.012465
30
0.0
11
0.068450
21
0.012627
31
0.0
0
LINE
8
0
6
CONTINUOUS
10
0.065355
20
0.013444
30
0.0
11
0.068512
21
0.013936
31
0.0
0
LINE
8
0
6
CONTINUOUS
10
0.073172
20
0.013793
30
0.0
11
0.068513
21
0.014442
31
0.0
0
LINE
8
0
6
CONTINUOUS
10
0.068508
20
0.014232
30
0.0
11
0.073172
21
0.013793
31
0.0
0
LINE
8
0
6
CONTINUOUS
10
0.064097
20
0.013094
30
0.0
11
0.065438
21
0.013730
31
0.0
0
LINE
8
0
6
CONTINUOUS
10
0.065518
20
0.014027
30
0.0
11
0.063959
21
0.013344
31
0.0
0
LINE
8
0
6
CONTINUOUS
10
0.062841
20
0.012257
30
0.0
11
0.064097
21
0.013094
31
0.0
0
LINE
8
0
6
CONTINUOUS
10
0.063959
20
0.013344
30
0.0
11
0.062607
21
0.012440
31
0.0
0
LINE
8
0
6
CONTINUOUS
10
0.061890
20
0.011169
30
0.0
11
0.062841
21
0.012257
31
0.0
0
LINE
8
0
6
CONTINUOUS
10
0.062607
20
0.012440
30
0.0
11
0.061608
21
0.011332
31
0.0
0
LINE
8
0
6
CONTINUOUS
10
0.061608
20
0.011332
30
0.0
11
0.060750
21
0.010461
31
0.0
0
LINE
8
0
6
CONTINUOUS
10
0.065438
20
0.013730
30
0.0
11
0.068508
21
0.014232
31
0.0
0
LINE
8
0
6
CONTINUOUS
10
0.075215
20
0.014284
30
0.0
11
0.073159
21
0.014284
31
0.0
0
LINE
8
0
6
CONTINUOUS
10
0.076273
20
0.012340
30
0.0
11
0.076318
21
0.013356
31
0.0
0
LINE
8
0
6
CONTINUOUS
10
0.076075
20
0.012340
30
0.0
11
0.076273
21
0.012340
31
0.0
0
LINE
8
0
6
CONTINUOUS
10
0.075156
20
0.012340
30
0.0
11
0.075748
21
0.012340
31
0.0
0
LINE
8
0
6
CONTINUOUS
10
0.075228
20
0.013793
30
0.0
11
0.075896
21
0.013793
31
0.0
0
LINE
8
0
6
CONTINUOUS
10
0.075889
20
0.011989
30
0.0
11
0.075220
21
0.012253
31
0.0
0
LINE
8
0
6
CONTINUOUS
10
0.073150
20
0.012002
30
0.0
11
0.075889
21
0.011989
31
0.0
0
LINE
8
0
6
CONTINUOUS
10
0.076322
20
0.014284
30
0.0
11
0.075215
21
0.014284
31
0.0
0
LINE
8
0
6
CONTINUOUS
10
0.075227
20
0.013921
30
0.0
11
0.075995
21
0.013921
31
0.0
0
LINE
8
0
6
CONTINUOUS
10
0.076322
20
0.014284
30
0.0
11
0.075995
21
0.013921
31
0.0
0
LINE
8
0
6
CONTINUOUS
10
0.076318
20
0.013356
30
0.0
11
0.076322
21
0.014284
31
0.0
0
LINE
8
0
6
CONTINUOUS
10
0.075156
20
0.012340
30
0.0
11
0.075227
21
0.013356
31
0.0
0
LINE
8
0
6
CONTINUOUS
10
0.075227
20
0.013356
30
0.0
11
0.075228
21
0.013793
31
0.0
0
LINE
8
0
6
CONTINUOUS
10
0.073172
20
0.013793
30
0.0
11
0.075228
21
0.013793
31
0.0
0
LINE
8
0
6
CONTINUOUS
10
0.075156
20
0.012340
30
0.0
11
0.073112
21
0.012340
31
0.0
0
LINE
8
0
6
CONTINUOUS
10
0.075748
20
0.012340
30
0.0
11
0.076075
21
0.012340
31
0.0
0
LINE
8
0
6
CONTINUOUS
10
0.065778
20
0.011040
30
0.0
11
0.068471
21
0.011862
31
0.0
0
LINE
8
0
6
CONTINUOUS
10
0.068619
20
0.012042
30
0.0
11
0.065448
21
0.011548
31
0.0
0
LINE
8
0
6
CONTINUOUS
10
0.075995
20
0.013921
30
0.0
11
0.075896
21
0.013793
31
0.0
0
LINE
8
0
6
CONTINUOUS
10
0.075896
20
0.013793
30
0.0
11
0.075894
21
0.013356
31
0.0
0
LINE
8
0
6
CONTINUOUS
10
0.068803
20
0.014731
30
0.0
11
0.065886
21
0.014303
31
0.0
0
LINE
8
0
6
CONTINUOUS
10
0.065518
20
0.014027
30
0.0
11
0.068513
21
0.014442
31
0.0
0
LINE
8
0
6
CONTINUOUS
10
0.062744
20
0.009599
30
0.0
11
0.056006
21
-0.015463
31
0.0
0
LINE
8
0
6
CONTINUOUS
10
0.056299
20
-0.018085
30
0.0
11
0.063589
21
0.009137
31
0.0
0
LINE
8
0
6
CONTINUOUS
10
0.063315
20
0.009318
30
0.0
11
0.056165
21
-0.017528
31
0.0
0
LINE
8
0
6
CONTINUOUS
10
0.060750
20
0.010461
30
0.0
11
0.060623
21
0.010521
31
0.0
0
LINE
8
0
6
CONTINUOUS
10
0.055768
20
-0.007119
30
0.0
11
0.060750
21
0.010461
31
0.0
0
LINE
8
0
6
CONTINUOUS
10
0.060623
20
0.010521
30
0.0
11
0.055866
21
-0.006057
31
0.0
0
LINE
8
0
6
CONTINUOUS
10
0.055849
20
-0.011889
30
0.0
11
0.061594
21
0.010139
31
0.0
0
LINE
8
0
6
CONTINUOUS
10
-0.049802
20
0.003356
30
0.0
11
-0.047961
21
0.006618
31
0.0
0
LINE
8
0
6
CONTINUOUS
10
-0.067339
20
0.018233
30
0.0
11
-0.069491
21
0.014418
31
0.0
0
LINE
8
0
6
CONTINUOUS
10
-0.069737
20
0.013982
30
0.0
11
-0.069255
21
0.013712
31
0.0
0
LINE
8
0
6
CONTINUOUS
10
-0.069491
20
0.014418
30
0.0
11
-0.069737
21
0.013982
31
0.0
0
LINE
8
0
6
CONTINUOUS
10
-0.067857
20
0.012926
30
0.0
11
-0.069255
21
0.013712
31
0.0
0
LINE
8
0
6
CONTINUOUS
10
-0.065679
20
0.011702
30
0.0
11
-0.067857
21
0.012926
31
0.0
0
LINE
8
0
6
CONTINUOUS
10
-0.062934
20
0.010160
30
0.0
11
-0.065679
21
0.011702
31
0.0
0
LINE
8
0
6
CONTINUOUS
10
-0.059892
20
0.008451
30
0.0
11
-0.062934
21
0.010160
31
0.0
0
LINE
8
0
6
CONTINUOUS
10
-0.059892
20
0.008451
30
0.0
11
-0.056850
21
0.006742
31
0.0
0
LINE
8
0
6
CONTINUOUS
10
-0.056850
20
0.006742
30
0.0
11
-0.054106
21
0.005200
31
0.0
0
LINE
8
0
6
CONTINUOUS
10
-0.051928
20
0.003976
30
0.0
11
-0.054106
21
0.005200
31
0.0
0
LINE
8
0
6
CONTINUOUS
10
-0.051928
20
0.003976
30
0.0
11
-0.050530
21
0.003191
31
0.0
0
LINE
8
0
6
CONTINUOUS
10
-0.050048
20
0.002920
30
0.0
11
-0.049802
21
0.003356
31
0.0
0
LINE
8
0
6
CONTINUOUS
10
-0.050530
20
0.003191
30
0.0
11
-0.050048
21
0.002920
31
0.0
0
LINE
8
0
6
CONTINUOUS
10
0.055872
20
-0.006202
30
0.0
11
0.055576
21
0.002026
31
0.0
0
LINE
8
0
6
CONTINUOUS
10
0.055576
20
0.002026
30
0.0
11
0.055219
21
0.011951
31
0.0
0
LINE
8
0
6
CONTINUOUS
10
0.055219
20
0.011951
30
0.0
11
0.054862
21
0.021876
31
0.0
0
LINE
8
0
6
CONTINUOUS
10
0.054862
20
0.021876
30
0.0
11
0.054647
21
0.027854
31
0.0
0
LINE
8
0
6
CONTINUOUS
10
0.028999
20
-0.064500
30
0.0
11
0.034954
21
-0.064500
31
0.0
0
LINE
8
0
6
CONTINUOUS
10
0.040821
20
-0.064500
30
0.0
11
0.046376
21
-0.064500
31
0.0
0
LINE
8
0
6
CONTINUOUS
10
0.051145
20
-0.064500
30
0.0
11
0.046376
21
-0.064500
31
0.0
0
LINE
8
0
6
CONTINUOUS
10
0.051145
20
-0.064500
30
0.0
11
0.054804
21
-0.064500
31
0.0
0
LINE
8
0
6
CONTINUOUS
10
0.034954
20
-0.064500
30
0.0
11
0.040821
21
-0.064500
31
0.0
0
LINE
8
0
6
CONTINUOUS
10
0.057944
20
-0.064500
30
0.0
11
0.057931
21
-0.063500
31
0.0
0
LINE
8
0
6
CONTINUOUS
10
0.057102
20
-0.064500
30
0.0
11
0.057944
21
-0.064500
31
0.0
0
LINE
8
0
6
CONTINUOUS
10
0.054804
20
-0.064500
30
0.0
11
0.057102
21
-0.064500
31
0.0
0
LINE
8
0
6
CONTINUOUS
10
0.023450
20
-0.064500
30
0.0
11
0.028999
21
-0.064500
31
0.0
0
LINE
8
0
6
CONTINUOUS
10
0.012728
20
-0.064500
30
0.0
11
0.015027
21
-0.064500
31
0.0
0
LINE
8
0
6
CONTINUOUS
10
0.011944
20
-0.064500
30
0.0
11
0.012728
21
-0.064500
31
0.0
0
LINE
8
0
6
CONTINUOUS
10
0.011954
20
-0.063500
30
0.0
11
0.011944
21
-0.064500
31
0.0
0
LINE
8
0
6
CONTINUOUS
10
0.018684
20
-0.064500
30
0.0
11
0.023450
21
-0.064500
31
0.0
0
LINE
8
0
6
CONTINUOUS
10
0.015027
20
-0.064500
30
0.0
11
0.018684
21
-0.064500
31
0.0
0
LINE
8
0
6
CONTINUOUS
10
0.057931
20
-0.063500
30
0.0
11
0.056289
21
-0.017823
31
0.0
0
LINE
8
0
6
CONTINUOUS
10
0.013808
20
-0.014175
30
0.0
11
0.013979
21
-0.020381
31
0.0
0
LINE
8
0
6
CONTINUOUS
10
0.035337
20
-0.018895
30
0.0
11
0.035421
21
-0.008872
31
0.0
0
LINE
8
0
6
CONTINUOUS
10
0.035421
20
-0.008872
30
0.0
11
0.035508
21
0.001512
31
0.0
0
LINE
8
0
6
CONTINUOUS
10
-0.041010
20
0.004945
30
0.0
11
-0.000528
21
0.002118
31
0.0
0
LINE
8
0
6
CONTINUOUS
10
-0.071143
20
0.028506
30
0.0
11
-0.073326
21
0.028506
31
0.0
0
LINE
8
0
6
CONTINUOUS
10
0.015174
20
0.028506
30
0.0
11
-0.071143
21
0.028506
31
0.0
0
LINE
8
0
6
CONTINUOUS
10
-0.073326
20
0.028506
30
0.0
11
-0.075704
21
0.028506
31
0.0
0
LINE
8
0
6
CONTINUOUS
10
-0.075704
20
0.028506
30
0.0
11
-0.076322
21
0.028506
31
0.0
0
LINE
8
0
6
CONTINUOUS
10
-0.075058
20
0.027519
30
0.0
11
-0.075704
21
0.028506
31
0.0
0
LINE
8
0
6
CONTINUOUS
10
-0.076322
20
0.028506
30
0.0
11
-0.075682
21
0.027513
31
0.0
0
LINE
8
0
6
CONTINUOUS
10
0.054614
20
0.028506
30
0.0
11
0.054023
21
0.028506
31
0.0
0
LINE
8
0
6
CONTINUOUS
10
0.054647
20
0.027854
30
0.0
11
0.054614
21
0.028506
31
0.0
0
LINE
8
0
6
CONTINUOUS
10
0.040579
20
0.028506
30
0.0
11
0.035734
21
0.028506
31
0.0
0
LINE
8
0
6
CONTINUOUS
10
0.052125
20
0.028506
30
0.0
11
0.049104
21
0.028506
31
0.0
0
LINE
8
0
6
CONTINUOUS
10
0.049104
20
0.028506
30
0.0
11
0.045166
21
0.028506
31
0.0
0
LINE
8
0
6
CONTINUOUS
10
0.045166
20
0.028506
30
0.0
11
0.040579
21
0.028506
31
0.0
0
LINE
8
0
6
CONTINUOUS
10
0.054023
20
0.028506
30
0.0
11
0.052125
21
0.028506
31
0.0
0
LINE
8
0
6
CONTINUOUS
10
0.035734
20
0.028506
30
0.0
11
0.015174
21
0.028506
31
0.0
0
LINE
8
0
6
CONTINUOUS
10
-0.075682
20
0.027513
30
0.0
11
-0.073058
21
0.023445
31
0.0
0
LINE
8
0
6
CONTINUOUS
10
-0.046150
20
0.005595
30
0.0
11
-0.043187
21
0.005097
31
0.0
0
LINE
8
0
6
CONTINUOUS
10
-0.047961
20
0.006618
30
0.0
11
-0.046150
21
0.005595
31
0.0
0
LINE
8
0
6
CONTINUOUS
10
-0.073058
20
0.023445
30
0.0
11
-0.069090
21
0.019562
31
0.0
0
LINE
8
0
6
CONTINUOUS
10
-0.068128
20
0.019272
30
0.0
11
-0.072285
21
0.023269
31
0.0
0
LINE
8
0
6
CONTINUOUS
10
-0.064408
20
0.016010
30
0.0
11
-0.059579
21
0.013023
31
0.0
0
LINE
8
0
6
CONTINUOUS
10
-0.056949
20
0.011916
30
0.0
11
-0.062861
21
0.015392
31
0.0
0
LINE
8
0
6
CONTINUOUS
10
-0.051788
20
0.009160
30
0.0
11
-0.056949
21
0.011916
31
0.0
0
LINE
8
0
6
CONTINUOUS
10
-0.047682
20
0.006716
30
0.0
11
-0.051788
21
0.009160
31
0.0
0
LINE
8
0
6
CONTINUOUS
10
-0.069090
20
0.019562
30
0.0
11
-0.064408
21
0.016010
31
0.0
0
LINE
8
0
6
CONTINUOUS
10
-0.062861
20
0.015392
30
0.0
11
-0.068128
21
0.019272
31
0.0
0
LINE
8
0
6
CONTINUOUS
10
-0.075058
20
0.027519
30
0.0
11
-0.072285
21
0.023269
31
0.0
0
LINE
8
0
6
CONTINUOUS
10
0.013979
20
-0.020381
30
0.0
11
0.011954
21
-0.063500
31
0.0
0
LINE
8
0
6
CONTINUOUS
10
0.010230
20
-0.002811
30
0.0
11
0.012948
21
-0.008054
31
0.0
0
LINE
8
0
6
CONTINUOUS
10
0.011740
20
-0.002303
30
0.0
11
0.013559
21
-0.000857
31
0.0
0
LINE
8
0
6
CONTINUOUS
10
0.004994
20
0.000558
30
0.0
11
0.010230
21
-0.002811
31
0.0
0
LINE
8
0
6
CONTINUOUS
10
0.010230
20
-0.002811
30
0.0
11
0.011740
21
-0.002303
31
0.0
0
LINE
8
0
6
CONTINUOUS
10
-0.000528
20
0.002118
30
0.0
11
0.004994
21
0.000558
31
0.0
0
LINE
8
0
6
CONTINUOUS
10
0.012948
20
-0.008054
30
0.0
11
0.013808
21
-0.014175
31
0.0
0
LINE
8
0
6
CONTINUOUS
10
-0.043187
20
0.005097
30
0.0
11
-0.041010
21
0.004945
31
0.0
0
LINE
8
0
6
CONTINUOUS
10
0.056280
20
-0.017862
30
0.0
11
0.056268
21
-0.017823
31
0.0
0
LINE
8
0
6
CONTINUOUS
10
-0.058705
20
0.012655
30
0.0
11
-0.057768
21
0.012217
31
0.0
0
LINE
8
0
6
CONTINUOUS
10
-0.059910
20
0.013262
30
0.0
11
-0.058705
21
0.012655
31
0.0
0
LINE
8
0
6
CONTINUOUS
10
-0.048366
20
0.007025
30
0.0
11
-0.048755
21
0.007252
31
0.0
0
LINE
8
0
6
CONTINUOUS
10
-0.047961
20
0.006618
30
0.0
11
-0.048319
21
0.006989
31
0.0
0
LINE
8
0
6
CONTINUOUS
10
-0.048319
20
0.006989
30
0.0
11
-0.048366
21
0.007025
31
0.0
0
LINE
8
0
6
CONTINUOUS
10
-0.057768
20
0.012217
30
0.0
11
-0.056433
21
0.011555
31
0.0
0
LINE
8
0
6
CONTINUOUS
10
0.056268
20
-0.017823
30
0.0
11
0.056165
21
-0.017528
31
0.0
0
LINE
8
0
6
CONTINUOUS
10
0.055774
20
-0.007898
30
0.0
11
0.055768
21
-0.007119
31
0.0
0
ENDSEC
0
EOF
