999
Erzeugt mit innoplus bad 
0
SECTION
2
HEADER
9
$ACADVER
1
AC1009
9
$DWGCODEPAGE
3
ISO8859-1
0
ENDSEC
0
SECTION
2
TABLES
0
TABLE
2
LAYER
70
1
0
LAYER
2
0
70
0
62
7
6
CONTINUOUS
0
ENDTAB
0
ENDSEC
0
SECTION
2
ENTITIES
0
LINE
8
0
6
CONTINUOUS
10
0.002270
20
0.068512
30
0.0
11
0.002843
21
0.073171
31
0.0
0
LINE
8
0
6
CONTINUOUS
10
0.001963
20
0.064514
30
0.0
11
0.001985
21
0.065419
31
0.0
0
LINE
8
0
6
CONTINUOUS
10
0.001985
20
0.063605
30
0.0
11
0.001963
21
0.064514
31
0.0
0
LINE
8
0
6
CONTINUOUS
10
0.001959
20
0.063069
30
0.0
11
0.001985
21
0.063605
31
0.0
0
LINE
8
0
6
CONTINUOUS
10
0.001917
20
0.062217
30
0.0
11
0.001959
21
0.063069
31
0.0
0
LINE
8
0
6
CONTINUOUS
10
0.001935
20
0.061594
30
0.0
11
0.001917
21
0.062217
31
0.0
0
LINE
8
0
6
CONTINUOUS
10
0.001958
20
0.065355
30
0.0
11
0.002270
21
0.068512
31
0.0
0
LINE
8
0
6
CONTINUOUS
10
0.002769
20
0.073172
30
0.0
11
0.002070
21
0.068513
31
0.0
0
LINE
8
0
6
CONTINUOUS
10
0.002238
20
0.068508
30
0.0
11
0.002769
21
0.073172
31
0.0
0
LINE
8
0
6
CONTINUOUS
10
0.001811
20
0.064097
30
0.0
11
0.001868
21
0.065438
31
0.0
0
LINE
8
0
6
CONTINUOUS
10
0.001515
20
0.065518
30
0.0
11
0.001397
21
0.063959
31
0.0
0
LINE
8
0
6
CONTINUOUS
10
0.001778
20
0.062841
30
0.0
11
0.001811
21
0.064097
31
0.0
0
LINE
8
0
6
CONTINUOUS
10
0.001397
20
0.063959
30
0.0
11
0.001416
21
0.062607
31
0.0
0
LINE
8
0
6
CONTINUOUS
10
0.001747
20
0.061890
30
0.0
11
0.001778
21
0.062841
31
0.0
0
LINE
8
0
6
CONTINUOUS
10
0.001416
20
0.062607
30
0.0
11
0.001475
21
0.061608
31
0.0
0
LINE
8
0
6
CONTINUOUS
10
0.001475
20
0.061608
30
0.0
11
0.001413
21
0.060750
31
0.0
0
LINE
8
0
6
CONTINUOUS
10
0.001868
20
0.065438
30
0.0
11
0.002238
21
0.068508
31
0.0
0
LINE
8
0
6
CONTINUOUS
10
0.002606
20
0.075227
30
0.0
11
0.002084
21
0.075894
31
0.0
0
LINE
8
0
6
CONTINUOUS
10
0.002533
20
0.075228
30
0.0
11
0.002010
21
0.075896
31
0.0
0
LINE
8
0
6
CONTINUOUS
10
0.002267
20
0.075227
30
0.0
11
0.001745
21
0.075995
31
0.0
0
LINE
8
0
6
CONTINUOUS
10
0.001456
20
0.076141
30
0.0
11
0.000000
21
0.076322
31
0.0
0
LINE
8
0
6
CONTINUOUS
10
0.000000
20
0.076322
30
0.0
11
0.001745
21
0.075995
31
0.0
0
LINE
8
0
6
CONTINUOUS
10
0.002606
20
0.075227
30
0.0
11
0.002533
21
0.075228
31
0.0
0
LINE
8
0
6
CONTINUOUS
10
0.002843
20
0.073171
30
0.0
11
0.002606
21
0.075227
31
0.0
0
LINE
8
0
6
CONTINUOUS
10
0.002769
20
0.073172
30
0.0
11
0.002533
21
0.075228
31
0.0
0
LINE
8
0
6
CONTINUOUS
10
0.001745
20
0.075995
30
0.0
11
0.002010
21
0.075896
31
0.0
0
LINE
8
0
6
CONTINUOUS
10
0.002084
20
0.075894
30
0.0
11
0.001456
21
0.076141
31
0.0
0
LINE
8
0
6
CONTINUOUS
10
0.002010
20
0.075896
30
0.0
11
0.002084
21
0.075894
31
0.0
0
LINE
8
0
6
CONTINUOUS
10
-0.001935
20
0.061594
30
0.0
11
-0.002163
21
0.055804
31
0.0
0
LINE
8
0
6
CONTINUOUS
10
0.001515
20
0.065518
30
0.0
11
0.002070
21
0.068513
31
0.0
0
LINE
8
0
6
CONTINUOUS
10
0.001413
20
0.060750
30
0.0
11
0.000000
21
0.060623
31
0.0
0
LINE
8
0
6
CONTINUOUS
10
0.001022
20
0.055768
30
0.0
11
0.001413
21
0.060750
31
0.0
0
LINE
8
0
6
CONTINUOUS
10
-0.002843
20
0.073171
30
0.0
11
-0.002270
21
0.068512
31
0.0
0
LINE
8
0
6
CONTINUOUS
10
-0.001985
20
0.065419
30
0.0
11
-0.001963
21
0.064514
31
0.0
0
LINE
8
0
6
CONTINUOUS
10
-0.001963
20
0.064514
30
0.0
11
-0.001985
21
0.063605
31
0.0
0
LINE
8
0
6
CONTINUOUS
10
-0.001959
20
0.063069
30
0.0
11
-0.001917
21
0.062217
31
0.0
0
LINE
8
0
6
CONTINUOUS
10
-0.001985
20
0.063605
30
0.0
11
-0.001959
21
0.063069
31
0.0
0
LINE
8
0
6
CONTINUOUS
10
-0.001917
20
0.062217
30
0.0
11
-0.001935
21
0.061594
31
0.0
0
LINE
8
0
6
CONTINUOUS
10
-0.002270
20
0.068512
30
0.0
11
-0.001958
21
0.065355
31
0.0
0
LINE
8
0
6
CONTINUOUS
10
-0.002769
20
0.073172
30
0.0
11
-0.002238
21
0.068508
31
0.0
0
LINE
8
0
6
CONTINUOUS
10
-0.002769
20
0.073172
30
0.0
11
-0.002070
21
0.068513
31
0.0
0
LINE
8
0
6
CONTINUOUS
10
-0.001397
20
0.063959
30
0.0
11
-0.001515
21
0.065518
31
0.0
0
LINE
8
0
6
CONTINUOUS
10
-0.001868
20
0.065438
30
0.0
11
-0.001811
21
0.064097
31
0.0
0
LINE
8
0
6
CONTINUOUS
10
-0.001416
20
0.062607
30
0.0
11
-0.001397
21
0.063959
31
0.0
0
LINE
8
0
6
CONTINUOUS
10
-0.001811
20
0.064097
30
0.0
11
-0.001778
21
0.062841
31
0.0
0
LINE
8
0
6
CONTINUOUS
10
-0.001475
20
0.061608
30
0.0
11
-0.001416
21
0.062607
31
0.0
0
LINE
8
0
6
CONTINUOUS
10
-0.001778
20
0.062841
30
0.0
11
-0.001747
21
0.061890
31
0.0
0
LINE
8
0
6
CONTINUOUS
10
-0.001413
20
0.060750
30
0.0
11
-0.001475
21
0.061608
31
0.0
0
LINE
8
0
6
CONTINUOUS
10
-0.002238
20
0.068508
30
0.0
11
-0.001868
21
0.065438
31
0.0
0
LINE
8
0
6
CONTINUOUS
10
-0.002084
20
0.075894
30
0.0
11
-0.002606
21
0.075227
31
0.0
0
LINE
8
0
6
CONTINUOUS
10
-0.002010
20
0.075896
30
0.0
11
-0.002533
21
0.075228
31
0.0
0
LINE
8
0
6
CONTINUOUS
10
-0.001745
20
0.075995
30
0.0
11
-0.002267
21
0.075227
31
0.0
0
LINE
8
0
6
CONTINUOUS
10
0.000000
20
0.075215
30
0.0
11
0.000000
21
0.076322
31
0.0
0
LINE
8
0
6
CONTINUOUS
10
0.000000
20
0.076322
30
0.0
11
-0.001456
21
0.076141
31
0.0
0
LINE
8
0
6
CONTINUOUS
10
-0.001745
20
0.075995
30
0.0
11
0.000000
21
0.076322
31
0.0
0
LINE
8
0
6
CONTINUOUS
10
-0.002606
20
0.075227
30
0.0
11
-0.002843
21
0.073171
31
0.0
0
LINE
8
0
6
CONTINUOUS
10
-0.002533
20
0.075228
30
0.0
11
-0.002606
21
0.075227
31
0.0
0
LINE
8
0
6
CONTINUOUS
10
-0.002533
20
0.075228
30
0.0
11
-0.002769
21
0.073172
31
0.0
0
LINE
8
0
6
CONTINUOUS
10
-0.002084
20
0.075894
30
0.0
11
-0.002010
21
0.075896
31
0.0
0
LINE
8
0
6
CONTINUOUS
10
-0.001456
20
0.076141
30
0.0
11
-0.002084
21
0.075894
31
0.0
0
LINE
8
0
6
CONTINUOUS
10
-0.002010
20
0.075896
30
0.0
11
-0.001745
21
0.075995
31
0.0
0
LINE
8
0
6
CONTINUOUS
10
-0.002070
20
0.068513
30
0.0
11
-0.001515
21
0.065518
31
0.0
0
LINE
8
0
6
CONTINUOUS
10
-0.001770
20
0.061204
30
0.0
11
-0.001921
21
0.055743
31
0.0
0
LINE
8
0
6
CONTINUOUS
10
0.000000
20
0.060623
30
0.0
11
-0.001413
21
0.060750
31
0.0
0
LINE
8
0
6
CONTINUOUS
10
-0.001413
20
0.060750
30
0.0
11
-0.001373
21
0.055734
31
0.0
0
LINE
8
0
6
CONTINUOUS
10
0.001724
20
0.055849
30
0.0
11
0.001935
21
0.061594
31
0.0
0
LINE
8
0
6
CONTINUOUS
10
0.017119
20
0.008613
30
0.0
11
0.017888
21
0.019673
31
0.0
0
LINE
8
0
6
CONTINUOUS
10
0.017888
20
0.019673
30
0.0
11
0.018657
21
0.030734
31
0.0
0
LINE
8
0
6
CONTINUOUS
10
0.015598
20
-0.013269
30
0.0
11
0.016105
21
-0.005975
31
0.0
0
LINE
8
0
6
CONTINUOUS
10
0.016105
20
-0.005975
30
0.0
11
0.016612
21
0.001319
31
0.0
0
LINE
8
0
6
CONTINUOUS
10
0.014077
20
-0.035151
30
0.0
11
0.014838
21
-0.024210
31
0.0
0
LINE
8
0
6
CONTINUOUS
10
0.012856
20
-0.038716
30
0.0
11
0.014077
21
-0.035151
31
0.0
0
LINE
8
0
6
CONTINUOUS
10
0.016612
20
0.001319
30
0.0
11
0.017119
21
0.008613
31
0.0
0
LINE
8
0
6
CONTINUOUS
10
0.000000
20
-0.042195
30
0.0
11
0.003216
21
-0.042195
31
0.0
0
LINE
8
0
6
CONTINUOUS
10
0.014838
20
-0.024210
30
0.0
11
0.015598
21
-0.013269
31
0.0
0
LINE
8
0
6
CONTINUOUS
10
0.003216
20
-0.042195
30
0.0
11
0.006432
21
-0.042195
31
0.0
0
LINE
8
0
6
CONTINUOUS
10
0.010085
20
-0.041270
30
0.0
11
0.012856
21
-0.038716
31
0.0
0
LINE
8
0
6
CONTINUOUS
10
0.006432
20
-0.042195
30
0.0
11
0.010085
21
-0.041270
31
0.0
0
LINE
8
0
6
CONTINUOUS
10
0.018353
20
0.040586
30
0.0
11
0.019000
21
0.035668
31
0.0
0
LINE
8
0
6
CONTINUOUS
10
0.018353
20
0.040586
30
0.0
11
0.016454
21
0.045168
31
0.0
0
LINE
8
0
6
CONTINUOUS
10
0.016454
20
0.045168
30
0.0
11
0.013435
21
0.049104
31
0.0
0
LINE
8
0
6
CONTINUOUS
10
0.009500
20
0.052123
30
0.0
11
0.013435
21
0.049104
31
0.0
0
LINE
8
0
6
CONTINUOUS
10
0.004918
20
0.054021
30
0.0
11
0.009500
21
0.052123
31
0.0
0
LINE
8
0
6
CONTINUOUS
10
0.000000
20
0.054669
30
0.0
11
0.004918
21
0.054021
31
0.0
0
LINE
8
0
6
CONTINUOUS
10
0.018657
20
0.030734
30
0.0
11
0.019000
21
0.035668
31
0.0
0
LINE
8
0
6
CONTINUOUS
10
-0.017888
20
0.019673
30
0.0
11
-0.017119
21
0.008613
31
0.0
0
LINE
8
0
6
CONTINUOUS
10
-0.018657
20
0.030734
30
0.0
11
-0.017888
21
0.019673
31
0.0
0
LINE
8
0
6
CONTINUOUS
10
-0.016105
20
-0.005975
30
0.0
11
-0.015598
21
-0.013269
31
0.0
0
LINE
8
0
6
CONTINUOUS
10
-0.016612
20
0.001319
30
0.0
11
-0.016105
21
-0.005975
31
0.0
0
LINE
8
0
6
CONTINUOUS
10
-0.014838
20
-0.024210
30
0.0
11
-0.014077
21
-0.035151
31
0.0
0
LINE
8
0
6
CONTINUOUS
10
-0.014077
20
-0.035151
30
0.0
11
-0.012856
21
-0.038716
31
0.0
0
LINE
8
0
6
CONTINUOUS
10
-0.017119
20
0.008613
30
0.0
11
-0.016612
21
0.001319
31
0.0
0
LINE
8
0
6
CONTINUOUS
10
-0.003216
20
-0.042195
30
0.0
11
0.000000
21
-0.042195
31
0.0
0
LINE
8
0
6
CONTINUOUS
10
-0.015598
20
-0.013269
30
0.0
11
-0.014838
21
-0.024210
31
0.0
0
LINE
8
0
6
CONTINUOUS
10
-0.006432
20
-0.042195
30
0.0
11
-0.003216
21
-0.042195
31
0.0
0
LINE
8
0
6
CONTINUOUS
10
-0.012856
20
-0.038716
30
0.0
11
-0.010085
21
-0.041270
31
0.0
0
LINE
8
0
6
CONTINUOUS
10
-0.010085
20
-0.041270
30
0.0
11
-0.006432
21
-0.042195
31
0.0
0
LINE
8
0
6
CONTINUOUS
10
-0.019000
20
0.035668
30
0.0
11
-0.018353
21
0.040586
31
0.0
0
LINE
8
0
6
CONTINUOUS
10
-0.016455
20
0.045168
30
0.0
11
-0.018353
21
0.040586
31
0.0
0
LINE
8
0
6
CONTINUOUS
10
-0.013435
20
0.049104
30
0.0
11
-0.016455
21
0.045168
31
0.0
0
LINE
8
0
6
CONTINUOUS
10
-0.013435
20
0.049104
30
0.0
11
-0.009500
21
0.052123
31
0.0
0
LINE
8
0
6
CONTINUOUS
10
-0.009500
20
0.052123
30
0.0
11
-0.004918
21
0.054021
31
0.0
0
LINE
8
0
6
CONTINUOUS
10
-0.004918
20
0.054021
30
0.0
11
0.000000
21
0.054669
31
0.0
0
LINE
8
0
6
CONTINUOUS
10
-0.019000
20
0.035668
30
0.0
11
-0.018657
21
0.030734
31
0.0
0
LINE
8
0
6
CONTINUOUS
10
0.022218
20
0.028999
30
0.0
11
0.023000
21
0.034954
31
0.0
0
LINE
8
0
6
CONTINUOUS
10
0.022225
20
0.040821
30
0.0
11
0.019927
21
0.046376
31
0.0
0
LINE
8
0
6
CONTINUOUS
10
0.019927
20
0.046376
30
0.0
11
0.016270
21
0.051145
31
0.0
0
LINE
8
0
6
CONTINUOUS
10
0.016270
20
0.051145
30
0.0
11
0.011505
21
0.054804
31
0.0
0
LINE
8
0
6
CONTINUOUS
10
0.023000
20
0.034954
30
0.0
11
0.022225
21
0.040821
31
0.0
0
LINE
8
0
6
CONTINUOUS
10
0.005955
20
0.057102
30
0.0
11
0.001792
21
0.057691
31
0.0
0
LINE
8
0
6
CONTINUOUS
10
0.011505
20
0.054804
30
0.0
11
0.005955
21
0.057102
31
0.0
0
LINE
8
0
6
CONTINUOUS
10
0.019922
20
0.023450
30
0.0
11
0.022218
21
0.028999
31
0.0
0
LINE
8
0
6
CONTINUOUS
10
0.019074
20
0.022344
30
0.0
11
0.019922
21
0.023450
31
0.0
0
LINE
8
0
6
CONTINUOUS
10
-0.023000
20
0.034954
30
0.0
11
-0.022218
21
0.028999
31
0.0
0
LINE
8
0
6
CONTINUOUS
10
-0.019927
20
0.046376
30
0.0
11
-0.022225
21
0.040821
31
0.0
0
LINE
8
0
6
CONTINUOUS
10
-0.016270
20
0.051145
30
0.0
11
-0.019927
21
0.046376
31
0.0
0
LINE
8
0
6
CONTINUOUS
10
-0.011505
20
0.054804
30
0.0
11
-0.016270
21
0.051145
31
0.0
0
LINE
8
0
6
CONTINUOUS
10
-0.022225
20
0.040821
30
0.0
11
-0.023000
21
0.034954
31
0.0
0
LINE
8
0
6
CONTINUOUS
10
-0.002091
20
0.057649
30
0.0
11
-0.005955
21
0.057102
31
0.0
0
LINE
8
0
6
CONTINUOUS
10
-0.005955
20
0.057102
30
0.0
11
-0.011505
21
0.054804
31
0.0
0
LINE
8
0
6
CONTINUOUS
10
-0.022218
20
0.028999
30
0.0
11
-0.019922
21
0.023450
31
0.0
0
LINE
8
0
6
CONTINUOUS
10
-0.019922
20
0.023450
30
0.0
11
-0.019074
21
0.022344
31
0.0
0
LINE
8
0
6
CONTINUOUS
10
0.021035
20
0.035337
30
0.0
11
0.020603
21
0.035421
31
0.0
0
LINE
8
0
6
CONTINUOUS
10
0.019203
20
0.030869
30
0.0
11
0.020156
21
0.035508
31
0.0
0
LINE
8
0
6
CONTINUOUS
10
0.020603
20
0.035421
30
0.0
11
0.020156
21
0.035508
31
0.0
0
LINE
8
0
6
CONTINUOUS
10
0.012511
20
-0.076322
30
0.0
11
0.014454
21
-0.076322
31
0.0
0
LINE
8
0
6
CONTINUOUS
10
0.017514
20
-0.073326
30
0.0
11
0.017550
21
-0.071143
31
0.0
0
LINE
8
0
6
CONTINUOUS
10
0.019074
20
0.022344
30
0.0
11
0.019276
21
0.035679
31
0.0
0
LINE
8
0
6
CONTINUOUS
10
0.017550
20
-0.071143
30
0.0
11
0.019000
21
0.015174
31
0.0
0
LINE
8
0
6
CONTINUOUS
10
0.000000
20
-0.076322
30
0.0
11
0.012511
21
-0.076322
31
0.0
0
LINE
8
0
6
CONTINUOUS
10
0.016852
20
-0.075704
30
0.0
11
0.017514
21
-0.073326
31
0.0
0
LINE
8
0
6
CONTINUOUS
10
0.014454
20
-0.076322
30
0.0
11
0.016852
21
-0.075704
31
0.0
0
LINE
8
0
6
CONTINUOUS
10
0.019007
20
0.022257
30
0.0
11
0.019020
21
0.035729
31
0.0
0
LINE
8
0
6
CONTINUOUS
10
0.018992
20
0.035734
30
0.0
11
0.019000
21
0.015174
31
0.0
0
LINE
8
0
6
CONTINUOUS
10
0.019212
20
0.031480
30
0.0
11
0.019716
21
0.035594
31
0.0
0
LINE
8
0
6
CONTINUOUS
10
-0.020603
20
0.035421
30
0.0
11
-0.021035
21
0.035337
31
0.0
0
LINE
8
0
6
CONTINUOUS
10
-0.020156
20
0.035508
30
0.0
11
-0.019203
21
0.030869
31
0.0
0
LINE
8
0
6
CONTINUOUS
10
-0.020156
20
0.035508
30
0.0
11
-0.020603
21
0.035421
31
0.0
0
LINE
8
0
6
CONTINUOUS
10
-0.014454
20
-0.076322
30
0.0
11
-0.012511
21
-0.076322
31
0.0
0
LINE
8
0
6
CONTINUOUS
10
-0.017550
20
-0.071143
30
0.0
11
-0.017514
21
-0.073326
31
0.0
0
LINE
8
0
6
CONTINUOUS
10
-0.019276
20
0.035679
30
0.0
11
-0.019074
21
0.022344
31
0.0
0
LINE
8
0
6
CONTINUOUS
10
-0.019000
20
0.015174
30
0.0
11
-0.017550
21
-0.071143
31
0.0
0
LINE
8
0
6
CONTINUOUS
10
-0.012511
20
-0.076322
30
0.0
11
0.000000
21
-0.076322
31
0.0
0
LINE
8
0
6
CONTINUOUS
10
-0.017514
20
-0.073326
30
0.0
11
-0.016852
21
-0.075704
31
0.0
0
LINE
8
0
6
CONTINUOUS
10
-0.016852
20
-0.075704
30
0.0
11
-0.014454
21
-0.076322
31
0.0
0
LINE
8
0
6
CONTINUOUS
10
-0.019020
20
0.035729
30
0.0
11
-0.019007
21
0.022257
31
0.0
0
LINE
8
0
6
CONTINUOUS
10
-0.019000
20
0.015174
30
0.0
11
-0.018992
21
0.035727
31
0.0
0
LINE
8
0
6
CONTINUOUS
10
-0.019716
20
0.035594
30
0.0
11
-0.019212
21
0.031480
31
0.0
0
LINE
8
0
6
CONTINUOUS
10
0.001225
20
0.055774
30
0.0
11
0.001022
21
0.055768
31
0.0
0
LINE
8
0
6
CONTINUOUS
10
-0.000166
20
0.055849
30
0.0
11
0.000000
21
0.055872
31
0.0
0
LINE
8
0
6
CONTINUOUS
10
-0.001509
20
0.055738
30
0.0
11
-0.001373
21
0.055734
31
0.0
0
ENDSEC
0
EOF
