999
Erzeugt mit innoplus bad 
0
SECTION
2
HEADER
9
$ACADVER
1
AC1009
9
$DWGCODEPAGE
3
ISO8859-1
0
ENDSEC
0
SECTION
2
TABLES
0
TABLE
2
LAYER
70
1
0
LAYER
2
0
70
0
62
7
6
CONTINUOUS
0
ENDTAB
0
ENDSEC
0
SECTION
2
ENTITIES
0
LINE
8
0
6
CONTINUOUS
10
-0.011274
20
0.012217
30
0.0
11
-0.011274
21
0.008887
31
0.0
0
LINE
8
0
6
CONTINUOUS
10
0.011274
20
0.008887
30
0.0
11
0.011274
21
0.012217
31
0.0
0
LINE
8
0
6
CONTINUOUS
10
-0.003484
20
0.003191
30
0.0
11
0.000000
21
0.002920
31
0.0
0
LINE
8
0
6
CONTINUOUS
10
-0.006627
20
0.003976
30
0.0
11
-0.003484
21
0.003191
31
0.0
0
LINE
8
0
6
CONTINUOUS
10
-0.009121
20
0.005200
30
0.0
11
-0.006627
21
0.003976
31
0.0
0
LINE
8
0
6
CONTINUOUS
10
-0.010722
20
0.006742
30
0.0
11
-0.009121
21
0.005200
31
0.0
0
LINE
8
0
6
CONTINUOUS
10
-0.011274
20
0.008451
30
0.0
11
-0.010722
21
0.006742
31
0.0
0
LINE
8
0
6
CONTINUOUS
10
-0.011274
20
0.008887
30
0.0
11
-0.011274
21
0.008451
31
0.0
0
LINE
8
0
6
CONTINUOUS
10
-0.010722
20
0.010160
30
0.0
11
-0.011274
21
0.008451
31
0.0
0
LINE
8
0
6
CONTINUOUS
10
-0.009121
20
0.011702
30
0.0
11
-0.010722
21
0.010160
31
0.0
0
LINE
8
0
6
CONTINUOUS
10
-0.006627
20
0.012926
30
0.0
11
-0.009121
21
0.011702
31
0.0
0
LINE
8
0
6
CONTINUOUS
10
-0.003484
20
0.013712
30
0.0
11
-0.006627
21
0.012926
31
0.0
0
LINE
8
0
6
CONTINUOUS
10
0.000000
20
0.013982
30
0.0
11
-0.003484
21
0.013712
31
0.0
0
LINE
8
0
6
CONTINUOUS
10
0.003484
20
0.013712
30
0.0
11
0.000000
21
0.013982
31
0.0
0
LINE
8
0
6
CONTINUOUS
10
0.006627
20
0.012926
30
0.0
11
0.003484
21
0.013712
31
0.0
0
LINE
8
0
6
CONTINUOUS
10
0.009121
20
0.011702
30
0.0
11
0.006627
21
0.012926
31
0.0
0
LINE
8
0
6
CONTINUOUS
10
0.010722
20
0.010160
30
0.0
11
0.009121
21
0.011702
31
0.0
0
LINE
8
0
6
CONTINUOUS
10
0.011274
20
0.008451
30
0.0
11
0.011274
21
0.008887
31
0.0
0
LINE
8
0
6
CONTINUOUS
10
0.011274
20
0.008451
30
0.0
11
0.010722
21
0.010160
31
0.0
0
LINE
8
0
6
CONTINUOUS
10
0.010722
20
0.006742
30
0.0
11
0.011274
21
0.008451
31
0.0
0
LINE
8
0
6
CONTINUOUS
10
0.009121
20
0.005200
30
0.0
11
0.010722
21
0.006742
31
0.0
0
LINE
8
0
6
CONTINUOUS
10
0.006627
20
0.003976
30
0.0
11
0.009121
21
0.005200
31
0.0
0
LINE
8
0
6
CONTINUOUS
10
0.003484
20
0.003191
30
0.0
11
0.006627
21
0.003976
31
0.0
0
LINE
8
0
6
CONTINUOUS
10
0.000000
20
0.002920
30
0.0
11
0.003484
21
0.003191
31
0.0
0
LINE
8
0
6
CONTINUOUS
10
0.002585
20
0.004796
30
0.0
11
0.004918
21
0.005379
31
0.0
0
LINE
8
0
6
CONTINUOUS
10
-0.004918
20
0.005379
30
0.0
11
-0.006769
21
0.006287
31
0.0
0
LINE
8
0
6
CONTINUOUS
10
0.002585
20
0.004796
30
0.0
11
0.000000
21
0.004595
31
0.0
0
LINE
8
0
6
CONTINUOUS
10
-0.006769
20
0.006287
30
0.0
11
-0.007957
21
0.007431
31
0.0
0
LINE
8
0
6
CONTINUOUS
10
0.008367
20
0.008700
30
0.0
11
0.007957
21
0.007431
31
0.0
0
LINE
8
0
6
CONTINUOUS
10
0.007957
20
0.007431
30
0.0
11
0.006769
21
0.006287
31
0.0
0
LINE
8
0
6
CONTINUOUS
10
-0.007957
20
0.007431
30
0.0
11
-0.008367
21
0.008700
31
0.0
0
LINE
8
0
6
CONTINUOUS
10
0.000000
20
0.004595
30
0.0
11
-0.002585
21
0.004796
31
0.0
0
LINE
8
0
6
CONTINUOUS
10
0.006769
20
0.006287
30
0.0
11
0.004918
21
0.005379
31
0.0
0
LINE
8
0
6
CONTINUOUS
10
-0.002585
20
0.004796
30
0.0
11
-0.004918
21
0.005379
31
0.0
0
LINE
8
0
6
CONTINUOUS
10
0.002585
20
0.004547
30
0.0
11
0.000000
21
0.004346
31
0.0
0
LINE
8
0
6
CONTINUOUS
10
0.004918
20
0.005130
30
0.0
11
0.002585
21
0.004547
31
0.0
0
LINE
8
0
6
CONTINUOUS
10
0.006769
20
0.006038
30
0.0
11
0.004918
21
0.005130
31
0.0
0
LINE
8
0
6
CONTINUOUS
10
0.007957
20
0.007183
30
0.0
11
0.006769
21
0.006038
31
0.0
0
LINE
8
0
6
CONTINUOUS
10
0.008367
20
0.008451
30
0.0
11
0.007957
21
0.007183
31
0.0
0
LINE
8
0
6
CONTINUOUS
10
0.007957
20
0.009720
30
0.0
11
0.008367
21
0.008451
31
0.0
0
LINE
8
0
6
CONTINUOUS
10
0.006769
20
0.010864
30
0.0
11
0.007957
21
0.009720
31
0.0
0
LINE
8
0
6
CONTINUOUS
10
0.004918
20
0.011772
30
0.0
11
0.006769
21
0.010864
31
0.0
0
LINE
8
0
6
CONTINUOUS
10
0.002585
20
0.012355
30
0.0
11
0.004918
21
0.011772
31
0.0
0
LINE
8
0
6
CONTINUOUS
10
0.000000
20
0.012556
30
0.0
11
0.002585
21
0.012355
31
0.0
0
LINE
8
0
6
CONTINUOUS
10
-0.002585
20
0.012355
30
0.0
11
0.000000
21
0.012556
31
0.0
0
LINE
8
0
6
CONTINUOUS
10
-0.004918
20
0.011772
30
0.0
11
-0.002585
21
0.012355
31
0.0
0
LINE
8
0
6
CONTINUOUS
10
-0.006769
20
0.010864
30
0.0
11
-0.004918
21
0.011772
31
0.0
0
LINE
8
0
6
CONTINUOUS
10
-0.007957
20
0.009720
30
0.0
11
-0.006769
21
0.010864
31
0.0
0
LINE
8
0
6
CONTINUOUS
10
-0.008367
20
0.008451
30
0.0
11
-0.007957
21
0.009720
31
0.0
0
LINE
8
0
6
CONTINUOUS
10
-0.007957
20
0.007183
30
0.0
11
-0.008367
21
0.008451
31
0.0
0
LINE
8
0
6
CONTINUOUS
10
-0.006769
20
0.006038
30
0.0
11
-0.007957
21
0.007183
31
0.0
0
LINE
8
0
6
CONTINUOUS
10
-0.004918
20
0.005130
30
0.0
11
-0.006769
21
0.006038
31
0.0
0
LINE
8
0
6
CONTINUOUS
10
-0.002585
20
0.004547
30
0.0
11
-0.004918
21
0.005130
31
0.0
0
LINE
8
0
6
CONTINUOUS
10
0.000000
20
0.004346
30
0.0
11
-0.002585
21
0.004547
31
0.0
0
LINE
8
0
6
CONTINUOUS
10
0.019000
20
0.054625
30
0.0
11
0.019000
21
0.057435
31
0.0
0
LINE
8
0
6
CONTINUOUS
10
0.017888
20
0.064500
30
0.0
11
0.017119
21
0.064500
31
0.0
0
LINE
8
0
6
CONTINUOUS
10
0.019000
20
0.057435
30
0.0
11
0.019000
21
0.060692
31
0.0
0
LINE
8
0
6
CONTINUOUS
10
0.019000
20
0.060692
30
0.0
11
0.019000
21
0.063948
31
0.0
0
LINE
8
0
6
CONTINUOUS
10
0.018657
20
0.064500
30
0.0
11
0.017888
21
0.064500
31
0.0
0
LINE
8
0
6
CONTINUOUS
10
0.016105
20
0.064500
30
0.0
11
0.015598
21
0.064500
31
0.0
0
LINE
8
0
6
CONTINUOUS
10
0.016612
20
0.064500
30
0.0
11
0.016105
21
0.064500
31
0.0
0
LINE
8
0
6
CONTINUOUS
10
0.014838
20
0.064500
30
0.0
11
0.014077
21
0.064500
31
0.0
0
LINE
8
0
6
CONTINUOUS
10
0.014077
20
0.064500
30
0.0
11
0.012856
21
0.064500
31
0.0
0
LINE
8
0
6
CONTINUOUS
10
0.017119
20
0.064500
30
0.0
11
0.016612
21
0.064500
31
0.0
0
LINE
8
0
6
CONTINUOUS
10
0.003216
20
0.064500
30
0.0
11
0.000000
21
0.064500
31
0.0
0
LINE
8
0
6
CONTINUOUS
10
0.015598
20
0.064500
30
0.0
11
0.014838
21
0.064500
31
0.0
0
LINE
8
0
6
CONTINUOUS
10
0.019000
20
0.064500
30
0.0
11
0.018657
21
0.064500
31
0.0
0
LINE
8
0
6
CONTINUOUS
10
0.019000
20
0.063948
30
0.0
11
0.019000
21
0.064500
31
0.0
0
LINE
8
0
6
CONTINUOUS
10
0.006432
20
0.064500
30
0.0
11
0.003216
21
0.064500
31
0.0
0
LINE
8
0
6
CONTINUOUS
10
0.012856
20
0.064500
30
0.0
11
0.010085
21
0.064500
31
0.0
0
LINE
8
0
6
CONTINUOUS
10
0.012699
20
0.063932
30
0.0
11
0.012856
21
0.064500
31
0.0
0
LINE
8
0
6
CONTINUOUS
10
0.010085
20
0.064500
30
0.0
11
0.006432
21
0.064500
31
0.0
0
LINE
8
0
6
CONTINUOUS
10
0.009983
20
0.063927
30
0.0
11
0.010085
21
0.064500
31
0.0
0
LINE
8
0
6
CONTINUOUS
10
0.018353
20
0.064500
30
0.0
11
0.016454
21
0.064500
31
0.0
0
LINE
8
0
6
CONTINUOUS
10
0.017655
20
0.064500
30
0.0
11
0.018353
21
0.064500
31
0.0
0
LINE
8
0
6
CONTINUOUS
10
0.016454
20
0.064500
30
0.0
11
0.013435
21
0.064500
31
0.0
0
LINE
8
0
6
CONTINUOUS
10
0.014742
20
0.058693
30
0.0
11
0.015670
21
0.058309
31
0.0
0
LINE
8
0
6
CONTINUOUS
10
0.012397
20
0.059544
30
0.0
11
0.010996
21
0.060030
31
0.0
0
LINE
8
0
6
CONTINUOUS
10
0.018353
20
0.030302
30
0.0
11
0.016455
21
0.030302
31
0.0
0
LINE
8
0
6
CONTINUOUS
10
0.018353
20
0.030302
30
0.0
11
0.019000
21
0.030302
31
0.0
0
LINE
8
0
6
CONTINUOUS
10
0.019000
20
0.030302
30
0.0
11
0.019000
21
0.030776
31
0.0
0
LINE
8
0
6
CONTINUOUS
10
0.013435
20
0.030302
30
0.0
11
0.016455
21
0.030302
31
0.0
0
LINE
8
0
6
CONTINUOUS
10
0.009500
20
0.030302
30
0.0
11
0.013435
21
0.030302
31
0.0
0
LINE
8
0
6
CONTINUOUS
10
0.004918
20
0.030302
30
0.0
11
0.009500
21
0.030302
31
0.0
0
LINE
8
0
6
CONTINUOUS
10
0.000000
20
0.030302
30
0.0
11
0.004918
21
0.030302
31
0.0
0
LINE
8
0
6
CONTINUOUS
10
0.003231
20
0.064500
30
0.0
11
0.003356
21
0.064500
31
0.0
0
LINE
8
0
6
CONTINUOUS
10
0.003356
20
0.064500
30
0.0
11
0.000000
21
0.064500
31
0.0
0
LINE
8
0
6
CONTINUOUS
10
0.013152
20
0.064500
30
0.0
11
0.009198
21
0.064500
31
0.0
0
LINE
8
0
6
CONTINUOUS
10
0.012870
20
0.064500
30
0.0
11
0.013152
21
0.064500
31
0.0
0
LINE
8
0
6
CONTINUOUS
10
0.011816
20
0.062058
30
0.0
11
0.012699
21
0.063932
31
0.0
0
LINE
8
0
6
CONTINUOUS
10
0.009983
20
0.063927
30
0.0
11
0.006432
21
0.063909
31
0.0
0
LINE
8
0
6
CONTINUOUS
10
0.009555
20
0.062618
30
0.0
11
0.009983
21
0.063927
31
0.0
0
LINE
8
0
6
CONTINUOUS
10
0.009555
20
0.062618
30
0.0
11
0.006432
21
0.063909
31
0.0
0
LINE
8
0
6
CONTINUOUS
10
0.006432
20
0.063909
30
0.0
11
0.006432
21
0.062995
31
0.0
0
LINE
8
0
6
CONTINUOUS
10
0.019000
20
0.048979
30
0.0
11
0.019000
21
0.051797
31
0.0
0
LINE
8
0
6
CONTINUOUS
10
0.011816
20
0.062058
30
0.0
11
0.009555
21
0.062618
31
0.0
0
LINE
8
0
6
CONTINUOUS
10
0.008920
20
0.061789
30
0.0
11
0.009913
21
0.060972
31
0.0
0
LINE
8
0
6
CONTINUOUS
10
0.013249
20
0.061512
30
0.0
11
0.014091
21
0.061405
31
0.0
0
LINE
8
0
6
CONTINUOUS
10
0.019000
20
0.051797
30
0.0
11
0.019000
21
0.054625
31
0.0
0
LINE
8
0
6
CONTINUOUS
10
0.013249
20
0.061512
30
0.0
11
0.011816
21
0.062058
31
0.0
0
LINE
8
0
6
CONTINUOUS
10
0.006432
20
0.062995
30
0.0
11
0.003216
21
0.062995
31
0.0
0
LINE
8
0
6
CONTINUOUS
10
0.003216
20
0.062995
30
0.0
11
0.000000
21
0.062995
31
0.0
0
LINE
8
0
6
CONTINUOUS
10
0.010996
20
0.060030
30
0.0
11
0.009913
21
0.060972
31
0.0
0
LINE
8
0
6
CONTINUOUS
10
0.019000
20
0.043341
30
0.0
11
0.019000
21
0.046160
31
0.0
0
LINE
8
0
6
CONTINUOUS
10
0.015670
20
0.058309
30
0.0
11
0.016421
21
0.054625
31
0.0
0
LINE
8
0
6
CONTINUOUS
10
0.009481
20
0.050980
30
0.0
11
0.004907
21
0.051065
31
0.0
0
LINE
8
0
6
CONTINUOUS
10
0.013409
20
0.054625
30
0.0
11
0.009461
21
0.054625
31
0.0
0
LINE
8
0
6
CONTINUOUS
10
0.013407
20
0.050800
30
0.0
11
0.009481
21
0.050980
31
0.0
0
LINE
8
0
6
CONTINUOUS
10
0.013405
20
0.053007
30
0.0
11
0.016417
21
0.052670
31
0.0
0
LINE
8
0
6
CONTINUOUS
10
0.016421
20
0.054625
30
0.0
11
0.013409
21
0.054625
31
0.0
0
LINE
8
0
6
CONTINUOUS
10
0.016423
20
0.050225
30
0.0
11
0.013407
21
0.050800
31
0.0
0
LINE
8
0
6
CONTINUOUS
10
0.019000
20
0.046160
30
0.0
11
0.019000
21
0.048979
31
0.0
0
LINE
8
0
6
CONTINUOUS
10
0.014742
20
0.058693
30
0.0
11
0.013802
21
0.059030
31
0.0
0
LINE
8
0
6
CONTINUOUS
10
0.014979
20
0.061274
30
0.0
11
0.014091
21
0.061405
31
0.0
0
LINE
8
0
6
CONTINUOUS
10
0.012397
20
0.059544
30
0.0
11
0.013802
21
0.059030
31
0.0
0
LINE
8
0
6
CONTINUOUS
10
0.009555
20
0.062618
30
0.0
11
0.006432
21
0.062995
31
0.0
0
LINE
8
0
6
CONTINUOUS
10
0.019000
20
0.030776
30
0.0
11
0.019000
21
0.043341
31
0.0
0
LINE
8
0
6
CONTINUOUS
10
-0.019000
20
0.057435
30
0.0
11
-0.019000
21
0.054625
31
0.0
0
LINE
8
0
6
CONTINUOUS
10
-0.017119
20
0.064500
30
0.0
11
-0.017888
21
0.064500
31
0.0
0
LINE
8
0
6
CONTINUOUS
10
-0.019000
20
0.060692
30
0.0
11
-0.019000
21
0.057435
31
0.0
0
LINE
8
0
6
CONTINUOUS
10
-0.019000
20
0.063948
30
0.0
11
-0.019000
21
0.060692
31
0.0
0
LINE
8
0
6
CONTINUOUS
10
-0.017888
20
0.064500
30
0.0
11
-0.018657
21
0.064500
31
0.0
0
LINE
8
0
6
CONTINUOUS
10
-0.015598
20
0.064500
30
0.0
11
-0.016105
21
0.064500
31
0.0
0
LINE
8
0
6
CONTINUOUS
10
-0.016105
20
0.064500
30
0.0
11
-0.016612
21
0.064500
31
0.0
0
LINE
8
0
6
CONTINUOUS
10
-0.014077
20
0.064500
30
0.0
11
-0.014838
21
0.064500
31
0.0
0
LINE
8
0
6
CONTINUOUS
10
-0.012856
20
0.064500
30
0.0
11
-0.014077
21
0.064500
31
0.0
0
LINE
8
0
6
CONTINUOUS
10
-0.016612
20
0.064500
30
0.0
11
-0.017119
21
0.064500
31
0.0
0
LINE
8
0
6
CONTINUOUS
10
0.000000
20
0.064500
30
0.0
11
-0.003216
21
0.064500
31
0.0
0
LINE
8
0
6
CONTINUOUS
10
-0.014838
20
0.064500
30
0.0
11
-0.015598
21
0.064500
31
0.0
0
LINE
8
0
6
CONTINUOUS
10
-0.019000
20
0.064500
30
0.0
11
-0.019000
21
0.063948
31
0.0
0
LINE
8
0
6
CONTINUOUS
10
-0.018657
20
0.064500
30
0.0
11
-0.019000
21
0.064500
31
0.0
0
LINE
8
0
6
CONTINUOUS
10
-0.003216
20
0.064500
30
0.0
11
-0.006432
21
0.064500
31
0.0
0
LINE
8
0
6
CONTINUOUS
10
-0.012856
20
0.064500
30
0.0
11
-0.012699
21
0.063932
31
0.0
0
LINE
8
0
6
CONTINUOUS
10
-0.010085
20
0.064500
30
0.0
11
-0.012856
21
0.064500
31
0.0
0
LINE
8
0
6
CONTINUOUS
10
-0.010085
20
0.064500
30
0.0
11
-0.009983
21
0.063927
31
0.0
0
LINE
8
0
6
CONTINUOUS
10
-0.006432
20
0.064500
30
0.0
11
-0.010085
21
0.064500
31
0.0
0
LINE
8
0
6
CONTINUOUS
10
-0.018353
20
0.064500
30
0.0
11
-0.017655
21
0.064500
31
0.0
0
LINE
8
0
6
CONTINUOUS
10
-0.016455
20
0.064500
30
0.0
11
-0.018353
21
0.064500
31
0.0
0
LINE
8
0
6
CONTINUOUS
10
-0.013435
20
0.064500
30
0.0
11
-0.016455
21
0.064500
31
0.0
0
LINE
8
0
6
CONTINUOUS
10
-0.015670
20
0.058309
30
0.0
11
-0.014742
21
0.058693
31
0.0
0
LINE
8
0
6
CONTINUOUS
10
-0.010996
20
0.060030
30
0.0
11
-0.012397
21
0.059544
31
0.0
0
LINE
8
0
6
CONTINUOUS
10
-0.016455
20
0.030302
30
0.0
11
-0.018353
21
0.030302
31
0.0
0
LINE
8
0
6
CONTINUOUS
10
-0.019000
20
0.030776
30
0.0
11
-0.019000
21
0.030302
31
0.0
0
LINE
8
0
6
CONTINUOUS
10
-0.019000
20
0.030302
30
0.0
11
-0.018353
21
0.030302
31
0.0
0
LINE
8
0
6
CONTINUOUS
10
-0.016455
20
0.030302
30
0.0
11
-0.013435
21
0.030302
31
0.0
0
LINE
8
0
6
CONTINUOUS
10
-0.013435
20
0.030302
30
0.0
11
-0.009500
21
0.030302
31
0.0
0
LINE
8
0
6
CONTINUOUS
10
-0.009500
20
0.030302
30
0.0
11
-0.004918
21
0.030302
31
0.0
0
LINE
8
0
6
CONTINUOUS
10
-0.004918
20
0.030302
30
0.0
11
0.000000
21
0.030302
31
0.0
0
LINE
8
0
6
CONTINUOUS
10
0.000000
20
0.064500
30
0.0
11
-0.003356
21
0.064500
31
0.0
0
LINE
8
0
6
CONTINUOUS
10
-0.003356
20
0.064500
30
0.0
11
-0.003231
21
0.064500
31
0.0
0
LINE
8
0
6
CONTINUOUS
10
-0.013152
20
0.064500
30
0.0
11
-0.012870
21
0.064500
31
0.0
0
LINE
8
0
6
CONTINUOUS
10
-0.009198
20
0.064500
30
0.0
11
-0.013152
21
0.064500
31
0.0
0
LINE
8
0
6
CONTINUOUS
10
-0.012699
20
0.063932
30
0.0
11
-0.011816
21
0.062058
31
0.0
0
LINE
8
0
6
CONTINUOUS
10
-0.006432
20
0.062995
30
0.0
11
-0.006432
21
0.063909
31
0.0
0
LINE
8
0
6
CONTINUOUS
10
-0.009555
20
0.062618
30
0.0
11
-0.006432
21
0.063909
31
0.0
0
LINE
8
0
6
CONTINUOUS
10
-0.009983
20
0.063927
30
0.0
11
-0.009555
21
0.062618
31
0.0
0
LINE
8
0
6
CONTINUOUS
10
-0.006432
20
0.063909
30
0.0
11
-0.009983
21
0.063927
31
0.0
0
LINE
8
0
6
CONTINUOUS
10
-0.019000
20
0.051797
30
0.0
11
-0.019000
21
0.048979
31
0.0
0
LINE
8
0
6
CONTINUOUS
10
-0.009914
20
0.060972
30
0.0
11
-0.008920
21
0.061789
31
0.0
0
LINE
8
0
6
CONTINUOUS
10
-0.009555
20
0.062618
30
0.0
11
-0.011816
21
0.062058
31
0.0
0
LINE
8
0
6
CONTINUOUS
10
-0.014091
20
0.061405
30
0.0
11
-0.013249
21
0.061512
31
0.0
0
LINE
8
0
6
CONTINUOUS
10
-0.019000
20
0.054625
30
0.0
11
-0.019000
21
0.051797
31
0.0
0
LINE
8
0
6
CONTINUOUS
10
-0.011816
20
0.062058
30
0.0
11
-0.013249
21
0.061512
31
0.0
0
LINE
8
0
6
CONTINUOUS
10
-0.003216
20
0.062995
30
0.0
11
-0.006432
21
0.062995
31
0.0
0
LINE
8
0
6
CONTINUOUS
10
0.000000
20
0.062995
30
0.0
11
-0.003216
21
0.062995
31
0.0
0
LINE
8
0
6
CONTINUOUS
10
-0.009914
20
0.060972
30
0.0
11
-0.010996
21
0.060030
31
0.0
0
LINE
8
0
6
CONTINUOUS
10
-0.019000
20
0.046160
30
0.0
11
-0.019000
21
0.043341
31
0.0
0
LINE
8
0
6
CONTINUOUS
10
-0.015670
20
0.058309
30
0.0
11
-0.016421
21
0.054625
31
0.0
0
LINE
8
0
6
CONTINUOUS
10
-0.004907
20
0.051065
30
0.0
11
-0.009481
21
0.050980
31
0.0
0
LINE
8
0
6
CONTINUOUS
10
-0.009461
20
0.054625
30
0.0
11
-0.013409
21
0.054625
31
0.0
0
LINE
8
0
6
CONTINUOUS
10
-0.009481
20
0.050980
30
0.0
11
-0.013407
21
0.050800
31
0.0
0
LINE
8
0
6
CONTINUOUS
10
-0.013409
20
0.054625
30
0.0
11
-0.016421
21
0.054625
31
0.0
0
LINE
8
0
6
CONTINUOUS
10
-0.016417
20
0.052670
30
0.0
11
-0.013405
21
0.053007
31
0.0
0
LINE
8
0
6
CONTINUOUS
10
-0.013407
20
0.050800
30
0.0
11
-0.016423
21
0.050225
31
0.0
0
LINE
8
0
6
CONTINUOUS
10
-0.019000
20
0.048979
30
0.0
11
-0.019000
21
0.046160
31
0.0
0
LINE
8
0
6
CONTINUOUS
10
-0.013802
20
0.059030
30
0.0
11
-0.014742
21
0.058693
31
0.0
0
LINE
8
0
6
CONTINUOUS
10
-0.013802
20
0.059030
30
0.0
11
-0.012397
21
0.059544
31
0.0
0
LINE
8
0
6
CONTINUOUS
10
-0.014091
20
0.061405
30
0.0
11
-0.014979
21
0.061274
31
0.0
0
LINE
8
0
6
CONTINUOUS
10
-0.006432
20
0.062995
30
0.0
11
-0.009555
21
0.062618
31
0.0
0
LINE
8
0
6
CONTINUOUS
10
-0.019000
20
0.043341
30
0.0
11
-0.019000
21
0.030776
31
0.0
0
LINE
8
0
6
CONTINUOUS
10
0.017496
20
0.028506
30
0.0
11
0.017496
21
0.030302
31
0.0
0
LINE
8
0
6
CONTINUOUS
10
-0.017496
20
0.030302
30
0.0
11
-0.017496
21
0.028506
31
0.0
0
LINE
8
0
6
CONTINUOUS
10
0.023000
20
-0.064500
30
0.0
11
0.022957
21
-0.063501
31
0.0
0
LINE
8
0
6
CONTINUOUS
10
0.022218
20
-0.064500
30
0.0
11
0.023000
21
-0.064500
31
0.0
0
LINE
8
0
6
CONTINUOUS
10
0.019922
20
-0.064500
30
0.0
11
0.022218
21
-0.064500
31
0.0
0
LINE
8
0
6
CONTINUOUS
10
0.005954
20
-0.064500
30
0.0
11
0.011503
21
-0.064500
31
0.0
0
LINE
8
0
6
CONTINUOUS
10
0.000000
20
-0.064500
30
0.0
11
0.005954
21
-0.064500
31
0.0
0
LINE
8
0
6
CONTINUOUS
10
0.016267
20
-0.064500
30
0.0
11
0.019922
21
-0.064500
31
0.0
0
LINE
8
0
6
CONTINUOUS
10
0.011503
20
-0.064500
30
0.0
11
0.016267
21
-0.064500
31
0.0
0
LINE
8
0
6
CONTINUOUS
10
-0.022957
20
-0.063501
30
0.0
11
-0.023000
21
-0.064500
31
0.0
0
LINE
8
0
6
CONTINUOUS
10
-0.022218
20
-0.064500
30
0.0
11
-0.023000
21
-0.064500
31
0.0
0
LINE
8
0
6
CONTINUOUS
10
-0.019922
20
-0.064500
30
0.0
11
-0.022218
21
-0.064500
31
0.0
0
LINE
8
0
6
CONTINUOUS
10
-0.005954
20
-0.064500
30
0.0
11
-0.011503
21
-0.064500
31
0.0
0
LINE
8
0
6
CONTINUOUS
10
0.000000
20
-0.064500
30
0.0
11
-0.005954
21
-0.064500
31
0.0
0
LINE
8
0
6
CONTINUOUS
10
-0.016267
20
-0.064500
30
0.0
11
-0.019922
21
-0.064500
31
0.0
0
LINE
8
0
6
CONTINUOUS
10
-0.011503
20
-0.064500
30
0.0
11
-0.016267
21
-0.064500
31
0.0
0
LINE
8
0
6
CONTINUOUS
10
0.022957
20
-0.063501
30
0.0
11
0.021035
21
-0.018895
31
0.0
0
LINE
8
0
6
CONTINUOUS
10
0.021035
20
-0.018895
30
0.0
11
0.020603
21
-0.008872
31
0.0
0
LINE
8
0
6
CONTINUOUS
10
0.020156
20
0.001512
30
0.0
11
0.019716
21
0.011715
31
0.0
0
LINE
8
0
6
CONTINUOUS
10
0.020603
20
-0.008872
30
0.0
11
0.020156
21
0.001512
31
0.0
0
LINE
8
0
6
CONTINUOUS
10
0.014454
20
0.028506
30
0.0
11
0.012511
21
0.028506
31
0.0
0
LINE
8
0
6
CONTINUOUS
10
0.019276
20
0.021919
30
0.0
11
0.019020
21
0.027855
31
0.0
0
LINE
8
0
6
CONTINUOUS
10
0.019000
20
0.028506
30
0.0
11
0.017550
21
0.028506
31
0.0
0
LINE
8
0
6
CONTINUOUS
10
0.012511
20
0.028506
30
0.0
11
0.000000
21
0.028506
31
0.0
0
LINE
8
0
6
CONTINUOUS
10
0.017514
20
0.028506
30
0.0
11
0.016852
21
0.028506
31
0.0
0
LINE
8
0
6
CONTINUOUS
10
0.016852
20
0.028506
30
0.0
11
0.014454
21
0.028506
31
0.0
0
LINE
8
0
6
CONTINUOUS
10
0.016759
20
0.027519
30
0.0
11
0.016852
21
0.028506
31
0.0
0
LINE
8
0
6
CONTINUOUS
10
0.019020
20
0.027855
30
0.0
11
0.019000
21
0.028506
31
0.0
0
LINE
8
0
6
CONTINUOUS
10
0.015757
20
0.019272
30
0.0
11
0.016358
21
0.023269
31
0.0
0
LINE
8
0
6
CONTINUOUS
10
0.012409
20
0.011916
30
0.0
11
0.014753
21
0.015392
31
0.0
0
LINE
8
0
6
CONTINUOUS
10
0.011274
20
0.011061
30
0.0
11
0.012409
21
0.011916
31
0.0
0
LINE
8
0
6
CONTINUOUS
10
0.014753
20
0.015392
30
0.0
11
0.015757
21
0.019272
31
0.0
0
LINE
8
0
6
CONTINUOUS
10
0.016759
20
0.027519
30
0.0
11
0.016358
21
0.023269
31
0.0
0
LINE
8
0
6
CONTINUOUS
10
0.019716
20
0.011715
30
0.0
11
0.019276
21
0.021919
31
0.0
0
LINE
8
0
6
CONTINUOUS
10
0.004977
20
-0.002303
30
0.0
11
0.009607
21
-0.000857
31
0.0
0
LINE
8
0
6
CONTINUOUS
10
0.000000
20
-0.002811
30
0.0
11
0.004977
21
-0.002303
31
0.0
0
LINE
8
0
6
CONTINUOUS
10
-0.021035
20
-0.018895
30
0.0
11
-0.022957
21
-0.063501
31
0.0
0
LINE
8
0
6
CONTINUOUS
10
-0.020603
20
-0.008872
30
0.0
11
-0.021035
21
-0.018895
31
0.0
0
LINE
8
0
6
CONTINUOUS
10
-0.019716
20
0.011715
30
0.0
11
-0.020156
21
0.001512
31
0.0
0
LINE
8
0
6
CONTINUOUS
10
-0.020156
20
0.001512
30
0.0
11
-0.020603
21
-0.008872
31
0.0
0
LINE
8
0
6
CONTINUOUS
10
-0.012511
20
0.028506
30
0.0
11
-0.014454
21
0.028506
31
0.0
0
LINE
8
0
6
CONTINUOUS
10
-0.019020
20
0.027855
30
0.0
11
-0.019276
21
0.021919
31
0.0
0
LINE
8
0
6
CONTINUOUS
10
-0.017550
20
0.028506
30
0.0
11
-0.019000
21
0.028506
31
0.0
0
LINE
8
0
6
CONTINUOUS
10
0.000000
20
0.028506
30
0.0
11
-0.012511
21
0.028506
31
0.0
0
LINE
8
0
6
CONTINUOUS
10
-0.016852
20
0.028506
30
0.0
11
-0.017514
21
0.028506
31
0.0
0
LINE
8
0
6
CONTINUOUS
10
-0.016852
20
0.028506
30
0.0
11
-0.016759
21
0.027519
31
0.0
0
LINE
8
0
6
CONTINUOUS
10
-0.014454
20
0.028506
30
0.0
11
-0.016852
21
0.028506
31
0.0
0
LINE
8
0
6
CONTINUOUS
10
-0.019000
20
0.028506
30
0.0
11
-0.019020
21
0.027855
31
0.0
0
LINE
8
0
6
CONTINUOUS
10
-0.016358
20
0.023269
30
0.0
11
-0.015757
21
0.019272
31
0.0
0
LINE
8
0
6
CONTINUOUS
10
-0.014753
20
0.015392
30
0.0
11
-0.012409
21
0.011916
31
0.0
0
LINE
8
0
6
CONTINUOUS
10
-0.012409
20
0.011916
30
0.0
11
-0.011274
21
0.011061
31
0.0
0
LINE
8
0
6
CONTINUOUS
10
-0.015757
20
0.019272
30
0.0
11
-0.014753
21
0.015392
31
0.0
0
LINE
8
0
6
CONTINUOUS
10
-0.016358
20
0.023269
30
0.0
11
-0.016759
21
0.027519
31
0.0
0
LINE
8
0
6
CONTINUOUS
10
-0.019276
20
0.021919
30
0.0
11
-0.019716
21
0.011715
31
0.0
0
LINE
8
0
6
CONTINUOUS
10
0.000000
20
-0.063500
30
0.0
11
0.000000
21
-0.020381
31
0.0
0
LINE
8
0
6
CONTINUOUS
10
0.000000
20
-0.008054
30
0.0
11
0.000000
21
-0.002811
31
0.0
0
LINE
8
0
6
CONTINUOUS
10
-0.009607
20
-0.000857
30
0.0
11
-0.004977
21
-0.002303
31
0.0
0
LINE
8
0
6
CONTINUOUS
10
-0.004977
20
-0.002303
30
0.0
11
0.000000
21
-0.002811
31
0.0
0
LINE
8
0
6
CONTINUOUS
10
0.000000
20
-0.002811
30
0.0
11
0.000000
21
0.000558
31
0.0
0
LINE
8
0
6
CONTINUOUS
10
0.000000
20
0.000558
30
0.0
11
0.000000
21
0.002118
31
0.0
0
LINE
8
0
6
CONTINUOUS
10
0.000000
20
-0.014175
30
0.0
11
0.000000
21
-0.008054
31
0.0
0
LINE
8
0
6
CONTINUOUS
10
-0.010722
20
0.013821
30
0.0
11
-0.010808
21
0.013534
31
0.0
0
LINE
8
0
6
CONTINUOUS
10
0.009121
20
0.015478
30
0.0
11
0.009879
21
0.014693
31
0.0
0
LINE
8
0
6
CONTINUOUS
10
0.008112
20
0.016010
30
0.0
11
0.009121
21
0.015478
31
0.0
0
LINE
8
0
6
CONTINUOUS
10
-0.009121
20
0.015478
30
0.0
11
-0.009879
21
0.014693
31
0.0
0
LINE
8
0
6
CONTINUOUS
10
-0.009121
20
0.015478
30
0.0
11
-0.008112
21
0.016010
31
0.0
0
LINE
8
0
6
CONTINUOUS
10
0.011111
20
0.012655
30
0.0
11
0.011274
21
0.012217
31
0.0
0
LINE
8
0
6
CONTINUOUS
10
0.010897
20
0.013262
30
0.0
11
0.011111
21
0.012655
31
0.0
0
LINE
8
0
6
CONTINUOUS
10
0.009879
20
0.014693
30
0.0
11
0.010722
21
0.013821
31
0.0
0
LINE
8
0
6
CONTINUOUS
10
-0.008112
20
0.016010
30
0.0
11
-0.006627
21
0.016918
31
0.0
0
LINE
8
0
6
CONTINUOUS
10
-0.010808
20
0.013534
30
0.0
11
-0.010897
21
0.013262
31
0.0
0
LINE
8
0
6
CONTINUOUS
10
0.006627
20
0.016918
30
0.0
11
0.008112
21
0.016010
31
0.0
0
ENDSEC
0
EOF
