999
Erzeugt mit innoplus bad 
0
SECTION
2
HEADER
9
$ACADVER
1
AC1009
9
$DWGCODEPAGE
3
ISO8859-1
0
ENDSEC
0
SECTION
2
TABLES
0
TABLE
2
LAYER
70
1
0
LAYER
2
0
70
0
62
7
6
CONTINUOUS
0
ENDTAB
0
ENDSEC
0
SECTION
2
ENTITIES
0
LINE
8
0
6
CONTINUOUS
10
0.020059
20
0.072036
30
0.0
11
0.025127
21
0.071126
31
0.0
0
LINE
8
0
6
CONTINUOUS
10
0.033525
20
0.061250
30
0.0
11
0.033777
21
0.059841
31
0.0
0
LINE
8
0
6
CONTINUOUS
10
0.036800
20
0.081001
30
0.0
11
0.047872
21
0.081001
31
0.0
0
LINE
8
0
6
CONTINUOUS
10
0.047872
20
0.081001
30
0.0
11
0.036800
21
0.081001
31
0.0
0
LINE
8
0
6
CONTINUOUS
10
0.036788
20
0.081001
30
0.0
11
0.025704
21
0.081001
31
0.0
0
LINE
8
0
6
CONTINUOUS
10
0.043297
20
0.046801
30
0.0
11
0.047872
21
0.046801
31
0.0
0
LINE
8
0
6
CONTINUOUS
10
0.052817
20
0.081001
30
0.0
11
0.047872
21
0.081001
31
0.0
0
LINE
8
0
6
CONTINUOUS
10
0.047872
20
0.081001
30
0.0
11
0.036788
21
0.081001
31
0.0
0
LINE
8
0
6
CONTINUOUS
10
0.071857
20
0.073936
30
0.0
11
0.071857
21
0.077193
31
0.0
0
LINE
8
0
6
CONTINUOUS
10
0.012495
20
0.073093
30
0.0
11
0.020059
21
0.072036
31
0.0
0
LINE
8
0
6
CONTINUOUS
10
0.011101
20
0.081001
30
0.0
11
0.018415
21
0.081001
31
0.0
0
LINE
8
0
6
CONTINUOUS
10
0.018415
20
0.081001
30
0.0
11
0.011101
21
0.081001
31
0.0
0
LINE
8
0
6
CONTINUOUS
10
0.011086
20
0.081001
30
0.0
11
0.003776
21
0.081001
31
0.0
0
LINE
8
0
6
CONTINUOUS
10
0.018395
20
0.081001
30
0.0
11
0.011086
21
0.081001
31
0.0
0
LINE
8
0
6
CONTINUOUS
10
-0.007188
20
0.081001
30
0.0
11
-0.018152
21
0.081001
31
0.0
0
LINE
8
0
6
CONTINUOUS
10
-0.018152
20
0.081001
30
0.0
11
-0.021725
21
0.081001
31
0.0
0
LINE
8
0
6
CONTINUOUS
10
0.025704
20
0.081001
30
0.0
11
0.018395
21
0.081001
31
0.0
0
LINE
8
0
6
CONTINUOUS
10
-0.024430
20
0.081001
30
0.0
11
-0.025211
21
0.081001
31
0.0
0
LINE
8
0
6
CONTINUOUS
10
-0.025211
20
0.081001
30
0.0
11
-0.024430
21
0.081001
31
0.0
0
LINE
8
0
6
CONTINUOUS
10
0.003776
20
0.081001
30
0.0
11
-0.007188
21
0.081001
31
0.0
0
LINE
8
0
6
CONTINUOUS
10
0.052817
20
0.081001
30
0.0
11
0.047872
21
0.081001
31
0.0
0
LINE
8
0
6
CONTINUOUS
10
-0.021725
20
0.081001
30
0.0
11
-0.024284
21
0.081001
31
0.0
0
LINE
8
0
6
CONTINUOUS
10
-0.021628
20
0.080433
30
0.0
11
-0.021725
21
0.081001
31
0.0
0
LINE
8
0
6
CONTINUOUS
10
-0.024284
20
0.081001
30
0.0
11
-0.025211
21
0.081001
31
0.0
0
LINE
8
0
6
CONTINUOUS
10
-0.024157
20
0.080429
30
0.0
11
-0.024284
21
0.081001
31
0.0
0
LINE
8
0
6
CONTINUOUS
10
0.057745
20
0.081001
30
0.0
11
0.052817
21
0.081001
31
0.0
0
LINE
8
0
6
CONTINUOUS
10
0.062337
20
0.081001
30
0.0
11
0.057745
21
0.081001
31
0.0
0
LINE
8
0
6
CONTINUOUS
10
0.066280
20
0.081001
30
0.0
11
0.062337
21
0.081001
31
0.0
0
LINE
8
0
6
CONTINUOUS
10
0.069306
20
0.081001
30
0.0
11
0.066280
21
0.081001
31
0.0
0
LINE
8
0
6
CONTINUOUS
10
0.071208
20
0.081001
30
0.0
11
0.069306
21
0.081001
31
0.0
0
LINE
8
0
6
CONTINUOUS
10
0.071857
20
0.081001
30
0.0
11
0.071208
21
0.081001
31
0.0
0
LINE
8
0
6
CONTINUOUS
10
0.071857
20
0.080449
30
0.0
11
0.071857
21
0.081001
31
0.0
0
LINE
8
0
6
CONTINUOUS
10
0.018393
20
0.075194
30
0.0
11
0.026477
21
0.074810
31
0.0
0
LINE
8
0
6
CONTINUOUS
10
0.018415
20
0.081001
30
0.0
11
0.025728
21
0.081001
31
0.0
0
LINE
8
0
6
CONTINUOUS
10
0.025728
20
0.081001
30
0.0
11
0.018415
21
0.081001
31
0.0
0
LINE
8
0
6
CONTINUOUS
10
-0.017071
20
0.076166
30
0.0
11
-0.006026
21
0.074827
31
0.0
0
LINE
8
0
6
CONTINUOUS
10
-0.001679
20
0.076044
30
0.0
11
-0.013737
21
0.076531
31
0.0
0
LINE
8
0
6
CONTINUOUS
10
0.003788
20
0.081001
30
0.0
11
-0.007182
21
0.081001
31
0.0
0
LINE
8
0
6
CONTINUOUS
10
-0.007185
20
0.081001
30
0.0
11
0.003787
21
0.081001
31
0.0
0
LINE
8
0
6
CONTINUOUS
10
0.052825
20
0.046801
30
0.0
11
0.057738
21
0.046801
31
0.0
0
LINE
8
0
6
CONTINUOUS
10
0.066281
20
0.046801
30
0.0
11
0.069308
21
0.046801
31
0.0
0
LINE
8
0
6
CONTINUOUS
10
0.062334
20
0.046801
30
0.0
11
0.066281
21
0.046801
31
0.0
0
LINE
8
0
6
CONTINUOUS
10
0.057738
20
0.046801
30
0.0
11
0.062334
21
0.046801
31
0.0
0
LINE
8
0
6
CONTINUOUS
10
0.069308
20
0.046801
30
0.0
11
0.071210
21
0.046801
31
0.0
0
LINE
8
0
6
CONTINUOUS
10
0.071857
20
0.046801
30
0.0
11
0.071857
21
0.047275
31
0.0
0
LINE
8
0
6
CONTINUOUS
10
0.071210
20
0.046801
30
0.0
11
0.071857
21
0.046801
31
0.0
0
LINE
8
0
6
CONTINUOUS
10
0.047872
20
0.046801
30
0.0
11
0.052825
21
0.046801
31
0.0
0
LINE
8
0
6
CONTINUOUS
10
0.039354
20
0.046801
30
0.0
11
0.043297
21
0.046801
31
0.0
0
LINE
8
0
6
CONTINUOUS
10
0.036328
20
0.046801
30
0.0
11
0.039354
21
0.046801
31
0.0
0
LINE
8
0
6
CONTINUOUS
10
0.034426
20
0.046801
30
0.0
11
0.036328
21
0.046801
31
0.0
0
LINE
8
0
6
CONTINUOUS
10
0.033777
20
0.046801
30
0.0
11
0.034426
21
0.046801
31
0.0
0
LINE
8
0
6
CONTINUOUS
10
0.033777
20
0.047275
30
0.0
11
0.033777
21
0.046801
31
0.0
0
LINE
8
0
6
CONTINUOUS
10
0.033777
20
0.059841
30
0.0
11
0.033777
21
0.047275
31
0.0
0
LINE
8
0
6
CONTINUOUS
10
-0.024430
20
0.081001
30
0.0
11
-0.018152
21
0.081001
31
0.0
0
LINE
8
0
6
CONTINUOUS
10
0.062013
20
0.081001
30
0.0
11
0.070635
21
0.081001
31
0.0
0
LINE
8
0
6
CONTINUOUS
10
0.062337
20
0.081001
30
0.0
11
0.062013
21
0.081001
31
0.0
0
LINE
8
0
6
CONTINUOUS
10
0.071282
20
0.081001
30
0.0
11
0.062337
21
0.081001
31
0.0
0
LINE
8
0
6
CONTINUOUS
10
0.070635
20
0.081001
30
0.0
11
0.071282
21
0.081001
31
0.0
0
LINE
8
0
6
CONTINUOUS
10
0.059549
20
0.081001
30
0.0
11
0.057987
21
0.081001
31
0.0
0
LINE
8
0
6
CONTINUOUS
10
0.065713
20
0.081001
30
0.0
11
0.059549
21
0.081001
31
0.0
0
LINE
8
0
6
CONTINUOUS
10
-0.018152
20
0.081001
30
0.0
11
-0.024430
21
0.081001
31
0.0
0
LINE
8
0
6
CONTINUOUS
10
-0.020770
20
0.078559
30
0.0
11
-0.021628
21
0.080433
31
0.0
0
LINE
8
0
6
CONTINUOUS
10
0.061062
20
0.081001
30
0.0
11
0.062013
21
0.081001
31
0.0
0
LINE
8
0
6
CONTINUOUS
10
0.062013
20
0.081001
30
0.0
11
0.052817
21
0.081001
31
0.0
0
LINE
8
0
6
CONTINUOUS
10
-0.024157
20
0.080429
30
0.0
11
-0.025211
21
0.080410
31
0.0
0
LINE
8
0
6
CONTINUOUS
10
-0.023657
20
0.079119
30
0.0
11
-0.024157
21
0.080429
31
0.0
0
LINE
8
0
6
CONTINUOUS
10
-0.023657
20
0.079119
30
0.0
11
-0.025211
21
0.080410
31
0.0
0
LINE
8
0
6
CONTINUOUS
10
-0.025211
20
0.080410
30
0.0
11
-0.025211
21
0.079496
31
0.0
0
LINE
8
0
6
CONTINUOUS
10
-0.018152
20
0.081001
30
0.0
11
-0.007185
21
0.081001
31
0.0
0
LINE
8
0
6
CONTINUOUS
10
0.003787
20
0.081001
30
0.0
11
0.011101
21
0.081001
31
0.0
0
LINE
8
0
6
CONTINUOUS
10
0.025728
20
0.081001
30
0.0
11
0.036800
21
0.081001
31
0.0
0
LINE
8
0
6
CONTINUOUS
10
0.036800
20
0.081001
30
0.0
11
0.025728
21
0.081001
31
0.0
0
LINE
8
0
6
CONTINUOUS
10
0.028255
20
0.069640
30
0.0
11
0.031007
21
0.067595
31
0.0
0
LINE
8
0
6
CONTINUOUS
10
0.071857
20
0.068298
30
0.0
11
0.071857
21
0.071126
31
0.0
0
LINE
8
0
6
CONTINUOUS
10
-0.020770
20
0.078559
30
0.0
11
-0.023657
21
0.079119
31
0.0
0
LINE
8
0
6
CONTINUOUS
10
-0.023163
20
0.078290
30
0.0
11
-0.020704
21
0.077473
31
0.0
0
LINE
8
0
6
CONTINUOUS
10
-0.014554
20
0.078013
30
0.0
11
-0.004377
21
0.077907
31
0.0
0
LINE
8
0
6
CONTINUOUS
10
0.071857
20
0.071126
30
0.0
11
0.071857
21
0.073936
31
0.0
0
LINE
8
0
6
CONTINUOUS
10
0.071857
20
0.062660
30
0.0
11
0.071857
21
0.065479
31
0.0
0
LINE
8
0
6
CONTINUOUS
10
0.071857
20
0.065479
30
0.0
11
0.071857
21
0.068298
31
0.0
0
LINE
8
0
6
CONTINUOUS
10
0.071857
20
0.077193
30
0.0
11
0.071857
21
0.080449
31
0.0
0
LINE
8
0
6
CONTINUOUS
10
0.011101
20
0.081001
30
0.0
11
0.003788
21
0.081001
31
0.0
0
LINE
8
0
6
CONTINUOUS
10
-0.014554
20
0.078013
30
0.0
11
-0.020770
21
0.078559
31
0.0
0
LINE
8
0
6
CONTINUOUS
10
-0.023947
20
0.078450
30
0.0
11
-0.021390
21
0.077222
31
0.0
0
LINE
8
0
6
CONTINUOUS
10
-0.021390
20
0.077222
30
0.0
11
-0.017006
21
0.076166
31
0.0
0
LINE
8
0
6
CONTINUOUS
10
-0.013737
20
0.076531
30
0.0
11
-0.020704
21
0.077473
31
0.0
0
LINE
8
0
6
CONTINUOUS
10
-0.007182
20
0.081001
30
0.0
11
-0.018152
21
0.081001
31
0.0
0
LINE
8
0
6
CONTINUOUS
10
0.026477
20
0.074810
30
0.0
11
0.039599
21
0.071126
31
0.0
0
LINE
8
0
6
CONTINUOUS
10
0.025127
20
0.071126
30
0.0
11
0.028255
21
0.069640
31
0.0
0
LINE
8
0
6
CONTINUOUS
10
0.031007
20
0.067595
30
0.0
11
0.032779
21
0.064630
31
0.0
0
LINE
8
0
6
CONTINUOUS
10
0.034108
20
0.067480
30
0.0
11
0.031824
21
0.067565
31
0.0
0
LINE
8
0
6
CONTINUOUS
10
0.032886
20
0.071126
30
0.0
11
0.028663
21
0.071126
31
0.0
0
LINE
8
0
6
CONTINUOUS
10
0.037747
20
0.067300
30
0.0
11
0.034108
21
0.067480
31
0.0
0
LINE
8
0
6
CONTINUOUS
10
0.035576
20
0.069507
30
0.0
11
0.041549
21
0.069171
31
0.0
0
LINE
8
0
6
CONTINUOUS
10
0.039599
20
0.071126
30
0.0
11
0.032886
21
0.071126
31
0.0
0
LINE
8
0
6
CONTINUOUS
10
0.042718
20
0.066726
30
0.0
11
0.037747
21
0.067300
31
0.0
0
LINE
8
0
6
CONTINUOUS
10
0.032779
20
0.064630
30
0.0
11
0.033525
21
0.061250
31
0.0
0
LINE
8
0
6
CONTINUOUS
10
0.018393
20
0.075194
30
0.0
11
0.010338
21
0.075530
31
0.0
0
LINE
8
0
6
CONTINUOUS
10
0.004868
20
0.073658
30
0.0
11
0.012495
21
0.073093
31
0.0
0
LINE
8
0
6
CONTINUOUS
10
-0.006026
20
0.074827
30
0.0
11
0.004868
21
0.073658
31
0.0
0
LINE
8
0
6
CONTINUOUS
10
0.005949
20
0.077775
30
0.0
11
-0.004377
21
0.077907
31
0.0
0
LINE
8
0
6
CONTINUOUS
10
-0.001679
20
0.076044
30
0.0
11
0.010338
21
0.075530
31
0.0
0
LINE
8
0
6
CONTINUOUS
10
-0.023657
20
0.079119
30
0.0
11
-0.025211
21
0.079496
31
0.0
0
LINE
8
0
6
CONTINUOUS
10
-0.025211
20
0.079496
30
0.0
11
-0.023834
21
0.078424
31
0.0
0
LINE
8
0
6
CONTINUOUS
10
0.071857
20
0.059841
30
0.0
11
0.071857
21
0.062660
31
0.0
0
LINE
8
0
6
CONTINUOUS
10
0.071857
20
0.047275
30
0.0
11
0.071857
21
0.059841
31
0.0
0
LINE
8
0
6
CONTINUOUS
10
0.036800
20
0.081001
30
0.0
11
0.047872
21
0.081001
31
0.0
0
LINE
8
0
6
CONTINUOUS
10
0.047872
20
0.081001
30
0.0
11
0.036800
21
0.081001
31
0.0
0
LINE
8
0
6
CONTINUOUS
10
0.052817
20
0.081001
30
0.0
11
0.047872
21
0.081001
31
0.0
0
LINE
8
0
6
CONTINUOUS
10
0.047872
20
0.081001
30
0.0
11
0.052817
21
0.081001
31
0.0
0
LINE
8
0
6
CONTINUOUS
10
0.052817
20
0.081001
30
0.0
11
0.047872
21
0.081001
31
0.0
0
LINE
8
0
6
CONTINUOUS
10
0.025728
20
0.081001
30
0.0
11
0.036800
21
0.081001
31
0.0
0
LINE
8
0
6
CONTINUOUS
10
0.036800
20
0.081001
30
0.0
11
0.025728
21
0.081001
31
0.0
0
LINE
8
0
6
CONTINUOUS
10
0.057745
20
0.081001
30
0.0
11
0.057987
21
0.081001
31
0.0
0
LINE
8
0
6
CONTINUOUS
10
0.062337
20
0.081001
30
0.0
11
0.057745
21
0.081001
31
0.0
0
LINE
8
0
6
CONTINUOUS
10
0.065713
20
0.081001
30
0.0
11
0.066280
21
0.081001
31
0.0
0
LINE
8
0
6
CONTINUOUS
10
0.066280
20
0.081001
30
0.0
11
0.062337
21
0.081001
31
0.0
0
LINE
8
0
6
CONTINUOUS
10
0.059549
20
0.081001
30
0.0
11
0.052817
21
0.081001
31
0.0
0
LINE
8
0
6
CONTINUOUS
10
0.061062
20
0.081001
30
0.0
11
0.059549
21
0.081001
31
0.0
0
LINE
8
0
6
CONTINUOUS
10
-0.048613
20
0.019854
30
0.0
11
-0.046773
21
0.023117
31
0.0
0
LINE
8
0
6
CONTINUOUS
10
-0.066150
20
0.034732
30
0.0
11
-0.068302
21
0.030917
31
0.0
0
LINE
8
0
6
CONTINUOUS
10
-0.068548
20
0.030481
30
0.0
11
-0.068066
21
0.030210
31
0.0
0
LINE
8
0
6
CONTINUOUS
10
-0.068302
20
0.030917
30
0.0
11
-0.068548
21
0.030481
31
0.0
0
LINE
8
0
6
CONTINUOUS
10
-0.066668
20
0.029425
30
0.0
11
-0.068066
21
0.030210
31
0.0
0
LINE
8
0
6
CONTINUOUS
10
-0.064490
20
0.028201
30
0.0
11
-0.066668
21
0.029425
31
0.0
0
LINE
8
0
6
CONTINUOUS
10
-0.061746
20
0.026659
30
0.0
11
-0.064490
21
0.028201
31
0.0
0
LINE
8
0
6
CONTINUOUS
10
-0.058704
20
0.024950
30
0.0
11
-0.061746
21
0.026659
31
0.0
0
LINE
8
0
6
CONTINUOUS
10
-0.058704
20
0.024950
30
0.0
11
-0.055661
21
0.023241
31
0.0
0
LINE
8
0
6
CONTINUOUS
10
-0.055661
20
0.023241
30
0.0
11
-0.052917
21
0.021699
31
0.0
0
LINE
8
0
6
CONTINUOUS
10
-0.050739
20
0.020475
30
0.0
11
-0.052917
21
0.021699
31
0.0
0
LINE
8
0
6
CONTINUOUS
10
-0.050739
20
0.020475
30
0.0
11
-0.049341
21
0.019689
31
0.0
0
LINE
8
0
6
CONTINUOUS
10
-0.048859
20
0.019419
30
0.0
11
-0.048613
21
0.019854
31
0.0
0
LINE
8
0
6
CONTINUOUS
10
-0.049341
20
0.019689
30
0.0
11
-0.048859
21
0.019419
31
0.0
0
LINE
8
0
6
CONTINUOUS
10
0.035289
20
0.046801
30
0.0
11
0.035289
21
0.045004
31
0.0
0
LINE
8
0
6
CONTINUOUS
10
0.070393
20
0.045001
30
0.0
11
0.070393
21
0.046801
31
0.0
0
LINE
8
0
6
CONTINUOUS
10
0.046188
20
-0.081001
30
0.0
11
0.052143
21
-0.081001
31
0.0
0
LINE
8
0
6
CONTINUOUS
10
0.058010
20
-0.081001
30
0.0
11
0.063565
21
-0.081001
31
0.0
0
LINE
8
0
6
CONTINUOUS
10
0.068334
20
-0.081001
30
0.0
11
0.063565
21
-0.081001
31
0.0
0
LINE
8
0
6
CONTINUOUS
10
0.068334
20
-0.081001
30
0.0
11
0.071992
21
-0.081001
31
0.0
0
LINE
8
0
6
CONTINUOUS
10
0.052143
20
-0.081001
30
0.0
11
0.058010
21
-0.081001
31
0.0
0
LINE
8
0
6
CONTINUOUS
10
0.075133
20
-0.081001
30
0.0
11
0.075120
21
-0.080001
31
0.0
0
LINE
8
0
6
CONTINUOUS
10
0.074291
20
-0.081001
30
0.0
11
0.075133
21
-0.081001
31
0.0
0
LINE
8
0
6
CONTINUOUS
10
0.071992
20
-0.081001
30
0.0
11
0.074291
21
-0.081001
31
0.0
0
LINE
8
0
6
CONTINUOUS
10
0.040639
20
-0.081001
30
0.0
11
0.046188
21
-0.081001
31
0.0
0
LINE
8
0
6
CONTINUOUS
10
0.029917
20
-0.081001
30
0.0
11
0.032216
21
-0.081001
31
0.0
0
LINE
8
0
6
CONTINUOUS
10
0.029133
20
-0.081001
30
0.0
11
0.029917
21
-0.081001
31
0.0
0
LINE
8
0
6
CONTINUOUS
10
0.029143
20
-0.080001
30
0.0
11
0.029133
21
-0.081001
31
0.0
0
LINE
8
0
6
CONTINUOUS
10
0.035873
20
-0.081001
30
0.0
11
0.040639
21
-0.081001
31
0.0
0
LINE
8
0
6
CONTINUOUS
10
0.032216
20
-0.081001
30
0.0
11
0.035873
21
-0.081001
31
0.0
0
LINE
8
0
6
CONTINUOUS
10
0.031025
20
0.002323
30
0.0
11
0.031168
21
-0.003882
31
0.0
0
LINE
8
0
6
CONTINUOUS
10
-0.039821
20
0.021443
30
0.0
11
0.016661
21
0.018617
31
0.0
0
LINE
8
0
6
CONTINUOUS
10
-0.069955
20
0.045004
30
0.0
11
-0.072137
21
0.045004
31
0.0
0
LINE
8
0
6
CONTINUOUS
10
0.032363
20
0.045004
30
0.0
11
-0.069955
21
0.045004
31
0.0
0
LINE
8
0
6
CONTINUOUS
10
-0.072137
20
0.045004
30
0.0
11
-0.074515
21
0.045004
31
0.0
0
LINE
8
0
6
CONTINUOUS
10
-0.074515
20
0.045004
30
0.0
11
-0.075133
21
0.045004
31
0.0
0
LINE
8
0
6
CONTINUOUS
10
-0.073870
20
0.044017
30
0.0
11
-0.074515
21
0.045004
31
0.0
0
LINE
8
0
6
CONTINUOUS
10
-0.075133
20
0.045004
30
0.0
11
-0.074493
21
0.044012
31
0.0
0
LINE
8
0
6
CONTINUOUS
10
0.071803
20
0.045004
30
0.0
11
0.071212
21
0.045004
31
0.0
0
LINE
8
0
6
CONTINUOUS
10
0.071836
20
0.044353
30
0.0
11
0.071803
21
0.045004
31
0.0
0
LINE
8
0
6
CONTINUOUS
10
0.057767
20
0.045004
30
0.0
11
0.052923
21
0.045004
31
0.0
0
LINE
8
0
6
CONTINUOUS
10
0.069314
20
0.045004
30
0.0
11
0.066292
21
0.045004
31
0.0
0
LINE
8
0
6
CONTINUOUS
10
0.066292
20
0.045004
30
0.0
11
0.062354
21
0.045004
31
0.0
0
LINE
8
0
6
CONTINUOUS
10
0.062354
20
0.045004
30
0.0
11
0.057767
21
0.045004
31
0.0
0
LINE
8
0
6
CONTINUOUS
10
0.071212
20
0.045004
30
0.0
11
0.069314
21
0.045004
31
0.0
0
LINE
8
0
6
CONTINUOUS
10
0.052923
20
0.045004
30
0.0
11
0.032363
21
0.045004
31
0.0
0
LINE
8
0
6
CONTINUOUS
10
-0.074493
20
0.044012
30
0.0
11
-0.071870
21
0.039943
31
0.0
0
LINE
8
0
6
CONTINUOUS
10
-0.044962
20
0.022093
30
0.0
11
-0.041998
21
0.021595
31
0.0
0
LINE
8
0
6
CONTINUOUS
10
-0.046773
20
0.023117
30
0.0
11
-0.044962
21
0.022093
31
0.0
0
LINE
8
0
6
CONTINUOUS
10
-0.071870
20
0.039943
30
0.0
11
-0.067902
21
0.036061
31
0.0
0
LINE
8
0
6
CONTINUOUS
10
-0.066940
20
0.035770
30
0.0
11
-0.071097
21
0.039768
31
0.0
0
LINE
8
0
6
CONTINUOUS
10
-0.063220
20
0.032509
30
0.0
11
-0.058390
21
0.029522
31
0.0
0
LINE
8
0
6
CONTINUOUS
10
-0.055760
20
0.028415
30
0.0
11
-0.061673
21
0.031891
31
0.0
0
LINE
8
0
6
CONTINUOUS
10
-0.050599
20
0.025658
30
0.0
11
-0.055760
21
0.028415
31
0.0
0
LINE
8
0
6
CONTINUOUS
10
-0.046493
20
0.023215
30
0.0
11
-0.050599
21
0.025658
31
0.0
0
LINE
8
0
6
CONTINUOUS
10
-0.067902
20
0.036061
30
0.0
11
-0.063220
21
0.032509
31
0.0
0
LINE
8
0
6
CONTINUOUS
10
-0.061673
20
0.031891
30
0.0
11
-0.066940
21
0.035770
31
0.0
0
LINE
8
0
6
CONTINUOUS
10
-0.073870
20
0.044017
30
0.0
11
-0.071097
21
0.039768
31
0.0
0
LINE
8
0
6
CONTINUOUS
10
0.072243
20
0.028893
30
0.0
11
0.071996
21
0.038296
31
0.0
0
LINE
8
0
6
CONTINUOUS
10
0.071996
20
0.038296
30
0.0
11
0.071836
21
0.044353
31
0.0
0
LINE
8
0
6
CONTINUOUS
10
0.075120
20
-0.080001
30
0.0
11
0.073074
21
-0.002660
31
0.0
0
LINE
8
0
6
CONTINUOUS
10
0.072739
20
0.010088
30
0.0
11
0.072491
21
0.019491
31
0.0
0
LINE
8
0
6
CONTINUOUS
10
0.073074
20
-0.002660
30
0.0
11
0.072739
21
0.010088
31
0.0
0
LINE
8
0
6
CONTINUOUS
10
0.072491
20
0.019491
30
0.0
11
0.072243
21
0.028893
31
0.0
0
LINE
8
0
6
CONTINUOUS
10
0.031168
20
-0.003882
30
0.0
11
0.029143
21
-0.080001
31
0.0
0
LINE
8
0
6
CONTINUOUS
10
0.027418
20
0.013687
30
0.0
11
0.030136
21
0.008445
31
0.0
0
LINE
8
0
6
CONTINUOUS
10
0.028929
20
0.014196
30
0.0
11
0.030748
21
0.015642
31
0.0
0
LINE
8
0
6
CONTINUOUS
10
0.022182
20
0.017057
30
0.0
11
0.027418
21
0.013687
31
0.0
0
LINE
8
0
6
CONTINUOUS
10
0.027418
20
0.013687
30
0.0
11
0.028929
21
0.014196
31
0.0
0
LINE
8
0
6
CONTINUOUS
10
0.016661
20
0.018617
30
0.0
11
0.022182
21
0.017057
31
0.0
0
LINE
8
0
6
CONTINUOUS
10
0.030136
20
0.008445
30
0.0
11
0.031025
21
0.002323
31
0.0
0
LINE
8
0
6
CONTINUOUS
10
-0.041998
20
0.021595
30
0.0
11
-0.039821
21
0.021443
31
0.0
0
LINE
8
0
6
CONTINUOUS
10
-0.047178
20
0.023524
30
0.0
11
-0.047567
21
0.023751
31
0.0
0
LINE
8
0
6
CONTINUOUS
10
-0.057516
20
0.029154
30
0.0
11
-0.056579
21
0.028716
31
0.0
0
LINE
8
0
6
CONTINUOUS
10
-0.058721
20
0.029761
30
0.0
11
-0.057516
21
0.029154
31
0.0
0
LINE
8
0
6
CONTINUOUS
10
-0.056579
20
0.028716
30
0.0
11
-0.055244
21
0.028054
31
0.0
0
LINE
8
0
6
CONTINUOUS
10
-0.047130
20
0.023487
30
0.0
11
-0.047178
21
0.023524
31
0.0
0
LINE
8
0
6
CONTINUOUS
10
-0.046773
20
0.023117
30
0.0
11
-0.047130
21
0.023487
31
0.0
0
ENDSEC
0
EOF
