999
Erzeugt mit innoplus bad 
0
SECTION
2
HEADER
9
$ACADVER
1
AC1009
9
$DWGCODEPAGE
3
ISO8859-1
0
ENDSEC
0
SECTION
2
TABLES
0
TABLE
2
LAYER
70
1
0
LAYER
2
0
70
0
62
7
6
CONTINUOUS
0
ENDTAB
0
ENDSEC
0
SECTION
2
ENTITIES
0
LINE
8
0
6
CONTINUOUS
10
0.017119
20
0.016516
30
0.0
11
0.017888
21
0.027599
31
0.0
0
LINE
8
0
6
CONTINUOUS
10
0.017888
20
0.027599
30
0.0
11
0.018657
21
0.038683
31
0.0
0
LINE
8
0
6
CONTINUOUS
10
0.015598
20
-0.005413
30
0.0
11
0.016105
21
0.001897
31
0.0
0
LINE
8
0
6
CONTINUOUS
10
0.016105
20
0.001897
30
0.0
11
0.016612
21
0.009206
31
0.0
0
LINE
8
0
6
CONTINUOUS
10
0.014077
20
-0.027341
30
0.0
11
0.014838
21
-0.016377
31
0.0
0
LINE
8
0
6
CONTINUOUS
10
0.012856
20
-0.030913
30
0.0
11
0.014077
21
-0.027341
31
0.0
0
LINE
8
0
6
CONTINUOUS
10
0.016612
20
0.009206
30
0.0
11
0.017119
21
0.016516
31
0.0
0
LINE
8
0
6
CONTINUOUS
10
-0.000000
20
-0.034400
30
0.0
11
0.003216
21
-0.034400
31
0.0
0
LINE
8
0
6
CONTINUOUS
10
0.014838
20
-0.016377
30
0.0
11
0.015598
21
-0.005413
31
0.0
0
LINE
8
0
6
CONTINUOUS
10
0.003216
20
-0.034400
30
0.0
11
0.006432
21
-0.034400
31
0.0
0
LINE
8
0
6
CONTINUOUS
10
0.010085
20
-0.033472
30
0.0
11
0.012856
21
-0.030913
31
0.0
0
LINE
8
0
6
CONTINUOUS
10
0.006432
20
-0.034400
30
0.0
11
0.010085
21
-0.033472
31
0.0
0
LINE
8
0
6
CONTINUOUS
10
0.018353
20
0.048556
30
0.0
11
0.019000
21
0.043628
31
0.0
0
LINE
8
0
6
CONTINUOUS
10
0.018353
20
0.048556
30
0.0
11
0.016454
21
0.053148
31
0.0
0
LINE
8
0
6
CONTINUOUS
10
0.016454
20
0.053148
30
0.0
11
0.013435
21
0.057092
31
0.0
0
LINE
8
0
6
CONTINUOUS
10
0.009500
20
0.060118
30
0.0
11
0.013435
21
0.057092
31
0.0
0
LINE
8
0
6
CONTINUOUS
10
0.004918
20
0.062020
30
0.0
11
0.009500
21
0.060118
31
0.0
0
LINE
8
0
6
CONTINUOUS
10
0.000000
20
0.062669
30
0.0
11
0.004918
21
0.062020
31
0.0
0
LINE
8
0
6
CONTINUOUS
10
0.018657
20
0.038683
30
0.0
11
0.019000
21
0.043628
31
0.0
0
LINE
8
0
6
CONTINUOUS
10
-0.017888
20
0.027599
30
0.0
11
-0.017119
21
0.016516
31
0.0
0
LINE
8
0
6
CONTINUOUS
10
-0.018657
20
0.038683
30
0.0
11
-0.017888
21
0.027599
31
0.0
0
LINE
8
0
6
CONTINUOUS
10
-0.016105
20
0.001897
30
0.0
11
-0.015598
21
-0.005413
31
0.0
0
LINE
8
0
6
CONTINUOUS
10
-0.016612
20
0.009206
30
0.0
11
-0.016105
21
0.001897
31
0.0
0
LINE
8
0
6
CONTINUOUS
10
-0.014838
20
-0.016377
30
0.0
11
-0.014077
21
-0.027341
31
0.0
0
LINE
8
0
6
CONTINUOUS
10
-0.014077
20
-0.027341
30
0.0
11
-0.012856
21
-0.030913
31
0.0
0
LINE
8
0
6
CONTINUOUS
10
-0.017119
20
0.016516
30
0.0
11
-0.016612
21
0.009206
31
0.0
0
LINE
8
0
6
CONTINUOUS
10
-0.003216
20
-0.034400
30
0.0
11
-0.000000
21
-0.034400
31
0.0
0
LINE
8
0
6
CONTINUOUS
10
-0.015598
20
-0.005413
30
0.0
11
-0.014838
21
-0.016377
31
0.0
0
LINE
8
0
6
CONTINUOUS
10
-0.006432
20
-0.034400
30
0.0
11
-0.003216
21
-0.034400
31
0.0
0
LINE
8
0
6
CONTINUOUS
10
-0.012856
20
-0.030913
30
0.0
11
-0.010085
21
-0.033472
31
0.0
0
LINE
8
0
6
CONTINUOUS
10
-0.010085
20
-0.033472
30
0.0
11
-0.006432
21
-0.034400
31
0.0
0
LINE
8
0
6
CONTINUOUS
10
-0.019000
20
0.043628
30
0.0
11
-0.018353
21
0.048556
31
0.0
0
LINE
8
0
6
CONTINUOUS
10
-0.016455
20
0.053148
30
0.0
11
-0.018353
21
0.048556
31
0.0
0
LINE
8
0
6
CONTINUOUS
10
-0.013435
20
0.057092
30
0.0
11
-0.016455
21
0.053148
31
0.0
0
LINE
8
0
6
CONTINUOUS
10
-0.013435
20
0.057092
30
0.0
11
-0.009500
21
0.060118
31
0.0
0
LINE
8
0
6
CONTINUOUS
10
-0.009500
20
0.060118
30
0.0
11
-0.004918
21
0.062020
31
0.0
0
LINE
8
0
6
CONTINUOUS
10
-0.004918
20
0.062020
30
0.0
11
0.000000
21
0.062669
31
0.0
0
LINE
8
0
6
CONTINUOUS
10
-0.019000
20
0.043628
30
0.0
11
-0.018657
21
0.038683
31
0.0
0
LINE
8
0
6
CONTINUOUS
10
0.002270
20
0.076512
30
0.0
11
0.002843
21
0.081171
31
0.0
0
LINE
8
0
6
CONTINUOUS
10
0.001963
20
0.072514
30
0.0
11
0.001985
21
0.073419
31
0.0
0
LINE
8
0
6
CONTINUOUS
10
0.001985
20
0.071605
30
0.0
11
0.001963
21
0.072514
31
0.0
0
LINE
8
0
6
CONTINUOUS
10
0.001959
20
0.071069
30
0.0
11
0.001985
21
0.071605
31
0.0
0
LINE
8
0
6
CONTINUOUS
10
0.001917
20
0.070217
30
0.0
11
0.001959
21
0.071069
31
0.0
0
LINE
8
0
6
CONTINUOUS
10
0.001935
20
0.069594
30
0.0
11
0.001917
21
0.070217
31
0.0
0
LINE
8
0
6
CONTINUOUS
10
0.001958
20
0.073355
30
0.0
11
0.002270
21
0.076512
31
0.0
0
LINE
8
0
6
CONTINUOUS
10
0.002769
20
0.081172
30
0.0
11
0.002070
21
0.076513
31
0.0
0
LINE
8
0
6
CONTINUOUS
10
0.002238
20
0.076508
30
0.0
11
0.002769
21
0.081172
31
0.0
0
LINE
8
0
6
CONTINUOUS
10
0.001811
20
0.072097
30
0.0
11
0.001868
21
0.073438
31
0.0
0
LINE
8
0
6
CONTINUOUS
10
0.001515
20
0.073518
30
0.0
11
0.001397
21
0.071959
31
0.0
0
LINE
8
0
6
CONTINUOUS
10
0.001778
20
0.070841
30
0.0
11
0.001811
21
0.072097
31
0.0
0
LINE
8
0
6
CONTINUOUS
10
0.001397
20
0.071959
30
0.0
11
0.001416
21
0.070607
31
0.0
0
LINE
8
0
6
CONTINUOUS
10
0.001747
20
0.069890
30
0.0
11
0.001778
21
0.070841
31
0.0
0
LINE
8
0
6
CONTINUOUS
10
0.001416
20
0.070607
30
0.0
11
0.001475
21
0.069608
31
0.0
0
LINE
8
0
6
CONTINUOUS
10
0.001475
20
0.069608
30
0.0
11
0.001413
21
0.068750
31
0.0
0
LINE
8
0
6
CONTINUOUS
10
0.001868
20
0.073438
30
0.0
11
0.002238
21
0.076508
31
0.0
0
LINE
8
0
6
CONTINUOUS
10
0.002606
20
0.083227
30
0.0
11
0.002084
21
0.083894
31
0.0
0
LINE
8
0
6
CONTINUOUS
10
0.002533
20
0.083228
30
0.0
11
0.002010
21
0.083896
31
0.0
0
LINE
8
0
6
CONTINUOUS
10
0.002267
20
0.083227
30
0.0
11
0.001745
21
0.083995
31
0.0
0
LINE
8
0
6
CONTINUOUS
10
0.001456
20
0.084141
30
0.0
11
0.000000
21
0.084322
31
0.0
0
LINE
8
0
6
CONTINUOUS
10
0.000000
20
0.084322
30
0.0
11
0.001745
21
0.083995
31
0.0
0
LINE
8
0
6
CONTINUOUS
10
0.002606
20
0.083227
30
0.0
11
0.002533
21
0.083228
31
0.0
0
LINE
8
0
6
CONTINUOUS
10
0.002843
20
0.081171
30
0.0
11
0.002606
21
0.083227
31
0.0
0
LINE
8
0
6
CONTINUOUS
10
0.002769
20
0.081172
30
0.0
11
0.002533
21
0.083228
31
0.0
0
LINE
8
0
6
CONTINUOUS
10
0.001745
20
0.083995
30
0.0
11
0.002010
21
0.083896
31
0.0
0
LINE
8
0
6
CONTINUOUS
10
0.002084
20
0.083894
30
0.0
11
0.001456
21
0.084141
31
0.0
0
LINE
8
0
6
CONTINUOUS
10
0.002010
20
0.083896
30
0.0
11
0.002084
21
0.083894
31
0.0
0
LINE
8
0
6
CONTINUOUS
10
-0.001935
20
0.069594
30
0.0
11
-0.002146
21
0.064228
31
0.0
0
LINE
8
0
6
CONTINUOUS
10
0.001515
20
0.073518
30
0.0
11
0.002070
21
0.076513
31
0.0
0
LINE
8
0
6
CONTINUOUS
10
0.001413
20
0.068750
30
0.0
11
0.000000
21
0.068623
31
0.0
0
LINE
8
0
6
CONTINUOUS
10
0.001060
20
0.064258
30
0.0
11
0.001413
21
0.068750
31
0.0
0
LINE
8
0
6
CONTINUOUS
10
-0.002843
20
0.081171
30
0.0
11
-0.002270
21
0.076512
31
0.0
0
LINE
8
0
6
CONTINUOUS
10
-0.001985
20
0.073419
30
0.0
11
-0.001963
21
0.072514
31
0.0
0
LINE
8
0
6
CONTINUOUS
10
-0.001963
20
0.072514
30
0.0
11
-0.001985
21
0.071605
31
0.0
0
LINE
8
0
6
CONTINUOUS
10
-0.001959
20
0.071069
30
0.0
11
-0.001917
21
0.070217
31
0.0
0
LINE
8
0
6
CONTINUOUS
10
-0.001985
20
0.071605
30
0.0
11
-0.001959
21
0.071069
31
0.0
0
LINE
8
0
6
CONTINUOUS
10
-0.001917
20
0.070217
30
0.0
11
-0.001935
21
0.069594
31
0.0
0
LINE
8
0
6
CONTINUOUS
10
-0.002270
20
0.076512
30
0.0
11
-0.001958
21
0.073355
31
0.0
0
LINE
8
0
6
CONTINUOUS
10
-0.002769
20
0.081172
30
0.0
11
-0.002238
21
0.076508
31
0.0
0
LINE
8
0
6
CONTINUOUS
10
-0.002769
20
0.081172
30
0.0
11
-0.002070
21
0.076513
31
0.0
0
LINE
8
0
6
CONTINUOUS
10
-0.001397
20
0.071959
30
0.0
11
-0.001515
21
0.073518
31
0.0
0
LINE
8
0
6
CONTINUOUS
10
-0.001868
20
0.073438
30
0.0
11
-0.001811
21
0.072097
31
0.0
0
LINE
8
0
6
CONTINUOUS
10
-0.001416
20
0.070607
30
0.0
11
-0.001397
21
0.071959
31
0.0
0
LINE
8
0
6
CONTINUOUS
10
-0.001811
20
0.072097
30
0.0
11
-0.001778
21
0.070841
31
0.0
0
LINE
8
0
6
CONTINUOUS
10
-0.001475
20
0.069608
30
0.0
11
-0.001416
21
0.070607
31
0.0
0
LINE
8
0
6
CONTINUOUS
10
-0.001778
20
0.070841
30
0.0
11
-0.001747
21
0.069890
31
0.0
0
LINE
8
0
6
CONTINUOUS
10
-0.001413
20
0.068750
30
0.0
11
-0.001475
21
0.069608
31
0.0
0
LINE
8
0
6
CONTINUOUS
10
-0.002238
20
0.076508
30
0.0
11
-0.001868
21
0.073438
31
0.0
0
LINE
8
0
6
CONTINUOUS
10
-0.002084
20
0.083894
30
0.0
11
-0.002606
21
0.083227
31
0.0
0
LINE
8
0
6
CONTINUOUS
10
-0.002010
20
0.083896
30
0.0
11
-0.002533
21
0.083228
31
0.0
0
LINE
8
0
6
CONTINUOUS
10
-0.001745
20
0.083995
30
0.0
11
-0.002267
21
0.083227
31
0.0
0
LINE
8
0
6
CONTINUOUS
10
0.000000
20
0.083215
30
0.0
11
0.000000
21
0.084322
31
0.0
0
LINE
8
0
6
CONTINUOUS
10
0.000000
20
0.084322
30
0.0
11
-0.001456
21
0.084141
31
0.0
0
LINE
8
0
6
CONTINUOUS
10
-0.001745
20
0.083995
30
0.0
11
0.000000
21
0.084322
31
0.0
0
LINE
8
0
6
CONTINUOUS
10
-0.002606
20
0.083227
30
0.0
11
-0.002843
21
0.081171
31
0.0
0
LINE
8
0
6
CONTINUOUS
10
-0.002533
20
0.083228
30
0.0
11
-0.002606
21
0.083227
31
0.0
0
LINE
8
0
6
CONTINUOUS
10
-0.002533
20
0.083228
30
0.0
11
-0.002769
21
0.081172
31
0.0
0
LINE
8
0
6
CONTINUOUS
10
-0.002084
20
0.083894
30
0.0
11
-0.002010
21
0.083896
31
0.0
0
LINE
8
0
6
CONTINUOUS
10
-0.001456
20
0.084141
30
0.0
11
-0.002084
21
0.083894
31
0.0
0
LINE
8
0
6
CONTINUOUS
10
-0.002010
20
0.083896
30
0.0
11
-0.001745
21
0.083995
31
0.0
0
LINE
8
0
6
CONTINUOUS
10
-0.002070
20
0.076513
30
0.0
11
-0.001515
21
0.073518
31
0.0
0
LINE
8
0
6
CONTINUOUS
10
-0.001770
20
0.069204
30
0.0
11
-0.001909
21
0.064192
31
0.0
0
LINE
8
0
6
CONTINUOUS
10
0.000000
20
0.068623
30
0.0
11
-0.001413
21
0.068750
31
0.0
0
LINE
8
0
6
CONTINUOUS
10
-0.001413
20
0.068750
30
0.0
11
-0.001377
21
0.064205
31
0.0
0
LINE
8
0
6
CONTINUOUS
10
0.001740
20
0.064297
30
0.0
11
0.001935
21
0.069594
31
0.0
0
LINE
8
0
6
CONTINUOUS
10
0.022218
20
0.036999
30
0.0
11
0.023000
21
0.042954
31
0.0
0
LINE
8
0
6
CONTINUOUS
10
0.022225
20
0.048821
30
0.0
11
0.019927
21
0.054376
31
0.0
0
LINE
8
0
6
CONTINUOUS
10
0.019927
20
0.054376
30
0.0
11
0.016270
21
0.059145
31
0.0
0
LINE
8
0
6
CONTINUOUS
10
0.016270
20
0.059145
30
0.0
11
0.011505
21
0.062804
31
0.0
0
LINE
8
0
6
CONTINUOUS
10
0.023000
20
0.042954
30
0.0
11
0.022225
21
0.048821
31
0.0
0
LINE
8
0
6
CONTINUOUS
10
0.005955
20
0.065102
30
0.0
11
0.001792
21
0.065691
31
0.0
0
LINE
8
0
6
CONTINUOUS
10
0.011505
20
0.062804
30
0.0
11
0.005955
21
0.065102
31
0.0
0
LINE
8
0
6
CONTINUOUS
10
0.019922
20
0.031450
30
0.0
11
0.022218
21
0.036999
31
0.0
0
LINE
8
0
6
CONTINUOUS
10
0.019048
20
0.030310
30
0.0
11
0.019922
21
0.031450
31
0.0
0
LINE
8
0
6
CONTINUOUS
10
-0.023000
20
0.042954
30
0.0
11
-0.022218
21
0.036999
31
0.0
0
LINE
8
0
6
CONTINUOUS
10
-0.019927
20
0.054376
30
0.0
11
-0.022225
21
0.048821
31
0.0
0
LINE
8
0
6
CONTINUOUS
10
-0.016270
20
0.059145
30
0.0
11
-0.019927
21
0.054376
31
0.0
0
LINE
8
0
6
CONTINUOUS
10
-0.011505
20
0.062804
30
0.0
11
-0.016270
21
0.059145
31
0.0
0
LINE
8
0
6
CONTINUOUS
10
-0.022225
20
0.048821
30
0.0
11
-0.023000
21
0.042954
31
0.0
0
LINE
8
0
6
CONTINUOUS
10
-0.002091
20
0.065649
30
0.0
11
-0.005955
21
0.065102
31
0.0
0
LINE
8
0
6
CONTINUOUS
10
-0.005955
20
0.065102
30
0.0
11
-0.011505
21
0.062804
31
0.0
0
LINE
8
0
6
CONTINUOUS
10
-0.022218
20
0.036999
30
0.0
11
-0.019922
21
0.031450
31
0.0
0
LINE
8
0
6
CONTINUOUS
10
-0.019922
20
0.031450
30
0.0
11
-0.019047
21
0.030310
31
0.0
0
LINE
8
0
6
CONTINUOUS
10
0.019166
20
0.039386
30
0.0
11
0.019869
21
0.043568
31
0.0
0
LINE
8
0
6
CONTINUOUS
10
0.012511
20
-0.084322
30
0.0
11
0.014454
21
-0.084322
31
0.0
0
LINE
8
0
6
CONTINUOUS
10
0.017514
20
-0.081326
30
0.0
11
0.017550
21
-0.079143
31
0.0
0
LINE
8
0
6
CONTINUOUS
10
0.019048
20
0.030310
30
0.0
11
0.019223
21
0.043695
31
0.0
0
LINE
8
0
6
CONTINUOUS
10
0.017550
20
-0.079143
30
0.0
11
0.019000
21
0.023174
31
0.0
0
LINE
8
0
6
CONTINUOUS
10
0.000000
20
-0.084322
30
0.0
11
0.012511
21
-0.084322
31
0.0
0
LINE
8
0
6
CONTINUOUS
10
0.016852
20
-0.083704
30
0.0
11
0.017514
21
-0.081326
31
0.0
0
LINE
8
0
6
CONTINUOUS
10
0.014454
20
-0.084322
30
0.0
11
0.016852
21
-0.083704
31
0.0
0
LINE
8
0
6
CONTINUOUS
10
0.009500
20
0.060125
30
0.0
11
0.013435
21
0.057104
31
0.0
0
LINE
8
0
6
CONTINUOUS
10
0.013435
20
0.057104
30
0.0
11
0.016455
21
0.053166
31
0.0
0
LINE
8
0
6
CONTINUOUS
10
0.004918
20
0.062023
30
0.0
11
0.009500
21
0.060125
31
0.0
0
LINE
8
0
6
CONTINUOUS
10
0.019012
20
0.030263
30
0.0
11
0.019034
21
0.043732
31
0.0
0
LINE
8
0
6
CONTINUOUS
10
0.018992
20
0.043694
30
0.0
11
0.019000
21
0.023174
31
0.0
0
LINE
8
0
6
CONTINUOUS
10
0.019176
20
0.040155
30
0.0
11
0.019546
21
0.043632
31
0.0
0
LINE
8
0
6
CONTINUOUS
10
-0.019866
20
0.043569
30
0.0
11
-0.019166
21
0.039393
31
0.0
0
LINE
8
0
6
CONTINUOUS
10
-0.014454
20
-0.084322
30
0.0
11
-0.012511
21
-0.084322
31
0.0
0
LINE
8
0
6
CONTINUOUS
10
-0.017550
20
-0.079143
30
0.0
11
-0.017514
21
-0.081326
31
0.0
0
LINE
8
0
6
CONTINUOUS
10
-0.019222
20
0.043696
30
0.0
11
-0.019047
21
0.030310
31
0.0
0
LINE
8
0
6
CONTINUOUS
10
-0.019000
20
0.023174
30
0.0
11
-0.017550
21
-0.079143
31
0.0
0
LINE
8
0
6
CONTINUOUS
10
-0.012511
20
-0.084322
30
0.0
11
0.000000
21
-0.084322
31
0.0
0
LINE
8
0
6
CONTINUOUS
10
-0.017514
20
-0.081326
30
0.0
11
-0.016852
21
-0.083704
31
0.0
0
LINE
8
0
6
CONTINUOUS
10
-0.016852
20
-0.083704
30
0.0
11
-0.014454
21
-0.084322
31
0.0
0
LINE
8
0
6
CONTINUOUS
10
-0.013435
20
0.057104
30
0.0
11
-0.009500
21
0.060125
31
0.0
0
LINE
8
0
6
CONTINUOUS
10
-0.016455
20
0.053166
30
0.0
11
-0.013435
21
0.057104
31
0.0
0
LINE
8
0
6
CONTINUOUS
10
-0.009500
20
0.060125
30
0.0
11
-0.004918
21
0.062023
31
0.0
0
LINE
8
0
6
CONTINUOUS
10
-0.019034
20
0.043732
30
0.0
11
-0.019012
21
0.030263
31
0.0
0
LINE
8
0
6
CONTINUOUS
10
-0.019000
20
0.023174
30
0.0
11
-0.018992
21
0.043687
31
0.0
0
LINE
8
0
6
CONTINUOUS
10
-0.019544
20
0.043632
30
0.0
11
-0.019176
21
0.040164
31
0.0
0
LINE
8
0
6
CONTINUOUS
10
-0.001993
20
0.064199
30
0.0
11
-0.001909
21
0.064192
31
0.0
0
LINE
8
0
6
CONTINUOUS
10
0.000262
20
0.064345
30
0.0
11
0.001060
21
0.064258
31
0.0
0
LINE
8
0
6
CONTINUOUS
10
0.001372
20
0.064251
30
0.0
11
0.001060
21
0.064258
31
0.0
0
LINE
8
0
6
CONTINUOUS
10
0.001550
20
0.064253
30
0.0
11
0.001372
21
0.064251
31
0.0
0
LINE
8
0
6
CONTINUOUS
10
0.000262
20
0.064345
30
0.0
11
0.000000
21
0.064370
31
0.0
0
LINE
8
0
6
CONTINUOUS
10
-0.000149
20
0.064347
30
0.0
11
0.000000
21
0.064370
31
0.0
0
LINE
8
0
6
CONTINUOUS
10
-0.001564
20
0.064203
30
0.0
11
-0.001377
21
0.064205
31
0.0
0
LINE
8
0
6
CONTINUOUS
10
-0.001909
20
0.064192
30
0.0
11
-0.001567
21
0.064203
31
0.0
0
LINE
8
0
6
CONTINUOUS
10
-0.000957
20
0.064249
30
0.0
11
-0.000149
21
0.064347
31
0.0
0
LINE
8
0
6
CONTINUOUS
10
-0.001377
20
0.064205
30
0.0
11
-0.000957
21
0.064249
31
0.0
0
LINE
8
0
6
CONTINUOUS
10
0.001740
20
0.064297
30
0.0
11
0.001671
21
0.064287
31
0.0
0
ENDSEC
0
EOF
