999
Erzeugt mit innoplus bad 
0
SECTION
2
HEADER
9
$ACADVER
1
AC1009
9
$DWGCODEPAGE
3
ISO8859-1
0
ENDSEC
0
SECTION
2
TABLES
0
TABLE
2
LAYER
70
1
0
LAYER
2
0
70
0
62
7
6
CONTINUOUS
0
ENDTAB
0
ENDSEC
0
SECTION
2
ENTITIES
0
LINE
8
0
6
CONTINUOUS
10
0.010870
20
0.072036
30
0.0
11
0.015938
21
0.071126
31
0.0
0
LINE
8
0
6
CONTINUOUS
10
0.024337
20
0.061250
30
0.0
11
0.024588
21
0.059841
31
0.0
0
LINE
8
0
6
CONTINUOUS
10
0.027611
20
0.081001
30
0.0
11
0.038683
21
0.081001
31
0.0
0
LINE
8
0
6
CONTINUOUS
10
0.038683
20
0.081001
30
0.0
11
0.027611
21
0.081001
31
0.0
0
LINE
8
0
6
CONTINUOUS
10
0.027599
20
0.081001
30
0.0
11
0.016516
21
0.081001
31
0.0
0
LINE
8
0
6
CONTINUOUS
10
0.034108
20
0.046801
30
0.0
11
0.038683
21
0.046801
31
0.0
0
LINE
8
0
6
CONTINUOUS
10
0.043628
20
0.081001
30
0.0
11
0.038683
21
0.081001
31
0.0
0
LINE
8
0
6
CONTINUOUS
10
0.038683
20
0.081001
30
0.0
11
0.027599
21
0.081001
31
0.0
0
LINE
8
0
6
CONTINUOUS
10
0.062669
20
0.073936
30
0.0
11
0.062669
21
0.077193
31
0.0
0
LINE
8
0
6
CONTINUOUS
10
0.003307
20
0.073093
30
0.0
11
0.010870
21
0.072036
31
0.0
0
LINE
8
0
6
CONTINUOUS
10
0.001913
20
0.081001
30
0.0
11
0.009226
21
0.081001
31
0.0
0
LINE
8
0
6
CONTINUOUS
10
0.009226
20
0.081001
30
0.0
11
0.001912
21
0.081001
31
0.0
0
LINE
8
0
6
CONTINUOUS
10
0.001897
20
0.081001
30
0.0
11
-0.005413
21
0.081001
31
0.0
0
LINE
8
0
6
CONTINUOUS
10
0.009206
20
0.081001
30
0.0
11
0.001897
21
0.081001
31
0.0
0
LINE
8
0
6
CONTINUOUS
10
-0.016377
20
0.081001
30
0.0
11
-0.027341
21
0.081001
31
0.0
0
LINE
8
0
6
CONTINUOUS
10
-0.027341
20
0.081001
30
0.0
11
-0.030913
21
0.081001
31
0.0
0
LINE
8
0
6
CONTINUOUS
10
0.016516
20
0.081001
30
0.0
11
0.009206
21
0.081001
31
0.0
0
LINE
8
0
6
CONTINUOUS
10
-0.033619
20
0.081001
30
0.0
11
-0.034400
21
0.081001
31
0.0
0
LINE
8
0
6
CONTINUOUS
10
-0.034400
20
0.081001
30
0.0
11
-0.033619
21
0.081001
31
0.0
0
LINE
8
0
6
CONTINUOUS
10
-0.005413
20
0.081001
30
0.0
11
-0.016377
21
0.081001
31
0.0
0
LINE
8
0
6
CONTINUOUS
10
0.043628
20
0.081001
30
0.0
11
0.038683
21
0.081001
31
0.0
0
LINE
8
0
6
CONTINUOUS
10
-0.030913
20
0.081001
30
0.0
11
-0.033472
21
0.081001
31
0.0
0
LINE
8
0
6
CONTINUOUS
10
-0.030816
20
0.080433
30
0.0
11
-0.030913
21
0.081001
31
0.0
0
LINE
8
0
6
CONTINUOUS
10
-0.033472
20
0.081001
30
0.0
11
-0.034400
21
0.081001
31
0.0
0
LINE
8
0
6
CONTINUOUS
10
-0.033346
20
0.080429
30
0.0
11
-0.033472
21
0.081001
31
0.0
0
LINE
8
0
6
CONTINUOUS
10
0.048556
20
0.081001
30
0.0
11
0.043628
21
0.081001
31
0.0
0
LINE
8
0
6
CONTINUOUS
10
0.053148
20
0.081001
30
0.0
11
0.048556
21
0.081001
31
0.0
0
LINE
8
0
6
CONTINUOUS
10
0.057092
20
0.081001
30
0.0
11
0.053148
21
0.081001
31
0.0
0
LINE
8
0
6
CONTINUOUS
10
0.060118
20
0.081001
30
0.0
11
0.057092
21
0.081001
31
0.0
0
LINE
8
0
6
CONTINUOUS
10
0.062020
20
0.081001
30
0.0
11
0.060118
21
0.081001
31
0.0
0
LINE
8
0
6
CONTINUOUS
10
0.062669
20
0.081001
30
0.0
11
0.062020
21
0.081001
31
0.0
0
LINE
8
0
6
CONTINUOUS
10
0.062669
20
0.080449
30
0.0
11
0.062669
21
0.081001
31
0.0
0
LINE
8
0
6
CONTINUOUS
10
0.009205
20
0.075194
30
0.0
11
0.017288
21
0.074810
31
0.0
0
LINE
8
0
6
CONTINUOUS
10
0.009227
20
0.081001
30
0.0
11
0.016539
21
0.081001
31
0.0
0
LINE
8
0
6
CONTINUOUS
10
0.016539
20
0.081001
30
0.0
11
0.009226
21
0.081001
31
0.0
0
LINE
8
0
6
CONTINUOUS
10
-0.026259
20
0.076166
30
0.0
11
-0.015215
21
0.074827
31
0.0
0
LINE
8
0
6
CONTINUOUS
10
-0.010867
20
0.076044
30
0.0
11
-0.022926
21
0.076531
31
0.0
0
LINE
8
0
6
CONTINUOUS
10
-0.005401
20
0.081001
30
0.0
11
-0.016371
21
0.081001
31
0.0
0
LINE
8
0
6
CONTINUOUS
10
-0.016374
20
0.081001
30
0.0
11
-0.005402
21
0.081001
31
0.0
0
LINE
8
0
6
CONTINUOUS
10
0.043637
20
0.046801
30
0.0
11
0.048549
21
0.046801
31
0.0
0
LINE
8
0
6
CONTINUOUS
10
0.057092
20
0.046801
30
0.0
11
0.060119
21
0.046801
31
0.0
0
LINE
8
0
6
CONTINUOUS
10
0.053145
20
0.046801
30
0.0
11
0.057092
21
0.046801
31
0.0
0
LINE
8
0
6
CONTINUOUS
10
0.048549
20
0.046801
30
0.0
11
0.053145
21
0.046801
31
0.0
0
LINE
8
0
6
CONTINUOUS
10
0.060119
20
0.046801
30
0.0
11
0.062021
21
0.046801
31
0.0
0
LINE
8
0
6
CONTINUOUS
10
0.062669
20
0.046801
30
0.0
11
0.062669
21
0.047275
31
0.0
0
LINE
8
0
6
CONTINUOUS
10
0.062021
20
0.046801
30
0.0
11
0.062669
21
0.046801
31
0.0
0
LINE
8
0
6
CONTINUOUS
10
0.038683
20
0.046801
30
0.0
11
0.043637
21
0.046801
31
0.0
0
LINE
8
0
6
CONTINUOUS
10
0.030165
20
0.046801
30
0.0
11
0.034108
21
0.046801
31
0.0
0
LINE
8
0
6
CONTINUOUS
10
0.027139
20
0.046801
30
0.0
11
0.030165
21
0.046801
31
0.0
0
LINE
8
0
6
CONTINUOUS
10
0.025237
20
0.046801
30
0.0
11
0.027139
21
0.046801
31
0.0
0
LINE
8
0
6
CONTINUOUS
10
0.024588
20
0.046801
30
0.0
11
0.025237
21
0.046801
31
0.0
0
LINE
8
0
6
CONTINUOUS
10
0.024588
20
0.047275
30
0.0
11
0.024588
21
0.046801
31
0.0
0
LINE
8
0
6
CONTINUOUS
10
0.024588
20
0.059841
30
0.0
11
0.024588
21
0.047275
31
0.0
0
LINE
8
0
6
CONTINUOUS
10
-0.033619
20
0.081001
30
0.0
11
-0.027341
21
0.081001
31
0.0
0
LINE
8
0
6
CONTINUOUS
10
0.052824
20
0.081001
30
0.0
11
0.061446
21
0.081001
31
0.0
0
LINE
8
0
6
CONTINUOUS
10
0.053148
20
0.081001
30
0.0
11
0.052824
21
0.081001
31
0.0
0
LINE
8
0
6
CONTINUOUS
10
0.062093
20
0.081001
30
0.0
11
0.053148
21
0.081001
31
0.0
0
LINE
8
0
6
CONTINUOUS
10
0.061446
20
0.081001
30
0.0
11
0.062093
21
0.081001
31
0.0
0
LINE
8
0
6
CONTINUOUS
10
0.050360
20
0.081001
30
0.0
11
0.048798
21
0.081001
31
0.0
0
LINE
8
0
6
CONTINUOUS
10
0.056524
20
0.081001
30
0.0
11
0.050360
21
0.081001
31
0.0
0
LINE
8
0
6
CONTINUOUS
10
-0.027341
20
0.081001
30
0.0
11
-0.033619
21
0.081001
31
0.0
0
LINE
8
0
6
CONTINUOUS
10
-0.029959
20
0.078559
30
0.0
11
-0.030816
21
0.080433
31
0.0
0
LINE
8
0
6
CONTINUOUS
10
0.051873
20
0.081001
30
0.0
11
0.052824
21
0.081001
31
0.0
0
LINE
8
0
6
CONTINUOUS
10
0.052824
20
0.081001
30
0.0
11
0.043628
21
0.081001
31
0.0
0
LINE
8
0
6
CONTINUOUS
10
-0.033346
20
0.080429
30
0.0
11
-0.034400
21
0.080410
31
0.0
0
LINE
8
0
6
CONTINUOUS
10
-0.032846
20
0.079119
30
0.0
11
-0.033346
21
0.080429
31
0.0
0
LINE
8
0
6
CONTINUOUS
10
-0.032846
20
0.079119
30
0.0
11
-0.034400
21
0.080410
31
0.0
0
LINE
8
0
6
CONTINUOUS
10
-0.034400
20
0.080410
30
0.0
11
-0.034400
21
0.079496
31
0.0
0
LINE
8
0
6
CONTINUOUS
10
-0.027341
20
0.081001
30
0.0
11
-0.016374
21
0.081001
31
0.0
0
LINE
8
0
6
CONTINUOUS
10
-0.005402
20
0.081001
30
0.0
11
0.001913
21
0.081001
31
0.0
0
LINE
8
0
6
CONTINUOUS
10
0.016539
20
0.081001
30
0.0
11
0.027611
21
0.081001
31
0.0
0
LINE
8
0
6
CONTINUOUS
10
0.027611
20
0.081001
30
0.0
11
0.016539
21
0.081001
31
0.0
0
LINE
8
0
6
CONTINUOUS
10
0.019066
20
0.069640
30
0.0
11
0.021818
21
0.067595
31
0.0
0
LINE
8
0
6
CONTINUOUS
10
0.062669
20
0.068298
30
0.0
11
0.062669
21
0.071126
31
0.0
0
LINE
8
0
6
CONTINUOUS
10
-0.029959
20
0.078559
30
0.0
11
-0.032846
21
0.079119
31
0.0
0
LINE
8
0
6
CONTINUOUS
10
-0.032351
20
0.078290
30
0.0
11
-0.029892
21
0.077473
31
0.0
0
LINE
8
0
6
CONTINUOUS
10
-0.023742
20
0.078013
30
0.0
11
-0.013566
21
0.077907
31
0.0
0
LINE
8
0
6
CONTINUOUS
10
0.062669
20
0.071126
30
0.0
11
0.062669
21
0.073936
31
0.0
0
LINE
8
0
6
CONTINUOUS
10
0.062669
20
0.062660
30
0.0
11
0.062669
21
0.065479
31
0.0
0
LINE
8
0
6
CONTINUOUS
10
0.062669
20
0.065479
30
0.0
11
0.062669
21
0.068298
31
0.0
0
LINE
8
0
6
CONTINUOUS
10
0.062669
20
0.077193
30
0.0
11
0.062669
21
0.080449
31
0.0
0
LINE
8
0
6
CONTINUOUS
10
0.001912
20
0.081001
30
0.0
11
-0.005401
21
0.081001
31
0.0
0
LINE
8
0
6
CONTINUOUS
10
-0.023742
20
0.078013
30
0.0
11
-0.029959
21
0.078559
31
0.0
0
LINE
8
0
6
CONTINUOUS
10
-0.033135
20
0.078450
30
0.0
11
-0.030579
21
0.077222
31
0.0
0
LINE
8
0
6
CONTINUOUS
10
-0.030579
20
0.077222
30
0.0
11
-0.026194
21
0.076166
31
0.0
0
LINE
8
0
6
CONTINUOUS
10
-0.022926
20
0.076531
30
0.0
11
-0.029892
21
0.077473
31
0.0
0
LINE
8
0
6
CONTINUOUS
10
-0.016371
20
0.081001
30
0.0
11
-0.027341
21
0.081001
31
0.0
0
LINE
8
0
6
CONTINUOUS
10
0.017288
20
0.074810
30
0.0
11
0.030411
21
0.071126
31
0.0
0
LINE
8
0
6
CONTINUOUS
10
0.015938
20
0.071126
30
0.0
11
0.019066
21
0.069640
31
0.0
0
LINE
8
0
6
CONTINUOUS
10
0.021818
20
0.067595
30
0.0
11
0.023590
21
0.064630
31
0.0
0
LINE
8
0
6
CONTINUOUS
10
0.024919
20
0.067480
30
0.0
11
0.022635
21
0.067565
31
0.0
0
LINE
8
0
6
CONTINUOUS
10
0.023697
20
0.071126
30
0.0
11
0.019475
21
0.071126
31
0.0
0
LINE
8
0
6
CONTINUOUS
10
0.028558
20
0.067300
30
0.0
11
0.024919
21
0.067480
31
0.0
0
LINE
8
0
6
CONTINUOUS
10
0.026388
20
0.069507
30
0.0
11
0.032360
21
0.069171
31
0.0
0
LINE
8
0
6
CONTINUOUS
10
0.030411
20
0.071126
30
0.0
11
0.023697
21
0.071126
31
0.0
0
LINE
8
0
6
CONTINUOUS
10
0.033529
20
0.066726
30
0.0
11
0.028558
21
0.067300
31
0.0
0
LINE
8
0
6
CONTINUOUS
10
0.023590
20
0.064630
30
0.0
11
0.024337
21
0.061250
31
0.0
0
LINE
8
0
6
CONTINUOUS
10
0.009205
20
0.075194
30
0.0
11
0.001149
21
0.075530
31
0.0
0
LINE
8
0
6
CONTINUOUS
10
-0.004321
20
0.073658
30
0.0
11
0.003307
21
0.073093
31
0.0
0
LINE
8
0
6
CONTINUOUS
10
-0.015215
20
0.074827
30
0.0
11
-0.004321
21
0.073658
31
0.0
0
LINE
8
0
6
CONTINUOUS
10
-0.003240
20
0.077775
30
0.0
11
-0.013566
21
0.077907
31
0.0
0
LINE
8
0
6
CONTINUOUS
10
-0.010867
20
0.076044
30
0.0
11
0.001149
21
0.075530
31
0.0
0
LINE
8
0
6
CONTINUOUS
10
-0.032846
20
0.079119
30
0.0
11
-0.034400
21
0.079496
31
0.0
0
LINE
8
0
6
CONTINUOUS
10
-0.034400
20
0.079496
30
0.0
11
-0.033023
21
0.078424
31
0.0
0
LINE
8
0
6
CONTINUOUS
10
0.062669
20
0.059841
30
0.0
11
0.062669
21
0.062660
31
0.0
0
LINE
8
0
6
CONTINUOUS
10
0.062669
20
0.047275
30
0.0
11
0.062669
21
0.059841
31
0.0
0
LINE
8
0
6
CONTINUOUS
10
0.027611
20
0.081001
30
0.0
11
0.038683
21
0.081001
31
0.0
0
LINE
8
0
6
CONTINUOUS
10
0.038683
20
0.081001
30
0.0
11
0.027611
21
0.081001
31
0.0
0
LINE
8
0
6
CONTINUOUS
10
0.043628
20
0.081001
30
0.0
11
0.038683
21
0.081001
31
0.0
0
LINE
8
0
6
CONTINUOUS
10
0.038683
20
0.081001
30
0.0
11
0.043628
21
0.081001
31
0.0
0
LINE
8
0
6
CONTINUOUS
10
0.043628
20
0.081001
30
0.0
11
0.038683
21
0.081001
31
0.0
0
LINE
8
0
6
CONTINUOUS
10
0.016539
20
0.081001
30
0.0
11
0.027611
21
0.081001
31
0.0
0
LINE
8
0
6
CONTINUOUS
10
0.027611
20
0.081001
30
0.0
11
0.016539
21
0.081001
31
0.0
0
LINE
8
0
6
CONTINUOUS
10
0.048556
20
0.081001
30
0.0
11
0.048798
21
0.081001
31
0.0
0
LINE
8
0
6
CONTINUOUS
10
0.053148
20
0.081001
30
0.0
11
0.048556
21
0.081001
31
0.0
0
LINE
8
0
6
CONTINUOUS
10
0.056524
20
0.081001
30
0.0
11
0.057092
21
0.081001
31
0.0
0
LINE
8
0
6
CONTINUOUS
10
0.057092
20
0.081001
30
0.0
11
0.053148
21
0.081001
31
0.0
0
LINE
8
0
6
CONTINUOUS
10
0.050360
20
0.081001
30
0.0
11
0.043628
21
0.081001
31
0.0
0
LINE
8
0
6
CONTINUOUS
10
0.051873
20
0.081001
30
0.0
11
0.050360
21
0.081001
31
0.0
0
LINE
8
0
6
CONTINUOUS
10
-0.057802
20
0.019854
30
0.0
11
-0.055961
21
0.023117
31
0.0
0
LINE
8
0
6
CONTINUOUS
10
-0.075339
20
0.034732
30
0.0
11
-0.077491
21
0.030917
31
0.0
0
LINE
8
0
6
CONTINUOUS
10
-0.077737
20
0.030481
30
0.0
11
-0.077255
21
0.030210
31
0.0
0
LINE
8
0
6
CONTINUOUS
10
-0.077491
20
0.030917
30
0.0
11
-0.077737
21
0.030481
31
0.0
0
LINE
8
0
6
CONTINUOUS
10
-0.075857
20
0.029425
30
0.0
11
-0.077255
21
0.030210
31
0.0
0
LINE
8
0
6
CONTINUOUS
10
-0.073679
20
0.028201
30
0.0
11
-0.075857
21
0.029425
31
0.0
0
LINE
8
0
6
CONTINUOUS
10
-0.070934
20
0.026659
30
0.0
11
-0.073679
21
0.028201
31
0.0
0
LINE
8
0
6
CONTINUOUS
10
-0.067892
20
0.024950
30
0.0
11
-0.070934
21
0.026659
31
0.0
0
LINE
8
0
6
CONTINUOUS
10
-0.067892
20
0.024950
30
0.0
11
-0.064850
21
0.023241
31
0.0
0
LINE
8
0
6
CONTINUOUS
10
-0.064850
20
0.023241
30
0.0
11
-0.062106
21
0.021699
31
0.0
0
LINE
8
0
6
CONTINUOUS
10
-0.059928
20
0.020475
30
0.0
11
-0.062106
21
0.021699
31
0.0
0
LINE
8
0
6
CONTINUOUS
10
-0.059928
20
0.020475
30
0.0
11
-0.058530
21
0.019689
31
0.0
0
LINE
8
0
6
CONTINUOUS
10
-0.058048
20
0.019419
30
0.0
11
-0.057802
21
0.019854
31
0.0
0
LINE
8
0
6
CONTINUOUS
10
-0.058530
20
0.019689
30
0.0
11
-0.058048
21
0.019419
31
0.0
0
LINE
8
0
6
CONTINUOUS
10
0.072032
20
-0.006768
30
0.0
11
0.072518
21
-0.006212
31
0.0
0
LINE
8
0
6
CONTINUOUS
10
0.071947
20
-0.003073
30
0.0
11
0.070578
21
-0.003942
31
0.0
0
LINE
8
0
6
CONTINUOUS
10
0.081139
20
-0.004239
30
0.0
11
0.076450
21
-0.003874
31
0.0
0
LINE
8
0
6
CONTINUOUS
10
0.081139
20
-0.004239
30
0.0
11
0.076619
21
-0.004459
31
0.0
0
LINE
8
0
6
CONTINUOUS
10
0.076471
20
-0.004640
30
0.0
11
0.081150
21
-0.004499
31
0.0
0
LINE
8
0
6
CONTINUOUS
10
0.084273
20
-0.004161
30
0.0
11
0.083220
21
-0.004248
31
0.0
0
LINE
8
0
6
CONTINUOUS
10
0.083889
20
-0.004513
30
0.0
11
0.084273
21
-0.004161
31
0.0
0
LINE
8
0
6
CONTINUOUS
10
0.076450
20
-0.003874
30
0.0
11
0.081112
21
-0.004161
31
0.0
0
LINE
8
0
6
CONTINUOUS
10
0.070578
20
-0.003942
30
0.0
11
0.069539
21
-0.004919
31
0.0
0
LINE
8
0
6
CONTINUOUS
10
0.071589
20
-0.007364
30
0.0
11
0.072032
21
-0.006768
31
0.0
0
LINE
8
0
6
CONTINUOUS
10
0.073419
20
-0.004036
30
0.0
11
0.072514
21
-0.004540
31
0.0
0
LINE
8
0
6
CONTINUOUS
10
0.073096
20
-0.005742
30
0.0
11
0.073778
21
-0.005461
31
0.0
0
LINE
8
0
6
CONTINUOUS
10
0.073448
20
-0.004953
30
0.0
11
0.072735
21
-0.005329
31
0.0
0
LINE
8
0
6
CONTINUOUS
10
0.081159
20
-0.002218
30
0.0
11
0.076803
21
-0.001770
31
0.0
0
LINE
8
0
6
CONTINUOUS
10
0.071686
20
-0.006483
30
0.0
11
0.072101
21
-0.005791
31
0.0
0
LINE
8
0
6
CONTINUOUS
10
0.071605
20
-0.005041
30
0.0
11
0.071069
21
-0.005925
31
0.0
0
LINE
8
0
6
CONTINUOUS
10
0.073886
20
-0.002198
30
0.0
11
0.071947
21
-0.003073
31
0.0
0
LINE
8
0
6
CONTINUOUS
10
0.070217
20
-0.005537
30
0.0
11
0.069594
21
-0.006363
31
0.0
0
LINE
8
0
6
CONTINUOUS
10
0.071315
20
-0.007184
30
0.0
11
0.071686
21
-0.006483
31
0.0
0
LINE
8
0
6
CONTINUOUS
10
0.071069
20
-0.005925
30
0.0
11
0.070744
21
-0.006903
31
0.0
0
LINE
8
0
6
CONTINUOUS
10
0.072735
20
-0.005329
30
0.0
11
0.072101
21
-0.005791
31
0.0
0
LINE
8
0
6
CONTINUOUS
10
0.072518
20
-0.006212
30
0.0
11
0.073096
21
-0.005742
31
0.0
0
LINE
8
0
6
CONTINUOUS
10
0.069539
20
-0.004919
30
0.0
11
0.068623
21
-0.005980
31
0.0
0
LINE
8
0
6
CONTINUOUS
10
0.073419
20
-0.004036
30
0.0
11
0.076450
21
-0.003874
31
0.0
0
LINE
8
0
6
CONTINUOUS
10
0.073355
20
-0.003057
30
0.0
11
0.076512
21
-0.002566
31
0.0
0
LINE
8
0
6
CONTINUOUS
10
0.081172
20
-0.002709
30
0.0
11
0.076513
21
-0.002059
31
0.0
0
LINE
8
0
6
CONTINUOUS
10
0.076508
20
-0.002269
30
0.0
11
0.081172
21
-0.002709
31
0.0
0
LINE
8
0
6
CONTINUOUS
10
0.072097
20
-0.003408
30
0.0
11
0.073438
21
-0.002771
31
0.0
0
LINE
8
0
6
CONTINUOUS
10
0.073518
20
-0.002474
30
0.0
11
0.071959
21
-0.003157
31
0.0
0
LINE
8
0
6
CONTINUOUS
10
0.070841
20
-0.004244
30
0.0
11
0.072097
21
-0.003408
31
0.0
0
LINE
8
0
6
CONTINUOUS
10
0.071959
20
-0.003157
30
0.0
11
0.070607
21
-0.004061
31
0.0
0
LINE
8
0
6
CONTINUOUS
10
0.069890
20
-0.005332
30
0.0
11
0.070841
21
-0.004244
31
0.0
0
LINE
8
0
6
CONTINUOUS
10
0.070607
20
-0.004061
30
0.0
11
0.069608
21
-0.005170
31
0.0
0
LINE
8
0
6
CONTINUOUS
10
0.069608
20
-0.005170
30
0.0
11
0.068750
21
-0.006040
31
0.0
0
LINE
8
0
6
CONTINUOUS
10
0.073438
20
-0.002771
30
0.0
11
0.076508
21
-0.002269
31
0.0
0
LINE
8
0
6
CONTINUOUS
10
0.083215
20
-0.002218
30
0.0
11
0.081159
21
-0.002218
31
0.0
0
LINE
8
0
6
CONTINUOUS
10
0.084273
20
-0.004161
30
0.0
11
0.084318
21
-0.003145
31
0.0
0
LINE
8
0
6
CONTINUOUS
10
0.084075
20
-0.004161
30
0.0
11
0.084273
21
-0.004161
31
0.0
0
LINE
8
0
6
CONTINUOUS
10
0.083156
20
-0.004161
30
0.0
11
0.083748
21
-0.004161
31
0.0
0
LINE
8
0
6
CONTINUOUS
10
0.083228
20
-0.002709
30
0.0
11
0.083896
21
-0.002709
31
0.0
0
LINE
8
0
6
CONTINUOUS
10
0.083889
20
-0.004513
30
0.0
11
0.083220
21
-0.004248
31
0.0
0
LINE
8
0
6
CONTINUOUS
10
0.081150
20
-0.004499
30
0.0
11
0.083889
21
-0.004513
31
0.0
0
LINE
8
0
6
CONTINUOUS
10
0.084322
20
-0.002218
30
0.0
11
0.083215
21
-0.002218
31
0.0
0
LINE
8
0
6
CONTINUOUS
10
0.083227
20
-0.002580
30
0.0
11
0.083995
21
-0.002580
31
0.0
0
LINE
8
0
6
CONTINUOUS
10
0.084322
20
-0.002218
30
0.0
11
0.083995
21
-0.002580
31
0.0
0
LINE
8
0
6
CONTINUOUS
10
0.084318
20
-0.003145
30
0.0
11
0.084322
21
-0.002218
31
0.0
0
LINE
8
0
6
CONTINUOUS
10
0.083156
20
-0.004161
30
0.0
11
0.083227
21
-0.003145
31
0.0
0
LINE
8
0
6
CONTINUOUS
10
0.083227
20
-0.003145
30
0.0
11
0.083228
21
-0.002709
31
0.0
0
LINE
8
0
6
CONTINUOUS
10
0.081172
20
-0.002709
30
0.0
11
0.083228
21
-0.002709
31
0.0
0
LINE
8
0
6
CONTINUOUS
10
0.083156
20
-0.004161
30
0.0
11
0.081112
21
-0.004161
31
0.0
0
LINE
8
0
6
CONTINUOUS
10
0.083748
20
-0.004161
30
0.0
11
0.084075
21
-0.004161
31
0.0
0
LINE
8
0
6
CONTINUOUS
10
0.073778
20
-0.005461
30
0.0
11
0.076471
21
-0.004640
31
0.0
0
LINE
8
0
6
CONTINUOUS
10
0.076619
20
-0.004459
30
0.0
11
0.073448
21
-0.004953
31
0.0
0
LINE
8
0
6
CONTINUOUS
10
0.083995
20
-0.002580
30
0.0
11
0.083896
21
-0.002709
31
0.0
0
LINE
8
0
6
CONTINUOUS
10
0.083896
20
-0.002709
30
0.0
11
0.083894
21
-0.003145
31
0.0
0
LINE
8
0
6
CONTINUOUS
10
0.076803
20
-0.001770
30
0.0
11
0.073886
21
-0.002198
31
0.0
0
LINE
8
0
6
CONTINUOUS
10
0.073518
20
-0.002474
30
0.0
11
0.076513
21
-0.002059
31
0.0
0
LINE
8
0
6
CONTINUOUS
10
0.070744
20
-0.006903
30
0.0
11
0.064426
21
-0.030405
31
0.0
0
LINE
8
0
6
CONTINUOUS
10
0.064691
20
-0.033120
30
0.0
11
0.071589
21
-0.007364
31
0.0
0
LINE
8
0
6
CONTINUOUS
10
0.071315
20
-0.007184
30
0.0
11
0.064565
21
-0.032527
31
0.0
0
LINE
8
0
6
CONTINUOUS
10
0.068750
20
-0.006040
30
0.0
11
0.068623
21
-0.005980
31
0.0
0
LINE
8
0
6
CONTINUOUS
10
0.064258
20
-0.021891
30
0.0
11
0.068750
21
-0.006040
31
0.0
0
LINE
8
0
6
CONTINUOUS
10
0.068623
20
-0.005980
30
0.0
11
0.064366
21
-0.020817
31
0.0
0
LINE
8
0
6
CONTINUOUS
10
0.064297
20
-0.026673
30
0.0
11
0.069594
21
-0.006363
31
0.0
0
LINE
8
0
6
CONTINUOUS
10
0.026100
20
0.046801
30
0.0
11
0.026100
21
0.045004
31
0.0
0
LINE
8
0
6
CONTINUOUS
10
0.061204
20
0.045001
30
0.0
11
0.061204
21
0.046801
31
0.0
0
LINE
8
0
6
CONTINUOUS
10
0.036999
20
-0.081001
30
0.0
11
0.042954
21
-0.081001
31
0.0
0
LINE
8
0
6
CONTINUOUS
10
0.048821
20
-0.081001
30
0.0
11
0.054376
21
-0.081001
31
0.0
0
LINE
8
0
6
CONTINUOUS
10
0.059145
20
-0.081001
30
0.0
11
0.054376
21
-0.081001
31
0.0
0
LINE
8
0
6
CONTINUOUS
10
0.059145
20
-0.081001
30
0.0
11
0.062804
21
-0.081001
31
0.0
0
LINE
8
0
6
CONTINUOUS
10
0.042954
20
-0.081001
30
0.0
11
0.048821
21
-0.081001
31
0.0
0
LINE
8
0
6
CONTINUOUS
10
0.065944
20
-0.081001
30
0.0
11
0.065931
21
-0.080001
31
0.0
0
LINE
8
0
6
CONTINUOUS
10
0.065102
20
-0.081001
30
0.0
11
0.065944
21
-0.081001
31
0.0
0
LINE
8
0
6
CONTINUOUS
10
0.062804
20
-0.081001
30
0.0
11
0.065102
21
-0.081001
31
0.0
0
LINE
8
0
6
CONTINUOUS
10
0.031450
20
-0.081001
30
0.0
11
0.036999
21
-0.081001
31
0.0
0
LINE
8
0
6
CONTINUOUS
10
0.020728
20
-0.081001
30
0.0
11
0.023027
21
-0.081001
31
0.0
0
LINE
8
0
6
CONTINUOUS
10
0.019944
20
-0.081001
30
0.0
11
0.020728
21
-0.081001
31
0.0
0
LINE
8
0
6
CONTINUOUS
10
0.019954
20
-0.080001
30
0.0
11
0.019944
21
-0.081001
31
0.0
0
LINE
8
0
6
CONTINUOUS
10
0.026684
20
-0.081001
30
0.0
11
0.031450
21
-0.081001
31
0.0
0
LINE
8
0
6
CONTINUOUS
10
0.023027
20
-0.081001
30
0.0
11
0.026684
21
-0.081001
31
0.0
0
LINE
8
0
6
CONTINUOUS
10
0.021836
20
0.002323
30
0.0
11
0.021979
21
-0.003882
31
0.0
0
LINE
8
0
6
CONTINUOUS
10
-0.049010
20
0.021443
30
0.0
11
0.007472
21
0.018617
31
0.0
0
LINE
8
0
6
CONTINUOUS
10
-0.079143
20
0.045004
30
0.0
11
-0.081326
21
0.045004
31
0.0
0
LINE
8
0
6
CONTINUOUS
10
0.023174
20
0.045004
30
0.0
11
-0.079143
21
0.045004
31
0.0
0
LINE
8
0
6
CONTINUOUS
10
-0.081326
20
0.045004
30
0.0
11
-0.083704
21
0.045004
31
0.0
0
LINE
8
0
6
CONTINUOUS
10
-0.083704
20
0.045004
30
0.0
11
-0.084322
21
0.045004
31
0.0
0
LINE
8
0
6
CONTINUOUS
10
-0.083058
20
0.044017
30
0.0
11
-0.083704
21
0.045004
31
0.0
0
LINE
8
0
6
CONTINUOUS
10
-0.084322
20
0.045004
30
0.0
11
-0.083682
21
0.044012
31
0.0
0
LINE
8
0
6
CONTINUOUS
10
0.062614
20
0.045004
30
0.0
11
0.062023
21
0.045004
31
0.0
0
LINE
8
0
6
CONTINUOUS
10
0.062647
20
0.044353
30
0.0
11
0.062614
21
0.045004
31
0.0
0
LINE
8
0
6
CONTINUOUS
10
0.048579
20
0.045004
30
0.0
11
0.043734
21
0.045004
31
0.0
0
LINE
8
0
6
CONTINUOUS
10
0.060125
20
0.045004
30
0.0
11
0.057104
21
0.045004
31
0.0
0
LINE
8
0
6
CONTINUOUS
10
0.057104
20
0.045004
30
0.0
11
0.053166
21
0.045004
31
0.0
0
LINE
8
0
6
CONTINUOUS
10
0.053166
20
0.045004
30
0.0
11
0.048579
21
0.045004
31
0.0
0
LINE
8
0
6
CONTINUOUS
10
0.062023
20
0.045004
30
0.0
11
0.060125
21
0.045004
31
0.0
0
LINE
8
0
6
CONTINUOUS
10
0.043734
20
0.045004
30
0.0
11
0.023174
21
0.045004
31
0.0
0
LINE
8
0
6
CONTINUOUS
10
-0.083682
20
0.044012
30
0.0
11
-0.081058
21
0.039943
31
0.0
0
LINE
8
0
6
CONTINUOUS
10
-0.054150
20
0.022093
30
0.0
11
-0.051187
21
0.021595
31
0.0
0
LINE
8
0
6
CONTINUOUS
10
-0.055961
20
0.023117
30
0.0
11
-0.054150
21
0.022093
31
0.0
0
LINE
8
0
6
CONTINUOUS
10
-0.081058
20
0.039943
30
0.0
11
-0.077091
21
0.036061
31
0.0
0
LINE
8
0
6
CONTINUOUS
10
-0.076128
20
0.035770
30
0.0
11
-0.080286
21
0.039768
31
0.0
0
LINE
8
0
6
CONTINUOUS
10
-0.072408
20
0.032509
30
0.0
11
-0.067579
21
0.029522
31
0.0
0
LINE
8
0
6
CONTINUOUS
10
-0.064949
20
0.028415
30
0.0
11
-0.070861
21
0.031891
31
0.0
0
LINE
8
0
6
CONTINUOUS
10
-0.059788
20
0.025658
30
0.0
11
-0.064949
21
0.028415
31
0.0
0
LINE
8
0
6
CONTINUOUS
10
-0.055682
20
0.023215
30
0.0
11
-0.059788
21
0.025658
31
0.0
0
LINE
8
0
6
CONTINUOUS
10
-0.077091
20
0.036061
30
0.0
11
-0.072408
21
0.032509
31
0.0
0
LINE
8
0
6
CONTINUOUS
10
-0.070861
20
0.031891
30
0.0
11
-0.076128
21
0.035770
31
0.0
0
LINE
8
0
6
CONTINUOUS
10
-0.083058
20
0.044017
30
0.0
11
-0.080286
21
0.039768
31
0.0
0
LINE
8
0
6
CONTINUOUS
10
0.063055
20
0.028893
30
0.0
11
0.062807
21
0.038296
31
0.0
0
LINE
8
0
6
CONTINUOUS
10
0.062807
20
0.038296
30
0.0
11
0.062647
21
0.044353
31
0.0
0
LINE
8
0
6
CONTINUOUS
10
0.065931
20
-0.080001
30
0.0
11
0.064686
21
-0.032925
31
0.0
0
LINE
8
0
6
CONTINUOUS
10
0.064370
20
-0.020950
30
0.0
11
0.063886
21
-0.002660
31
0.0
0
LINE
8
0
6
CONTINUOUS
10
0.063550
20
0.010088
30
0.0
11
0.063302
21
0.019491
31
0.0
0
LINE
8
0
6
CONTINUOUS
10
0.063886
20
-0.002660
30
0.0
11
0.063550
21
0.010088
31
0.0
0
LINE
8
0
6
CONTINUOUS
10
0.063302
20
0.019491
30
0.0
11
0.063055
21
0.028893
31
0.0
0
LINE
8
0
6
CONTINUOUS
10
0.021979
20
-0.003882
30
0.0
11
0.019954
21
-0.080001
31
0.0
0
LINE
8
0
6
CONTINUOUS
10
0.018230
20
0.013687
30
0.0
11
0.020948
21
0.008445
31
0.0
0
LINE
8
0
6
CONTINUOUS
10
0.019740
20
0.014196
30
0.0
11
0.021559
21
0.015642
31
0.0
0
LINE
8
0
6
CONTINUOUS
10
0.012994
20
0.017057
30
0.0
11
0.018230
21
0.013687
31
0.0
0
LINE
8
0
6
CONTINUOUS
10
0.018230
20
0.013687
30
0.0
11
0.019740
21
0.014196
31
0.0
0
LINE
8
0
6
CONTINUOUS
10
0.007472
20
0.018617
30
0.0
11
0.012994
21
0.017057
31
0.0
0
LINE
8
0
6
CONTINUOUS
10
0.020948
20
0.008445
30
0.0
11
0.021836
21
0.002323
31
0.0
0
LINE
8
0
6
CONTINUOUS
10
-0.051187
20
0.021595
30
0.0
11
-0.049010
21
0.021443
31
0.0
0
LINE
8
0
6
CONTINUOUS
10
-0.056366
20
0.023524
30
0.0
11
-0.056755
21
0.023751
31
0.0
0
LINE
8
0
6
CONTINUOUS
10
-0.056319
20
0.023487
30
0.0
11
-0.056366
21
0.023524
31
0.0
0
LINE
8
0
6
CONTINUOUS
10
-0.055961
20
0.023117
30
0.0
11
-0.056319
21
0.023487
31
0.0
0
LINE
8
0
6
CONTINUOUS
10
0.064345
20
-0.021294
30
0.0
11
0.064258
21
-0.021891
31
0.0
0
LINE
8
0
6
CONTINUOUS
10
0.064251
20
-0.023152
30
0.0
11
0.064258
21
-0.021891
31
0.0
0
LINE
8
0
6
CONTINUOUS
10
0.064253
20
-0.024088
30
0.0
11
0.064251
21
-0.023152
31
0.0
0
LINE
8
0
6
CONTINUOUS
10
0.064665
20
-0.032876
30
0.0
11
0.064565
21
-0.032527
31
0.0
0
LINE
8
0
6
CONTINUOUS
10
0.064686
20
-0.032925
30
0.0
11
0.064665
21
-0.032876
31
0.0
0
LINE
8
0
6
CONTINUOUS
10
0.064532
20
-0.031908
30
0.0
11
0.064426
21
-0.030405
31
0.0
0
LINE
8
0
6
CONTINUOUS
10
0.064565
20
-0.032527
30
0.0
11
0.064532
21
-0.031908
31
0.0
0
LINE
8
0
6
CONTINUOUS
10
0.064345
20
-0.021294
30
0.0
11
0.064370
21
-0.020950
31
0.0
0
LINE
8
0
6
CONTINUOUS
10
0.064297
20
-0.026673
30
0.0
11
0.064287
21
-0.025952
31
0.0
0
LINE
8
0
6
CONTINUOUS
10
-0.067910
20
0.029761
30
0.0
11
-0.066705
21
0.029154
31
0.0
0
LINE
8
0
6
CONTINUOUS
10
-0.066705
20
0.029154
30
0.0
11
-0.065768
21
0.028716
31
0.0
0
LINE
8
0
6
CONTINUOUS
10
-0.065768
20
0.028716
30
0.0
11
-0.064433
21
0.028054
31
0.0
0
ENDSEC
0
EOF
