999
Erzeugt mit innoplus bad 
0
SECTION
2
HEADER
9
$ACADVER
1
AC1009
9
$DWGCODEPAGE
3
ISO8859-1
0
ENDSEC
0
SECTION
2
TABLES
0
TABLE
2
LAYER
70
1
0
LAYER
2
0
70
0
62
7
6
CONTINUOUS
0
ENDTAB
0
ENDSEC
0
SECTION
2
ENTITIES
0
LINE
8
0
6
CONTINUOUS
10
0.019000
20
0.071126
30
0.0
11
0.019000
21
0.073936
31
0.0
0
LINE
8
0
6
CONTINUOUS
10
0.017888
20
0.081001
30
0.0
11
0.017119
21
0.081001
31
0.0
0
LINE
8
0
6
CONTINUOUS
10
0.019000
20
0.073936
30
0.0
11
0.019000
21
0.077193
31
0.0
0
LINE
8
0
6
CONTINUOUS
10
0.019000
20
0.077193
30
0.0
11
0.019000
21
0.080449
31
0.0
0
LINE
8
0
6
CONTINUOUS
10
0.018657
20
0.081001
30
0.0
11
0.017888
21
0.081001
31
0.0
0
LINE
8
0
6
CONTINUOUS
10
0.016105
20
0.081001
30
0.0
11
0.015598
21
0.081001
31
0.0
0
LINE
8
0
6
CONTINUOUS
10
0.016612
20
0.081001
30
0.0
11
0.016105
21
0.081001
31
0.0
0
LINE
8
0
6
CONTINUOUS
10
0.014838
20
0.081001
30
0.0
11
0.014077
21
0.081001
31
0.0
0
LINE
8
0
6
CONTINUOUS
10
0.014077
20
0.081001
30
0.0
11
0.012856
21
0.081001
31
0.0
0
LINE
8
0
6
CONTINUOUS
10
0.017119
20
0.081001
30
0.0
11
0.016612
21
0.081001
31
0.0
0
LINE
8
0
6
CONTINUOUS
10
0.003216
20
0.081001
30
0.0
11
-0.000000
21
0.081001
31
0.0
0
LINE
8
0
6
CONTINUOUS
10
0.015598
20
0.081001
30
0.0
11
0.014838
21
0.081001
31
0.0
0
LINE
8
0
6
CONTINUOUS
10
0.019000
20
0.081001
30
0.0
11
0.018657
21
0.081001
31
0.0
0
LINE
8
0
6
CONTINUOUS
10
0.019000
20
0.080449
30
0.0
11
0.019000
21
0.081001
31
0.0
0
LINE
8
0
6
CONTINUOUS
10
0.006432
20
0.081001
30
0.0
11
0.003216
21
0.081001
31
0.0
0
LINE
8
0
6
CONTINUOUS
10
0.012856
20
0.081001
30
0.0
11
0.010085
21
0.081001
31
0.0
0
LINE
8
0
6
CONTINUOUS
10
0.012699
20
0.080433
30
0.0
11
0.012856
21
0.081001
31
0.0
0
LINE
8
0
6
CONTINUOUS
10
0.010085
20
0.081001
30
0.0
11
0.006432
21
0.081001
31
0.0
0
LINE
8
0
6
CONTINUOUS
10
0.009983
20
0.080429
30
0.0
11
0.010085
21
0.081001
31
0.0
0
LINE
8
0
6
CONTINUOUS
10
0.018353
20
0.081001
30
0.0
11
0.016454
21
0.081001
31
0.0
0
LINE
8
0
6
CONTINUOUS
10
0.017655
20
0.081001
30
0.0
11
0.018353
21
0.081001
31
0.0
0
LINE
8
0
6
CONTINUOUS
10
0.016454
20
0.081001
30
0.0
11
0.013435
21
0.081001
31
0.0
0
LINE
8
0
6
CONTINUOUS
10
0.014742
20
0.075194
30
0.0
11
0.015670
21
0.074810
31
0.0
0
LINE
8
0
6
CONTINUOUS
10
0.012397
20
0.076044
30
0.0
11
0.010996
21
0.076531
31
0.0
0
LINE
8
0
6
CONTINUOUS
10
0.018353
20
0.046801
30
0.0
11
0.016455
21
0.046801
31
0.0
0
LINE
8
0
6
CONTINUOUS
10
0.018353
20
0.046801
30
0.0
11
0.019000
21
0.046801
31
0.0
0
LINE
8
0
6
CONTINUOUS
10
0.019000
20
0.046801
30
0.0
11
0.019000
21
0.047275
31
0.0
0
LINE
8
0
6
CONTINUOUS
10
0.013435
20
0.046801
30
0.0
11
0.016455
21
0.046801
31
0.0
0
LINE
8
0
6
CONTINUOUS
10
0.009500
20
0.046801
30
0.0
11
0.013435
21
0.046801
31
0.0
0
LINE
8
0
6
CONTINUOUS
10
0.004918
20
0.046801
30
0.0
11
0.009500
21
0.046801
31
0.0
0
LINE
8
0
6
CONTINUOUS
10
-0.000000
20
0.046801
30
0.0
11
0.004918
21
0.046801
31
0.0
0
LINE
8
0
6
CONTINUOUS
10
0.003231
20
0.081001
30
0.0
11
0.003356
21
0.081001
31
0.0
0
LINE
8
0
6
CONTINUOUS
10
0.003356
20
0.081001
30
0.0
11
-0.000000
21
0.081001
31
0.0
0
LINE
8
0
6
CONTINUOUS
10
0.013152
20
0.081001
30
0.0
11
0.009198
21
0.081001
31
0.0
0
LINE
8
0
6
CONTINUOUS
10
0.012870
20
0.081001
30
0.0
11
0.013152
21
0.081001
31
0.0
0
LINE
8
0
6
CONTINUOUS
10
0.011816
20
0.078559
30
0.0
11
0.012699
21
0.080433
31
0.0
0
LINE
8
0
6
CONTINUOUS
10
0.009983
20
0.080429
30
0.0
11
0.006432
21
0.080410
31
0.0
0
LINE
8
0
6
CONTINUOUS
10
0.009555
20
0.079119
30
0.0
11
0.009983
21
0.080429
31
0.0
0
LINE
8
0
6
CONTINUOUS
10
0.009555
20
0.079119
30
0.0
11
0.006432
21
0.080410
31
0.0
0
LINE
8
0
6
CONTINUOUS
10
0.006432
20
0.080410
30
0.0
11
0.006432
21
0.079496
31
0.0
0
LINE
8
0
6
CONTINUOUS
10
0.019000
20
0.065479
30
0.0
11
0.019000
21
0.068298
31
0.0
0
LINE
8
0
6
CONTINUOUS
10
0.011816
20
0.078559
30
0.0
11
0.009555
21
0.079119
31
0.0
0
LINE
8
0
6
CONTINUOUS
10
0.008920
20
0.078290
30
0.0
11
0.009913
21
0.077473
31
0.0
0
LINE
8
0
6
CONTINUOUS
10
0.013249
20
0.078013
30
0.0
11
0.014091
21
0.077907
31
0.0
0
LINE
8
0
6
CONTINUOUS
10
0.019000
20
0.068298
30
0.0
11
0.019000
21
0.071126
31
0.0
0
LINE
8
0
6
CONTINUOUS
10
0.013249
20
0.078013
30
0.0
11
0.011816
21
0.078559
31
0.0
0
LINE
8
0
6
CONTINUOUS
10
0.006432
20
0.079496
30
0.0
11
0.003216
21
0.079496
31
0.0
0
LINE
8
0
6
CONTINUOUS
10
0.003216
20
0.079496
30
0.0
11
-0.000000
21
0.079496
31
0.0
0
LINE
8
0
6
CONTINUOUS
10
0.010996
20
0.076531
30
0.0
11
0.009913
21
0.077473
31
0.0
0
LINE
8
0
6
CONTINUOUS
10
0.019000
20
0.059841
30
0.0
11
0.019000
21
0.062660
31
0.0
0
LINE
8
0
6
CONTINUOUS
10
0.015670
20
0.074810
30
0.0
11
0.016421
21
0.071126
31
0.0
0
LINE
8
0
6
CONTINUOUS
10
0.009481
20
0.067480
30
0.0
11
0.004907
21
0.067565
31
0.0
0
LINE
8
0
6
CONTINUOUS
10
0.013409
20
0.071126
30
0.0
11
0.009461
21
0.071126
31
0.0
0
LINE
8
0
6
CONTINUOUS
10
0.013407
20
0.067300
30
0.0
11
0.009481
21
0.067480
31
0.0
0
LINE
8
0
6
CONTINUOUS
10
0.013405
20
0.069507
30
0.0
11
0.016417
21
0.069171
31
0.0
0
LINE
8
0
6
CONTINUOUS
10
0.016421
20
0.071126
30
0.0
11
0.013409
21
0.071126
31
0.0
0
LINE
8
0
6
CONTINUOUS
10
0.016423
20
0.066726
30
0.0
11
0.013407
21
0.067300
31
0.0
0
LINE
8
0
6
CONTINUOUS
10
0.019000
20
0.062660
30
0.0
11
0.019000
21
0.065479
31
0.0
0
LINE
8
0
6
CONTINUOUS
10
0.014742
20
0.075194
30
0.0
11
0.013802
21
0.075530
31
0.0
0
LINE
8
0
6
CONTINUOUS
10
0.014979
20
0.077775
30
0.0
11
0.014091
21
0.077907
31
0.0
0
LINE
8
0
6
CONTINUOUS
10
0.012397
20
0.076044
30
0.0
11
0.013802
21
0.075530
31
0.0
0
LINE
8
0
6
CONTINUOUS
10
0.009555
20
0.079119
30
0.0
11
0.006432
21
0.079496
31
0.0
0
LINE
8
0
6
CONTINUOUS
10
0.019000
20
0.047275
30
0.0
11
0.019000
21
0.059841
31
0.0
0
LINE
8
0
6
CONTINUOUS
10
-0.019000
20
0.073936
30
0.0
11
-0.019000
21
0.071126
31
0.0
0
LINE
8
0
6
CONTINUOUS
10
-0.017119
20
0.081001
30
0.0
11
-0.017888
21
0.081001
31
0.0
0
LINE
8
0
6
CONTINUOUS
10
-0.019000
20
0.077193
30
0.0
11
-0.019000
21
0.073936
31
0.0
0
LINE
8
0
6
CONTINUOUS
10
-0.019000
20
0.080449
30
0.0
11
-0.019000
21
0.077193
31
0.0
0
LINE
8
0
6
CONTINUOUS
10
-0.017888
20
0.081001
30
0.0
11
-0.018657
21
0.081001
31
0.0
0
LINE
8
0
6
CONTINUOUS
10
-0.015598
20
0.081001
30
0.0
11
-0.016105
21
0.081001
31
0.0
0
LINE
8
0
6
CONTINUOUS
10
-0.016105
20
0.081001
30
0.0
11
-0.016612
21
0.081001
31
0.0
0
LINE
8
0
6
CONTINUOUS
10
-0.014077
20
0.081001
30
0.0
11
-0.014838
21
0.081001
31
0.0
0
LINE
8
0
6
CONTINUOUS
10
-0.012856
20
0.081001
30
0.0
11
-0.014077
21
0.081001
31
0.0
0
LINE
8
0
6
CONTINUOUS
10
-0.016612
20
0.081001
30
0.0
11
-0.017119
21
0.081001
31
0.0
0
LINE
8
0
6
CONTINUOUS
10
-0.000000
20
0.081001
30
0.0
11
-0.003216
21
0.081001
31
0.0
0
LINE
8
0
6
CONTINUOUS
10
-0.014838
20
0.081001
30
0.0
11
-0.015598
21
0.081001
31
0.0
0
LINE
8
0
6
CONTINUOUS
10
-0.019000
20
0.081001
30
0.0
11
-0.019000
21
0.080449
31
0.0
0
LINE
8
0
6
CONTINUOUS
10
-0.018657
20
0.081001
30
0.0
11
-0.019000
21
0.081001
31
0.0
0
LINE
8
0
6
CONTINUOUS
10
-0.003216
20
0.081001
30
0.0
11
-0.006432
21
0.081001
31
0.0
0
LINE
8
0
6
CONTINUOUS
10
-0.012856
20
0.081001
30
0.0
11
-0.012699
21
0.080433
31
0.0
0
LINE
8
0
6
CONTINUOUS
10
-0.010085
20
0.081001
30
0.0
11
-0.012856
21
0.081001
31
0.0
0
LINE
8
0
6
CONTINUOUS
10
-0.010085
20
0.081001
30
0.0
11
-0.009983
21
0.080429
31
0.0
0
LINE
8
0
6
CONTINUOUS
10
-0.006432
20
0.081001
30
0.0
11
-0.010085
21
0.081001
31
0.0
0
LINE
8
0
6
CONTINUOUS
10
-0.018353
20
0.081001
30
0.0
11
-0.017655
21
0.081001
31
0.0
0
LINE
8
0
6
CONTINUOUS
10
-0.016455
20
0.081001
30
0.0
11
-0.018353
21
0.081001
31
0.0
0
LINE
8
0
6
CONTINUOUS
10
-0.013435
20
0.081001
30
0.0
11
-0.016455
21
0.081001
31
0.0
0
LINE
8
0
6
CONTINUOUS
10
-0.015670
20
0.074810
30
0.0
11
-0.014742
21
0.075194
31
0.0
0
LINE
8
0
6
CONTINUOUS
10
-0.010996
20
0.076531
30
0.0
11
-0.012397
21
0.076044
31
0.0
0
LINE
8
0
6
CONTINUOUS
10
-0.016455
20
0.046801
30
0.0
11
-0.018353
21
0.046801
31
0.0
0
LINE
8
0
6
CONTINUOUS
10
-0.019000
20
0.047275
30
0.0
11
-0.019000
21
0.046801
31
0.0
0
LINE
8
0
6
CONTINUOUS
10
-0.019000
20
0.046801
30
0.0
11
-0.018353
21
0.046801
31
0.0
0
LINE
8
0
6
CONTINUOUS
10
-0.016455
20
0.046801
30
0.0
11
-0.013435
21
0.046801
31
0.0
0
LINE
8
0
6
CONTINUOUS
10
-0.013435
20
0.046801
30
0.0
11
-0.009500
21
0.046801
31
0.0
0
LINE
8
0
6
CONTINUOUS
10
-0.009500
20
0.046801
30
0.0
11
-0.004918
21
0.046801
31
0.0
0
LINE
8
0
6
CONTINUOUS
10
-0.004918
20
0.046801
30
0.0
11
-0.000000
21
0.046801
31
0.0
0
LINE
8
0
6
CONTINUOUS
10
-0.000000
20
0.081001
30
0.0
11
-0.003356
21
0.081001
31
0.0
0
LINE
8
0
6
CONTINUOUS
10
-0.003356
20
0.081001
30
0.0
11
-0.003231
21
0.081001
31
0.0
0
LINE
8
0
6
CONTINUOUS
10
-0.013152
20
0.081001
30
0.0
11
-0.012870
21
0.081001
31
0.0
0
LINE
8
0
6
CONTINUOUS
10
-0.009198
20
0.081001
30
0.0
11
-0.013152
21
0.081001
31
0.0
0
LINE
8
0
6
CONTINUOUS
10
-0.012699
20
0.080433
30
0.0
11
-0.011816
21
0.078559
31
0.0
0
LINE
8
0
6
CONTINUOUS
10
-0.006432
20
0.079496
30
0.0
11
-0.006432
21
0.080410
31
0.0
0
LINE
8
0
6
CONTINUOUS
10
-0.009555
20
0.079119
30
0.0
11
-0.006432
21
0.080410
31
0.0
0
LINE
8
0
6
CONTINUOUS
10
-0.009983
20
0.080429
30
0.0
11
-0.009555
21
0.079119
31
0.0
0
LINE
8
0
6
CONTINUOUS
10
-0.006432
20
0.080410
30
0.0
11
-0.009983
21
0.080429
31
0.0
0
LINE
8
0
6
CONTINUOUS
10
-0.019000
20
0.068298
30
0.0
11
-0.019000
21
0.065479
31
0.0
0
LINE
8
0
6
CONTINUOUS
10
-0.009914
20
0.077473
30
0.0
11
-0.008920
21
0.078290
31
0.0
0
LINE
8
0
6
CONTINUOUS
10
-0.009555
20
0.079119
30
0.0
11
-0.011816
21
0.078559
31
0.0
0
LINE
8
0
6
CONTINUOUS
10
-0.014091
20
0.077907
30
0.0
11
-0.013249
21
0.078013
31
0.0
0
LINE
8
0
6
CONTINUOUS
10
-0.019000
20
0.071126
30
0.0
11
-0.019000
21
0.068298
31
0.0
0
LINE
8
0
6
CONTINUOUS
10
-0.011816
20
0.078559
30
0.0
11
-0.013249
21
0.078013
31
0.0
0
LINE
8
0
6
CONTINUOUS
10
-0.003216
20
0.079496
30
0.0
11
-0.006432
21
0.079496
31
0.0
0
LINE
8
0
6
CONTINUOUS
10
-0.000000
20
0.079496
30
0.0
11
-0.003216
21
0.079496
31
0.0
0
LINE
8
0
6
CONTINUOUS
10
-0.009914
20
0.077473
30
0.0
11
-0.010996
21
0.076531
31
0.0
0
LINE
8
0
6
CONTINUOUS
10
-0.019000
20
0.062660
30
0.0
11
-0.019000
21
0.059841
31
0.0
0
LINE
8
0
6
CONTINUOUS
10
-0.015670
20
0.074810
30
0.0
11
-0.016421
21
0.071126
31
0.0
0
LINE
8
0
6
CONTINUOUS
10
-0.004907
20
0.067565
30
0.0
11
-0.009481
21
0.067480
31
0.0
0
LINE
8
0
6
CONTINUOUS
10
-0.009461
20
0.071126
30
0.0
11
-0.013409
21
0.071126
31
0.0
0
LINE
8
0
6
CONTINUOUS
10
-0.009481
20
0.067480
30
0.0
11
-0.013407
21
0.067300
31
0.0
0
LINE
8
0
6
CONTINUOUS
10
-0.013409
20
0.071126
30
0.0
11
-0.016421
21
0.071126
31
0.0
0
LINE
8
0
6
CONTINUOUS
10
-0.016417
20
0.069171
30
0.0
11
-0.013405
21
0.069507
31
0.0
0
LINE
8
0
6
CONTINUOUS
10
-0.013407
20
0.067300
30
0.0
11
-0.016423
21
0.066726
31
0.0
0
LINE
8
0
6
CONTINUOUS
10
-0.019000
20
0.065479
30
0.0
11
-0.019000
21
0.062660
31
0.0
0
LINE
8
0
6
CONTINUOUS
10
-0.013802
20
0.075530
30
0.0
11
-0.014742
21
0.075194
31
0.0
0
LINE
8
0
6
CONTINUOUS
10
-0.013802
20
0.075530
30
0.0
11
-0.012397
21
0.076044
31
0.0
0
LINE
8
0
6
CONTINUOUS
10
-0.014091
20
0.077907
30
0.0
11
-0.014979
21
0.077775
31
0.0
0
LINE
8
0
6
CONTINUOUS
10
-0.006432
20
0.079496
30
0.0
11
-0.009555
21
0.079119
31
0.0
0
LINE
8
0
6
CONTINUOUS
10
-0.019000
20
0.059841
30
0.0
11
-0.019000
21
0.047275
31
0.0
0
LINE
8
0
6
CONTINUOUS
10
-0.011274
20
0.028716
30
0.0
11
-0.011274
21
0.025386
31
0.0
0
LINE
8
0
6
CONTINUOUS
10
0.011274
20
0.025386
30
0.0
11
0.011274
21
0.028716
31
0.0
0
LINE
8
0
6
CONTINUOUS
10
-0.003484
20
0.019689
30
0.0
11
0.000000
21
0.019419
31
0.0
0
LINE
8
0
6
CONTINUOUS
10
-0.006627
20
0.020475
30
0.0
11
-0.003484
21
0.019689
31
0.0
0
LINE
8
0
6
CONTINUOUS
10
-0.009121
20
0.021699
30
0.0
11
-0.006627
21
0.020475
31
0.0
0
LINE
8
0
6
CONTINUOUS
10
-0.010722
20
0.023241
30
0.0
11
-0.009121
21
0.021699
31
0.0
0
LINE
8
0
6
CONTINUOUS
10
-0.011274
20
0.024950
30
0.0
11
-0.010722
21
0.023241
31
0.0
0
LINE
8
0
6
CONTINUOUS
10
-0.011274
20
0.025386
30
0.0
11
-0.011274
21
0.024950
31
0.0
0
LINE
8
0
6
CONTINUOUS
10
-0.010722
20
0.026659
30
0.0
11
-0.011274
21
0.024950
31
0.0
0
LINE
8
0
6
CONTINUOUS
10
-0.009121
20
0.028201
30
0.0
11
-0.010722
21
0.026659
31
0.0
0
LINE
8
0
6
CONTINUOUS
10
-0.006627
20
0.029425
30
0.0
11
-0.009121
21
0.028201
31
0.0
0
LINE
8
0
6
CONTINUOUS
10
-0.003484
20
0.030210
30
0.0
11
-0.006627
21
0.029425
31
0.0
0
LINE
8
0
6
CONTINUOUS
10
0.000000
20
0.030481
30
0.0
11
-0.003484
21
0.030210
31
0.0
0
LINE
8
0
6
CONTINUOUS
10
0.003484
20
0.030210
30
0.0
11
0.000000
21
0.030481
31
0.0
0
LINE
8
0
6
CONTINUOUS
10
0.006627
20
0.029425
30
0.0
11
0.003484
21
0.030210
31
0.0
0
LINE
8
0
6
CONTINUOUS
10
0.009121
20
0.028201
30
0.0
11
0.006627
21
0.029425
31
0.0
0
LINE
8
0
6
CONTINUOUS
10
0.010722
20
0.026659
30
0.0
11
0.009121
21
0.028201
31
0.0
0
LINE
8
0
6
CONTINUOUS
10
0.011274
20
0.024950
30
0.0
11
0.011274
21
0.025386
31
0.0
0
LINE
8
0
6
CONTINUOUS
10
0.011274
20
0.024950
30
0.0
11
0.010722
21
0.026659
31
0.0
0
LINE
8
0
6
CONTINUOUS
10
0.010722
20
0.023241
30
0.0
11
0.011274
21
0.024950
31
0.0
0
LINE
8
0
6
CONTINUOUS
10
0.009121
20
0.021699
30
0.0
11
0.010722
21
0.023241
31
0.0
0
LINE
8
0
6
CONTINUOUS
10
0.006627
20
0.020475
30
0.0
11
0.009121
21
0.021699
31
0.0
0
LINE
8
0
6
CONTINUOUS
10
0.003484
20
0.019689
30
0.0
11
0.006627
21
0.020475
31
0.0
0
LINE
8
0
6
CONTINUOUS
10
0.000000
20
0.019419
30
0.0
11
0.003484
21
0.019689
31
0.0
0
LINE
8
0
6
CONTINUOUS
10
0.002585
20
0.021294
30
0.0
11
0.004918
21
0.021877
31
0.0
0
LINE
8
0
6
CONTINUOUS
10
-0.004918
20
0.021877
30
0.0
11
-0.006769
21
0.022786
31
0.0
0
LINE
8
0
6
CONTINUOUS
10
0.002585
20
0.021294
30
0.0
11
0.000000
21
0.021093
31
0.0
0
LINE
8
0
6
CONTINUOUS
10
-0.006769
20
0.022786
30
0.0
11
-0.007957
21
0.023930
31
0.0
0
LINE
8
0
6
CONTINUOUS
10
0.008367
20
0.025198
30
0.0
11
0.007957
21
0.023930
31
0.0
0
LINE
8
0
6
CONTINUOUS
10
0.007957
20
0.023930
30
0.0
11
0.006769
21
0.022786
31
0.0
0
LINE
8
0
6
CONTINUOUS
10
-0.007957
20
0.023930
30
0.0
11
-0.008367
21
0.025198
31
0.0
0
LINE
8
0
6
CONTINUOUS
10
0.000000
20
0.021093
30
0.0
11
-0.002585
21
0.021294
31
0.0
0
LINE
8
0
6
CONTINUOUS
10
0.006769
20
0.022786
30
0.0
11
0.004918
21
0.021877
31
0.0
0
LINE
8
0
6
CONTINUOUS
10
-0.002585
20
0.021294
30
0.0
11
-0.004918
21
0.021877
31
0.0
0
LINE
8
0
6
CONTINUOUS
10
0.002585
20
0.021046
30
0.0
11
0.000000
21
0.020845
31
0.0
0
LINE
8
0
6
CONTINUOUS
10
0.004918
20
0.021629
30
0.0
11
0.002585
21
0.021046
31
0.0
0
LINE
8
0
6
CONTINUOUS
10
0.006769
20
0.022537
30
0.0
11
0.004918
21
0.021629
31
0.0
0
LINE
8
0
6
CONTINUOUS
10
0.007957
20
0.023681
30
0.0
11
0.006769
21
0.022537
31
0.0
0
LINE
8
0
6
CONTINUOUS
10
0.008367
20
0.024950
30
0.0
11
0.007957
21
0.023681
31
0.0
0
LINE
8
0
6
CONTINUOUS
10
0.007957
20
0.026218
30
0.0
11
0.008367
21
0.024950
31
0.0
0
LINE
8
0
6
CONTINUOUS
10
0.006769
20
0.027363
30
0.0
11
0.007957
21
0.026218
31
0.0
0
LINE
8
0
6
CONTINUOUS
10
0.004918
20
0.028271
30
0.0
11
0.006769
21
0.027363
31
0.0
0
LINE
8
0
6
CONTINUOUS
10
0.002585
20
0.028854
30
0.0
11
0.004918
21
0.028271
31
0.0
0
LINE
8
0
6
CONTINUOUS
10
0.000000
20
0.029055
30
0.0
11
0.002585
21
0.028854
31
0.0
0
LINE
8
0
6
CONTINUOUS
10
-0.002585
20
0.028854
30
0.0
11
0.000000
21
0.029055
31
0.0
0
LINE
8
0
6
CONTINUOUS
10
-0.004918
20
0.028271
30
0.0
11
-0.002585
21
0.028854
31
0.0
0
LINE
8
0
6
CONTINUOUS
10
-0.006769
20
0.027363
30
0.0
11
-0.004918
21
0.028271
31
0.0
0
LINE
8
0
6
CONTINUOUS
10
-0.007957
20
0.026218
30
0.0
11
-0.006769
21
0.027363
31
0.0
0
LINE
8
0
6
CONTINUOUS
10
-0.008367
20
0.024950
30
0.0
11
-0.007957
21
0.026218
31
0.0
0
LINE
8
0
6
CONTINUOUS
10
-0.007957
20
0.023681
30
0.0
11
-0.008367
21
0.024950
31
0.0
0
LINE
8
0
6
CONTINUOUS
10
-0.006769
20
0.022537
30
0.0
11
-0.007957
21
0.023681
31
0.0
0
LINE
8
0
6
CONTINUOUS
10
-0.004918
20
0.021629
30
0.0
11
-0.006769
21
0.022537
31
0.0
0
LINE
8
0
6
CONTINUOUS
10
-0.002585
20
0.021046
30
0.0
11
-0.004918
21
0.021629
31
0.0
0
LINE
8
0
6
CONTINUOUS
10
0.000000
20
0.020845
30
0.0
11
-0.002585
21
0.021046
31
0.0
0
LINE
8
0
6
CONTINUOUS
10
0.017496
20
0.045001
30
0.0
11
0.017496
21
0.046801
31
0.0
0
LINE
8
0
6
CONTINUOUS
10
-0.017496
20
0.046801
30
0.0
11
-0.017496
21
0.045001
31
0.0
0
LINE
8
0
6
CONTINUOUS
10
0.023000
20
-0.081001
30
0.0
11
0.022984
21
-0.080001
31
0.0
0
LINE
8
0
6
CONTINUOUS
10
0.022218
20
-0.081001
30
0.0
11
0.023000
21
-0.081001
31
0.0
0
LINE
8
0
6
CONTINUOUS
10
0.019922
20
-0.081001
30
0.0
11
0.022218
21
-0.081001
31
0.0
0
LINE
8
0
6
CONTINUOUS
10
0.005954
20
-0.081001
30
0.0
11
0.011503
21
-0.081001
31
0.0
0
LINE
8
0
6
CONTINUOUS
10
0.000000
20
-0.081001
30
0.0
11
0.005954
21
-0.081001
31
0.0
0
LINE
8
0
6
CONTINUOUS
10
0.016267
20
-0.081001
30
0.0
11
0.019922
21
-0.081001
31
0.0
0
LINE
8
0
6
CONTINUOUS
10
0.011503
20
-0.081001
30
0.0
11
0.016267
21
-0.081001
31
0.0
0
LINE
8
0
6
CONTINUOUS
10
-0.022968
20
-0.080002
30
0.0
11
-0.023000
21
-0.081001
31
0.0
0
LINE
8
0
6
CONTINUOUS
10
-0.022218
20
-0.081001
30
0.0
11
-0.023000
21
-0.081001
31
0.0
0
LINE
8
0
6
CONTINUOUS
10
-0.019922
20
-0.081001
30
0.0
11
-0.022218
21
-0.081001
31
0.0
0
LINE
8
0
6
CONTINUOUS
10
-0.005954
20
-0.081001
30
0.0
11
-0.011503
21
-0.081001
31
0.0
0
LINE
8
0
6
CONTINUOUS
10
0.000000
20
-0.081001
30
0.0
11
-0.005954
21
-0.081001
31
0.0
0
LINE
8
0
6
CONTINUOUS
10
-0.016267
20
-0.081001
30
0.0
11
-0.019922
21
-0.081001
31
0.0
0
LINE
8
0
6
CONTINUOUS
10
-0.011503
20
-0.081001
30
0.0
11
-0.016267
21
-0.081001
31
0.0
0
LINE
8
0
6
CONTINUOUS
10
0.022984
20
-0.080001
30
0.0
11
0.020516
21
-0.002420
31
0.0
0
LINE
8
0
6
CONTINUOUS
10
0.020516
20
-0.002420
30
0.0
11
0.020199
21
0.007609
31
0.0
0
LINE
8
0
6
CONTINUOUS
10
0.019869
20
0.017998
30
0.0
11
0.019546
21
0.028206
31
0.0
0
LINE
8
0
6
CONTINUOUS
10
0.020199
20
0.007609
30
0.0
11
0.019869
21
0.017998
31
0.0
0
LINE
8
0
6
CONTINUOUS
10
0.014454
20
0.045004
30
0.0
11
0.012511
21
0.045004
31
0.0
0
LINE
8
0
6
CONTINUOUS
10
0.019223
20
0.038415
30
0.0
11
0.019034
21
0.044354
31
0.0
0
LINE
8
0
6
CONTINUOUS
10
0.019000
20
0.045004
30
0.0
11
0.017550
21
0.045004
31
0.0
0
LINE
8
0
6
CONTINUOUS
10
0.012511
20
0.045004
30
0.0
11
0.000000
21
0.045004
31
0.0
0
LINE
8
0
6
CONTINUOUS
10
0.017514
20
0.045004
30
0.0
11
0.016852
21
0.045004
31
0.0
0
LINE
8
0
6
CONTINUOUS
10
0.016852
20
0.045004
30
0.0
11
0.014454
21
0.045004
31
0.0
0
LINE
8
0
6
CONTINUOUS
10
0.016759
20
0.044017
30
0.0
11
0.016852
21
0.045004
31
0.0
0
LINE
8
0
6
CONTINUOUS
10
0.019034
20
0.044354
30
0.0
11
0.019000
21
0.045004
31
0.0
0
LINE
8
0
6
CONTINUOUS
10
0.015757
20
0.035770
30
0.0
11
0.016358
21
0.039768
31
0.0
0
LINE
8
0
6
CONTINUOUS
10
0.012409
20
0.028415
30
0.0
11
0.014753
21
0.031891
31
0.0
0
LINE
8
0
6
CONTINUOUS
10
0.011274
20
0.027560
30
0.0
11
0.012409
21
0.028415
31
0.0
0
LINE
8
0
6
CONTINUOUS
10
0.014753
20
0.031891
30
0.0
11
0.015757
21
0.035770
31
0.0
0
LINE
8
0
6
CONTINUOUS
10
0.016759
20
0.044017
30
0.0
11
0.016358
21
0.039768
31
0.0
0
LINE
8
0
6
CONTINUOUS
10
0.019546
20
0.028206
30
0.0
11
0.019223
21
0.038415
31
0.0
0
LINE
8
0
6
CONTINUOUS
10
0.004977
20
0.014196
30
0.0
11
0.009607
21
0.015642
31
0.0
0
LINE
8
0
6
CONTINUOUS
10
0.000000
20
0.013687
30
0.0
11
0.004977
21
0.014196
31
0.0
0
LINE
8
0
6
CONTINUOUS
10
-0.020510
20
-0.002420
30
0.0
11
-0.022968
21
-0.080002
31
0.0
0
LINE
8
0
6
CONTINUOUS
10
-0.020194
20
0.007608
30
0.0
11
-0.020510
21
-0.002420
31
0.0
0
LINE
8
0
6
CONTINUOUS
10
-0.019544
20
0.028206
30
0.0
11
-0.019866
21
0.017997
31
0.0
0
LINE
8
0
6
CONTINUOUS
10
-0.019866
20
0.017997
30
0.0
11
-0.020194
21
0.007608
31
0.0
0
LINE
8
0
6
CONTINUOUS
10
-0.012511
20
0.045004
30
0.0
11
-0.014454
21
0.045004
31
0.0
0
LINE
8
0
6
CONTINUOUS
10
-0.019034
20
0.044354
30
0.0
11
-0.019222
21
0.038415
31
0.0
0
LINE
8
0
6
CONTINUOUS
10
-0.017550
20
0.045004
30
0.0
11
-0.019000
21
0.045004
31
0.0
0
LINE
8
0
6
CONTINUOUS
10
0.000000
20
0.045004
30
0.0
11
-0.012511
21
0.045004
31
0.0
0
LINE
8
0
6
CONTINUOUS
10
-0.016852
20
0.045004
30
0.0
11
-0.017514
21
0.045004
31
0.0
0
LINE
8
0
6
CONTINUOUS
10
-0.016852
20
0.045004
30
0.0
11
-0.016759
21
0.044017
31
0.0
0
LINE
8
0
6
CONTINUOUS
10
-0.014454
20
0.045004
30
0.0
11
-0.016852
21
0.045004
31
0.0
0
LINE
8
0
6
CONTINUOUS
10
-0.019000
20
0.045004
30
0.0
11
-0.019034
21
0.044354
31
0.0
0
LINE
8
0
6
CONTINUOUS
10
-0.016358
20
0.039768
30
0.0
11
-0.015757
21
0.035770
31
0.0
0
LINE
8
0
6
CONTINUOUS
10
-0.014753
20
0.031891
30
0.0
11
-0.012409
21
0.028415
31
0.0
0
LINE
8
0
6
CONTINUOUS
10
-0.012409
20
0.028415
30
0.0
11
-0.011274
21
0.027560
31
0.0
0
LINE
8
0
6
CONTINUOUS
10
-0.015757
20
0.035770
30
0.0
11
-0.014753
21
0.031891
31
0.0
0
LINE
8
0
6
CONTINUOUS
10
-0.016358
20
0.039768
30
0.0
11
-0.016759
21
0.044017
31
0.0
0
LINE
8
0
6
CONTINUOUS
10
-0.019222
20
0.038415
30
0.0
11
-0.019544
21
0.028206
31
0.0
0
LINE
8
0
6
CONTINUOUS
10
0.000000
20
-0.080001
30
0.0
11
0.000000
21
-0.003882
31
0.0
0
LINE
8
0
6
CONTINUOUS
10
0.000000
20
0.008445
30
0.0
11
0.000000
21
0.013687
31
0.0
0
LINE
8
0
6
CONTINUOUS
10
-0.009607
20
0.015642
30
0.0
11
-0.004977
21
0.014196
31
0.0
0
LINE
8
0
6
CONTINUOUS
10
-0.004977
20
0.014196
30
0.0
11
0.000000
21
0.013687
31
0.0
0
LINE
8
0
6
CONTINUOUS
10
0.000000
20
0.013687
30
0.0
11
0.000000
21
0.017057
31
0.0
0
LINE
8
0
6
CONTINUOUS
10
0.000000
20
0.017057
30
0.0
11
0.000000
21
0.018617
31
0.0
0
LINE
8
0
6
CONTINUOUS
10
0.000000
20
0.002323
30
0.0
11
0.000000
21
0.008445
31
0.0
0
LINE
8
0
6
CONTINUOUS
10
-0.010722
20
0.030320
30
0.0
11
-0.010808
21
0.030033
31
0.0
0
LINE
8
0
6
CONTINUOUS
10
-0.009121
20
0.031977
30
0.0
11
-0.009879
21
0.031192
31
0.0
0
LINE
8
0
6
CONTINUOUS
10
-0.009121
20
0.031977
30
0.0
11
-0.008112
21
0.032509
31
0.0
0
LINE
8
0
6
CONTINUOUS
10
-0.008112
20
0.032509
30
0.0
11
-0.006627
21
0.033416
31
0.0
0
LINE
8
0
6
CONTINUOUS
10
-0.010808
20
0.030033
30
0.0
11
-0.010897
21
0.029761
31
0.0
0
LINE
8
0
6
CONTINUOUS
10
0.006627
20
0.033416
30
0.0
11
0.008112
21
0.032509
31
0.0
0
LINE
8
0
6
CONTINUOUS
10
0.009121
20
0.031977
30
0.0
11
0.009879
21
0.031192
31
0.0
0
LINE
8
0
6
CONTINUOUS
10
0.008112
20
0.032509
30
0.0
11
0.009121
21
0.031977
31
0.0
0
LINE
8
0
6
CONTINUOUS
10
0.009879
20
0.031192
30
0.0
11
0.010722
21
0.030320
31
0.0
0
LINE
8
0
6
CONTINUOUS
10
0.010897
20
0.029761
30
0.0
11
0.011111
21
0.029154
31
0.0
0
LINE
8
0
6
CONTINUOUS
10
0.011111
20
0.029154
30
0.0
11
0.011274
21
0.028716
31
0.0
0
ENDSEC
0
EOF
