999
Erzeugt mit innoplus bad 
0
SECTION
2
HEADER
9
$ACADVER
1
AC1009
9
$DWGCODEPAGE
3
ISO8859-1
0
ENDSEC
0
SECTION
2
TABLES
0
TABLE
2
LAYER
70
1
0
LAYER
2
0
70
0
62
7
6
CONTINUOUS
0
ENDTAB
0
ENDSEC
0
SECTION
2
ENTITIES
0
LINE
8
0
6
CONTINUOUS
10
-0.018353
20
0.074234
30
0.0
11
-0.016455
21
0.069668
31
0.0
0
LINE
8
0
6
CONTINUOUS
10
-0.018353
20
0.084079
30
0.0
11
-0.019000
21
0.079177
31
0.0
0
LINE
8
0
6
CONTINUOUS
10
0.000000
20
0.098168
30
0.0
11
-0.004918
21
0.097523
31
0.0
0
LINE
8
0
6
CONTINUOUS
10
-0.016455
20
0.088666
30
0.0
11
-0.018353
21
0.084079
31
0.0
0
LINE
8
0
6
CONTINUOUS
10
-0.009500
20
0.095625
30
0.0
11
-0.013435
21
0.092604
31
0.0
0
LINE
8
0
6
CONTINUOUS
10
-0.013435
20
0.065733
30
0.0
11
-0.009500
21
0.062714
31
0.0
0
LINE
8
0
6
CONTINUOUS
10
-0.004918
20
0.097523
30
0.0
11
-0.009500
21
0.095625
31
0.0
0
LINE
8
0
6
CONTINUOUS
10
-0.018353
20
0.074234
30
0.0
11
-0.019000
21
0.079177
31
0.0
0
LINE
8
0
6
CONTINUOUS
10
-0.016455
20
0.088666
30
0.0
11
-0.013435
21
0.092604
31
0.0
0
LINE
8
0
6
CONTINUOUS
10
-0.016455
20
0.069668
30
0.0
11
-0.013435
21
0.065733
31
0.0
0
LINE
8
0
6
CONTINUOUS
10
-0.004918
20
0.060816
30
0.0
11
-0.009500
21
0.062714
31
0.0
0
LINE
8
0
6
CONTINUOUS
10
0.000000
20
0.060168
30
0.0
11
-0.004918
21
0.060816
31
0.0
0
LINE
8
0
6
CONTINUOUS
10
-0.004594
20
0.060215
30
0.0
11
-0.001566
21
0.055559
31
0.0
0
LINE
8
0
6
CONTINUOUS
10
-0.001577
20
0.055601
30
0.0
11
-0.001614
21
0.055657
31
0.0
0
LINE
8
0
6
CONTINUOUS
10
0.000000
20
0.054359
30
0.0
11
-0.000697
21
0.054648
31
0.0
0
LINE
8
0
6
CONTINUOUS
10
-0.000697
20
0.054613
30
0.0
11
0.000000
21
0.054359
31
0.0
0
LINE
8
0
6
CONTINUOUS
10
-0.001566
20
0.055559
30
0.0
11
-0.001050
21
0.054765
31
0.0
0
LINE
8
0
6
CONTINUOUS
10
-0.001577
20
0.055601
30
0.0
11
-0.001063
21
0.054810
31
0.0
0
LINE
8
0
6
CONTINUOUS
10
-0.004601
20
0.060244
30
0.0
11
-0.001577
21
0.055601
31
0.0
0
LINE
8
0
6
CONTINUOUS
10
-0.004601
20
0.060244
30
0.0
11
-0.001550
21
0.058081
31
0.0
0
LINE
8
0
6
CONTINUOUS
10
-0.000690
20
0.060240
30
0.0
11
-0.001062
21
0.060289
31
0.0
0
LINE
8
0
6
CONTINUOUS
10
-0.001050
20
0.054765
30
0.0
11
-0.000697
21
0.054613
31
0.0
0
LINE
8
0
6
CONTINUOUS
10
-0.001062
20
0.054807
30
0.0
11
-0.001050
21
0.054765
31
0.0
0
LINE
8
0
6
CONTINUOUS
10
-0.001073
20
0.055457
30
0.0
11
-0.001063
21
0.054810
31
0.0
0
LINE
8
0
6
CONTINUOUS
10
-0.001063
20
0.054810
30
0.0
11
-0.000697
21
0.054648
31
0.0
0
LINE
8
0
6
CONTINUOUS
10
0.000000
20
0.060149
30
0.0
11
-0.000690
21
0.060240
31
0.0
0
LINE
8
0
6
CONTINUOUS
10
-0.004918
20
0.060796
30
0.0
11
-0.004601
21
0.060244
31
0.0
0
LINE
8
0
6
CONTINUOUS
10
-0.004918
20
0.060796
30
0.0
11
-0.004323
21
0.060655
31
0.0
0
LINE
8
0
6
CONTINUOUS
10
-0.004290
20
0.060714
30
0.0
11
-0.004918
21
0.060796
31
0.0
0
LINE
8
0
6
CONTINUOUS
10
-0.001540
20
0.060352
30
0.0
11
-0.004290
21
0.060714
31
0.0
0
LINE
8
0
6
CONTINUOUS
10
-0.001062
20
0.060289
30
0.0
11
-0.001540
21
0.060352
31
0.0
0
LINE
8
0
6
CONTINUOUS
10
-0.004918
20
0.060796
30
0.0
11
-0.004448
21
0.060470
31
0.0
0
LINE
8
0
6
CONTINUOUS
10
-0.004448
20
0.060470
30
0.0
11
-0.004573
21
0.060285
31
0.0
0
LINE
8
0
6
CONTINUOUS
10
-0.001548
20
0.059104
30
0.0
11
-0.004573
21
0.060285
31
0.0
0
LINE
8
0
6
CONTINUOUS
10
-0.004573
20
0.060285
30
0.0
11
-0.001550
21
0.058081
31
0.0
0
LINE
8
0
6
CONTINUOUS
10
-0.004918
20
0.060795
30
0.0
11
-0.004594
21
0.060215
31
0.0
0
LINE
8
0
6
CONTINUOUS
10
0.016455
20
0.069668
30
0.0
11
0.018353
21
0.074234
31
0.0
0
LINE
8
0
6
CONTINUOUS
10
0.019000
20
0.079177
30
0.0
11
0.018353
21
0.084079
31
0.0
0
LINE
8
0
6
CONTINUOUS
10
0.004918
20
0.097523
30
0.0
11
0.000000
21
0.098168
31
0.0
0
LINE
8
0
6
CONTINUOUS
10
0.018353
20
0.084079
30
0.0
11
0.016455
21
0.088666
31
0.0
0
LINE
8
0
6
CONTINUOUS
10
0.013435
20
0.092604
30
0.0
11
0.009500
21
0.095625
31
0.0
0
LINE
8
0
6
CONTINUOUS
10
0.009500
20
0.062714
30
0.0
11
0.013435
21
0.065733
31
0.0
0
LINE
8
0
6
CONTINUOUS
10
0.009500
20
0.095625
30
0.0
11
0.004918
21
0.097523
31
0.0
0
LINE
8
0
6
CONTINUOUS
10
0.019000
20
0.079177
30
0.0
11
0.018353
21
0.074234
31
0.0
0
LINE
8
0
6
CONTINUOUS
10
0.013435
20
0.092604
30
0.0
11
0.016455
21
0.088666
31
0.0
0
LINE
8
0
6
CONTINUOUS
10
0.013435
20
0.065733
30
0.0
11
0.016455
21
0.069668
31
0.0
0
LINE
8
0
6
CONTINUOUS
10
0.009500
20
0.062714
30
0.0
11
0.004918
21
0.060816
31
0.0
0
LINE
8
0
6
CONTINUOUS
10
0.004918
20
0.060816
30
0.0
11
0.000000
21
0.060168
31
0.0
0
LINE
8
0
6
CONTINUOUS
10
0.000000
20
0.055190
30
0.0
11
0.000000
21
0.054359
31
0.0
0
LINE
8
0
6
CONTINUOUS
10
0.001566
20
0.055559
30
0.0
11
0.004594
21
0.060215
31
0.0
0
LINE
8
0
6
CONTINUOUS
10
0.001614
20
0.055657
30
0.0
11
0.001577
21
0.055601
31
0.0
0
LINE
8
0
6
CONTINUOUS
10
0.000697
20
0.054648
30
0.0
11
0.000000
21
0.054359
31
0.0
0
LINE
8
0
6
CONTINUOUS
10
0.000000
20
0.054359
30
0.0
11
0.000697
21
0.054613
31
0.0
0
LINE
8
0
6
CONTINUOUS
10
0.001050
20
0.054765
30
0.0
11
0.001566
21
0.055559
31
0.0
0
LINE
8
0
6
CONTINUOUS
10
0.001063
20
0.054810
30
0.0
11
0.001577
21
0.055601
31
0.0
0
LINE
8
0
6
CONTINUOUS
10
0.001577
20
0.055601
30
0.0
11
0.004601
21
0.060244
31
0.0
0
LINE
8
0
6
CONTINUOUS
10
0.004601
20
0.060244
30
0.0
11
0.001550
21
0.058081
31
0.0
0
LINE
8
0
6
CONTINUOUS
10
0.001062
20
0.060289
30
0.0
11
0.000690
21
0.060240
31
0.0
0
LINE
8
0
6
CONTINUOUS
10
0.001050
20
0.054765
30
0.0
11
0.001062
21
0.054807
31
0.0
0
LINE
8
0
6
CONTINUOUS
10
0.000697
20
0.054613
30
0.0
11
0.001050
21
0.054765
31
0.0
0
LINE
8
0
6
CONTINUOUS
10
0.000697
20
0.054648
30
0.0
11
0.001063
21
0.054810
31
0.0
0
LINE
8
0
6
CONTINUOUS
10
0.001063
20
0.054810
30
0.0
11
0.001073
21
0.055457
31
0.0
0
LINE
8
0
6
CONTINUOUS
10
0.000690
20
0.060240
30
0.0
11
0.000000
21
0.060149
31
0.0
0
LINE
8
0
6
CONTINUOUS
10
0.004601
20
0.060244
30
0.0
11
0.004918
21
0.060796
31
0.0
0
LINE
8
0
6
CONTINUOUS
10
0.004323
20
0.060655
30
0.0
11
0.004918
21
0.060796
31
0.0
0
LINE
8
0
6
CONTINUOUS
10
0.004918
20
0.060796
30
0.0
11
0.004290
21
0.060714
31
0.0
0
LINE
8
0
6
CONTINUOUS
10
0.004290
20
0.060714
30
0.0
11
0.001540
21
0.060352
31
0.0
0
LINE
8
0
6
CONTINUOUS
10
0.001540
20
0.060352
30
0.0
11
0.001062
21
0.060289
31
0.0
0
LINE
8
0
6
CONTINUOUS
10
0.004448
20
0.060470
30
0.0
11
0.004918
21
0.060796
31
0.0
0
LINE
8
0
6
CONTINUOUS
10
0.001550
20
0.058081
30
0.0
11
0.004573
21
0.060285
31
0.0
0
LINE
8
0
6
CONTINUOUS
10
0.001548
20
0.059104
30
0.0
11
0.004573
21
0.060285
31
0.0
0
LINE
8
0
6
CONTINUOUS
10
0.004573
20
0.060285
30
0.0
11
0.004448
21
0.060470
31
0.0
0
LINE
8
0
6
CONTINUOUS
10
0.004594
20
0.060215
30
0.0
11
0.004918
21
0.060795
31
0.0
0
LINE
8
0
6
CONTINUOUS
10
0.002270
20
0.112012
30
0.0
11
0.002843
21
0.116671
31
0.0
0
LINE
8
0
6
CONTINUOUS
10
0.001963
20
0.108014
30
0.0
11
0.001985
21
0.108919
31
0.0
0
LINE
8
0
6
CONTINUOUS
10
0.001985
20
0.107105
30
0.0
11
0.001963
21
0.108014
31
0.0
0
LINE
8
0
6
CONTINUOUS
10
0.001959
20
0.106569
30
0.0
11
0.001985
21
0.107105
31
0.0
0
LINE
8
0
6
CONTINUOUS
10
0.001917
20
0.105717
30
0.0
11
0.001959
21
0.106569
31
0.0
0
LINE
8
0
6
CONTINUOUS
10
0.001935
20
0.105094
30
0.0
11
0.001917
21
0.105717
31
0.0
0
LINE
8
0
6
CONTINUOUS
10
0.001958
20
0.108855
30
0.0
11
0.002270
21
0.112012
31
0.0
0
LINE
8
0
6
CONTINUOUS
10
0.002769
20
0.116672
30
0.0
11
0.002070
21
0.112013
31
0.0
0
LINE
8
0
6
CONTINUOUS
10
0.002238
20
0.112008
30
0.0
11
0.002769
21
0.116672
31
0.0
0
LINE
8
0
6
CONTINUOUS
10
0.001811
20
0.107597
30
0.0
11
0.001868
21
0.108938
31
0.0
0
LINE
8
0
6
CONTINUOUS
10
0.001515
20
0.109018
30
0.0
11
0.001397
21
0.107459
31
0.0
0
LINE
8
0
6
CONTINUOUS
10
0.001778
20
0.106341
30
0.0
11
0.001811
21
0.107597
31
0.0
0
LINE
8
0
6
CONTINUOUS
10
0.001397
20
0.107459
30
0.0
11
0.001416
21
0.106107
31
0.0
0
LINE
8
0
6
CONTINUOUS
10
0.001747
20
0.105390
30
0.0
11
0.001778
21
0.106341
31
0.0
0
LINE
8
0
6
CONTINUOUS
10
0.001416
20
0.106107
30
0.0
11
0.001475
21
0.105108
31
0.0
0
LINE
8
0
6
CONTINUOUS
10
0.001475
20
0.105108
30
0.0
11
0.001413
21
0.104250
31
0.0
0
LINE
8
0
6
CONTINUOUS
10
0.001868
20
0.108938
30
0.0
11
0.002238
21
0.112008
31
0.0
0
LINE
8
0
6
CONTINUOUS
10
0.002606
20
0.118727
30
0.0
11
0.002084
21
0.119394
31
0.0
0
LINE
8
0
6
CONTINUOUS
10
0.002533
20
0.118728
30
0.0
11
0.002010
21
0.119396
31
0.0
0
LINE
8
0
6
CONTINUOUS
10
0.002267
20
0.118727
30
0.0
11
0.001745
21
0.119495
31
0.0
0
LINE
8
0
6
CONTINUOUS
10
0.001456
20
0.119641
30
0.0
11
0.000000
21
0.119822
31
0.0
0
LINE
8
0
6
CONTINUOUS
10
0.000000
20
0.119822
30
0.0
11
0.001745
21
0.119495
31
0.0
0
LINE
8
0
6
CONTINUOUS
10
0.002606
20
0.118727
30
0.0
11
0.002533
21
0.118728
31
0.0
0
LINE
8
0
6
CONTINUOUS
10
0.002843
20
0.116671
30
0.0
11
0.002606
21
0.118727
31
0.0
0
LINE
8
0
6
CONTINUOUS
10
0.002769
20
0.116672
30
0.0
11
0.002533
21
0.118728
31
0.0
0
LINE
8
0
6
CONTINUOUS
10
0.001745
20
0.119495
30
0.0
11
0.002010
21
0.119396
31
0.0
0
LINE
8
0
6
CONTINUOUS
10
0.002084
20
0.119394
30
0.0
11
0.001456
21
0.119641
31
0.0
0
LINE
8
0
6
CONTINUOUS
10
0.002010
20
0.119396
30
0.0
11
0.002084
21
0.119394
31
0.0
0
LINE
8
0
6
CONTINUOUS
10
-0.001935
20
0.105094
30
0.0
11
-0.002113
21
0.100577
31
0.0
0
LINE
8
0
6
CONTINUOUS
10
0.001515
20
0.109018
30
0.0
11
0.002070
21
0.112013
31
0.0
0
LINE
8
0
6
CONTINUOUS
10
0.001413
20
0.104250
30
0.0
11
0.000000
21
0.104123
31
0.0
0
LINE
8
0
6
CONTINUOUS
10
0.001132
20
0.100680
30
0.0
11
0.001413
21
0.104250
31
0.0
0
LINE
8
0
6
CONTINUOUS
10
-0.002843
20
0.116671
30
0.0
11
-0.002270
21
0.112012
31
0.0
0
LINE
8
0
6
CONTINUOUS
10
-0.001985
20
0.108919
30
0.0
11
-0.001963
21
0.108014
31
0.0
0
LINE
8
0
6
CONTINUOUS
10
-0.001963
20
0.108014
30
0.0
11
-0.001985
21
0.107105
31
0.0
0
LINE
8
0
6
CONTINUOUS
10
-0.001959
20
0.106569
30
0.0
11
-0.001917
21
0.105717
31
0.0
0
LINE
8
0
6
CONTINUOUS
10
-0.001985
20
0.107105
30
0.0
11
-0.001959
21
0.106569
31
0.0
0
LINE
8
0
6
CONTINUOUS
10
-0.001917
20
0.105717
30
0.0
11
-0.001935
21
0.105094
31
0.0
0
LINE
8
0
6
CONTINUOUS
10
-0.002270
20
0.112012
30
0.0
11
-0.001958
21
0.108855
31
0.0
0
LINE
8
0
6
CONTINUOUS
10
-0.002769
20
0.116672
30
0.0
11
-0.002238
21
0.112008
31
0.0
0
LINE
8
0
6
CONTINUOUS
10
-0.002769
20
0.116672
30
0.0
11
-0.002070
21
0.112013
31
0.0
0
LINE
8
0
6
CONTINUOUS
10
-0.001397
20
0.107459
30
0.0
11
-0.001515
21
0.109018
31
0.0
0
LINE
8
0
6
CONTINUOUS
10
-0.001868
20
0.108938
30
0.0
11
-0.001811
21
0.107597
31
0.0
0
LINE
8
0
6
CONTINUOUS
10
-0.001416
20
0.106107
30
0.0
11
-0.001397
21
0.107459
31
0.0
0
LINE
8
0
6
CONTINUOUS
10
-0.001811
20
0.107597
30
0.0
11
-0.001778
21
0.106341
31
0.0
0
LINE
8
0
6
CONTINUOUS
10
-0.001475
20
0.105108
30
0.0
11
-0.001416
21
0.106107
31
0.0
0
LINE
8
0
6
CONTINUOUS
10
-0.001778
20
0.106341
30
0.0
11
-0.001747
21
0.105390
31
0.0
0
LINE
8
0
6
CONTINUOUS
10
-0.001413
20
0.104250
30
0.0
11
-0.001475
21
0.105108
31
0.0
0
LINE
8
0
6
CONTINUOUS
10
-0.002238
20
0.112008
30
0.0
11
-0.001868
21
0.108938
31
0.0
0
LINE
8
0
6
CONTINUOUS
10
-0.002084
20
0.119394
30
0.0
11
-0.002606
21
0.118727
31
0.0
0
LINE
8
0
6
CONTINUOUS
10
-0.002010
20
0.119396
30
0.0
11
-0.002533
21
0.118728
31
0.0
0
LINE
8
0
6
CONTINUOUS
10
-0.001745
20
0.119495
30
0.0
11
-0.002267
21
0.118727
31
0.0
0
LINE
8
0
6
CONTINUOUS
10
0.000000
20
0.118715
30
0.0
11
0.000000
21
0.119822
31
0.0
0
LINE
8
0
6
CONTINUOUS
10
0.000000
20
0.119822
30
0.0
11
-0.001456
21
0.119641
31
0.0
0
LINE
8
0
6
CONTINUOUS
10
-0.001745
20
0.119495
30
0.0
11
0.000000
21
0.119822
31
0.0
0
LINE
8
0
6
CONTINUOUS
10
-0.002606
20
0.118727
30
0.0
11
-0.002843
21
0.116671
31
0.0
0
LINE
8
0
6
CONTINUOUS
10
-0.002533
20
0.118728
30
0.0
11
-0.002606
21
0.118727
31
0.0
0
LINE
8
0
6
CONTINUOUS
10
-0.002533
20
0.118728
30
0.0
11
-0.002769
21
0.116672
31
0.0
0
LINE
8
0
6
CONTINUOUS
10
-0.002084
20
0.119394
30
0.0
11
-0.002010
21
0.119396
31
0.0
0
LINE
8
0
6
CONTINUOUS
10
-0.001456
20
0.119641
30
0.0
11
-0.002084
21
0.119394
31
0.0
0
LINE
8
0
6
CONTINUOUS
10
-0.002010
20
0.119396
30
0.0
11
-0.001745
21
0.119495
31
0.0
0
LINE
8
0
6
CONTINUOUS
10
-0.002070
20
0.112013
30
0.0
11
-0.001515
21
0.109018
31
0.0
0
LINE
8
0
6
CONTINUOUS
10
-0.001770
20
0.104704
30
0.0
11
-0.001884
21
0.100584
31
0.0
0
LINE
8
0
6
CONTINUOUS
10
0.000000
20
0.104123
30
0.0
11
-0.001413
21
0.104250
31
0.0
0
LINE
8
0
6
CONTINUOUS
10
-0.001413
20
0.104250
30
0.0
11
-0.001384
21
0.100632
31
0.0
0
LINE
8
0
6
CONTINUOUS
10
0.001771
20
0.100641
30
0.0
11
0.001935
21
0.105094
31
0.0
0
LINE
8
0
6
CONTINUOUS
10
-0.019544
20
0.079132
30
0.0
11
-0.019176
21
0.075664
31
0.0
0
LINE
8
0
6
CONTINUOUS
10
-0.019034
20
0.079232
30
0.0
11
-0.019012
21
0.065763
31
0.0
0
LINE
8
0
6
CONTINUOUS
10
-0.016852
20
-0.119204
30
0.0
11
-0.014454
21
-0.119822
31
0.0
0
LINE
8
0
6
CONTINUOUS
10
-0.017514
20
-0.116826
30
0.0
11
-0.016852
21
-0.119204
31
0.0
0
LINE
8
0
6
CONTINUOUS
10
-0.012511
20
-0.119822
30
0.0
11
0.000000
21
-0.119822
31
0.0
0
LINE
8
0
6
CONTINUOUS
10
-0.019000
20
0.058674
30
0.0
11
-0.017550
21
-0.114643
31
0.0
0
LINE
8
0
6
CONTINUOUS
10
-0.019222
20
0.079196
30
0.0
11
-0.019047
21
0.065809
31
0.0
0
LINE
8
0
6
CONTINUOUS
10
-0.017550
20
-0.114643
30
0.0
11
-0.017514
21
-0.116826
31
0.0
0
LINE
8
0
6
CONTINUOUS
10
-0.014454
20
-0.119822
30
0.0
11
-0.012511
21
-0.119822
31
0.0
0
LINE
8
0
6
CONTINUOUS
10
-0.018992
20
0.079119
30
0.0
11
-0.019000
21
0.058674
31
0.0
0
LINE
8
0
6
CONTINUOUS
10
-0.019866
20
0.079069
30
0.0
11
-0.019167
21
0.074985
31
0.0
0
LINE
8
0
6
CONTINUOUS
10
0.019176
20
0.075655
30
0.0
11
0.019546
21
0.079132
31
0.0
0
LINE
8
0
6
CONTINUOUS
10
0.019012
20
0.065763
30
0.0
11
0.019034
21
0.079232
31
0.0
0
LINE
8
0
6
CONTINUOUS
10
0.014454
20
-0.119822
30
0.0
11
0.016852
21
-0.119204
31
0.0
0
LINE
8
0
6
CONTINUOUS
10
0.016852
20
-0.119204
30
0.0
11
0.017514
21
-0.116826
31
0.0
0
LINE
8
0
6
CONTINUOUS
10
0.000000
20
-0.119822
30
0.0
11
0.012511
21
-0.119822
31
0.0
0
LINE
8
0
6
CONTINUOUS
10
0.017550
20
-0.114643
30
0.0
11
0.019000
21
0.058674
31
0.0
0
LINE
8
0
6
CONTINUOUS
10
0.019048
20
0.065810
30
0.0
11
0.019223
21
0.079195
31
0.0
0
LINE
8
0
6
CONTINUOUS
10
0.017514
20
-0.116826
30
0.0
11
0.017550
21
-0.114643
31
0.0
0
LINE
8
0
6
CONTINUOUS
10
0.012511
20
-0.119822
30
0.0
11
0.014454
21
-0.119822
31
0.0
0
LINE
8
0
6
CONTINUOUS
10
0.019000
20
0.058674
30
0.0
11
0.018992
21
0.079119
31
0.0
0
LINE
8
0
6
CONTINUOUS
10
0.019167
20
0.074978
30
0.0
11
0.019869
21
0.079068
31
0.0
0
LINE
8
0
6
CONTINUOUS
10
-0.019922
20
0.066950
30
0.0
11
-0.019047
21
0.065809
31
0.0
0
LINE
8
0
6
CONTINUOUS
10
-0.022218
20
0.072499
30
0.0
11
-0.019922
21
0.066950
31
0.0
0
LINE
8
0
6
CONTINUOUS
10
-0.005955
20
0.100602
30
0.0
11
-0.011505
21
0.098304
31
0.0
0
LINE
8
0
6
CONTINUOUS
10
-0.002091
20
0.101149
30
0.0
11
-0.005955
21
0.100602
31
0.0
0
LINE
8
0
6
CONTINUOUS
10
-0.022225
20
0.084321
30
0.0
11
-0.023000
21
0.078454
31
0.0
0
LINE
8
0
6
CONTINUOUS
10
-0.011505
20
0.098304
30
0.0
11
-0.016270
21
0.094645
31
0.0
0
LINE
8
0
6
CONTINUOUS
10
-0.016270
20
0.094645
30
0.0
11
-0.019927
21
0.089876
31
0.0
0
LINE
8
0
6
CONTINUOUS
10
-0.019927
20
0.089876
30
0.0
11
-0.022225
21
0.084321
31
0.0
0
LINE
8
0
6
CONTINUOUS
10
-0.023000
20
0.078454
30
0.0
11
-0.022218
21
0.072499
31
0.0
0
LINE
8
0
6
CONTINUOUS
10
0.019048
20
0.065810
30
0.0
11
0.019922
21
0.066950
31
0.0
0
LINE
8
0
6
CONTINUOUS
10
0.019922
20
0.066950
30
0.0
11
0.022218
21
0.072499
31
0.0
0
LINE
8
0
6
CONTINUOUS
10
0.011505
20
0.098304
30
0.0
11
0.005955
21
0.100602
31
0.0
0
LINE
8
0
6
CONTINUOUS
10
0.005955
20
0.100602
30
0.0
11
0.001792
21
0.101191
31
0.0
0
LINE
8
0
6
CONTINUOUS
10
0.023000
20
0.078454
30
0.0
11
0.022225
21
0.084321
31
0.0
0
LINE
8
0
6
CONTINUOUS
10
0.016270
20
0.094645
30
0.0
11
0.011505
21
0.098304
31
0.0
0
LINE
8
0
6
CONTINUOUS
10
0.019927
20
0.089876
30
0.0
11
0.016270
21
0.094645
31
0.0
0
LINE
8
0
6
CONTINUOUS
10
0.022225
20
0.084321
30
0.0
11
0.019927
21
0.089876
31
0.0
0
LINE
8
0
6
CONTINUOUS
10
0.022218
20
0.072499
30
0.0
11
0.023000
21
0.078454
31
0.0
0
LINE
8
0
6
CONTINUOUS
10
-0.001983
20
0.100579
30
0.0
11
-0.001884
21
0.100584
31
0.0
0
LINE
8
0
6
CONTINUOUS
10
-0.002113
20
0.100577
30
0.0
11
-0.001983
21
0.100579
31
0.0
0
LINE
8
0
6
CONTINUOUS
10
-0.000116
20
0.100799
30
0.0
11
0.000000
21
0.100816
31
0.0
0
LINE
8
0
6
CONTINUOUS
10
-0.001051
20
0.100674
30
0.0
11
-0.000116
21
0.100799
31
0.0
0
LINE
8
0
6
CONTINUOUS
10
-0.001384
20
0.100632
30
0.0
11
-0.001051
21
0.100674
31
0.0
0
LINE
8
0
6
CONTINUOUS
10
-0.001884
20
0.100584
30
0.0
11
-0.001602
21
0.100613
31
0.0
0
LINE
8
0
6
CONTINUOUS
10
-0.001602
20
0.100613
30
0.0
11
-0.001384
21
0.100632
31
0.0
0
LINE
8
0
6
CONTINUOUS
10
0.001590
20
0.100642
30
0.0
11
0.001523
21
0.100648
31
0.0
0
LINE
8
0
6
CONTINUOUS
10
0.001771
20
0.100641
30
0.0
11
0.001689
21
0.100644
31
0.0
0
LINE
8
0
6
CONTINUOUS
10
0.001523
20
0.100648
30
0.0
11
0.001380
21
0.100659
31
0.0
0
LINE
8
0
6
CONTINUOUS
10
0.001380
20
0.100659
30
0.0
11
0.001132
21
0.100680
31
0.0
0
LINE
8
0
6
CONTINUOUS
10
0.000204
20
0.100792
30
0.0
11
0.001132
21
0.100680
31
0.0
0
LINE
8
0
6
CONTINUOUS
10
0.000204
20
0.100792
30
0.0
11
0.000000
21
0.100816
31
0.0
0
ENDSEC
0
EOF
