999
Erzeugt mit innoplus bad 
0
SECTION
2
HEADER
9
$ACADVER
1
AC1009
9
$DWGCODEPAGE
3
ISO8859-1
0
ENDSEC
0
SECTION
2
TABLES
0
TABLE
2
LAYER
70
1
0
LAYER
2
0
70
0
62
7
6
CONTINUOUS
0
ENDTAB
0
ENDSEC
0
SECTION
2
ENTITIES
0
LINE
8
0
6
CONTINUOUS
10
0.061600
20
0.103802
30
0.0
11
0.061600
21
0.102006
31
0.0
0
LINE
8
0
6
CONTINUOUS
10
0.096704
20
0.102002
30
0.0
11
0.096704
21
0.103802
31
0.0
0
LINE
8
0
6
CONTINUOUS
10
0.074234
20
0.154000
30
0.0
11
0.069668
21
0.154000
31
0.0
0
LINE
8
0
6
CONTINUOUS
10
0.088666
20
0.154000
30
0.0
11
0.084079
21
0.154000
31
0.0
0
LINE
8
0
6
CONTINUOUS
10
0.065733
20
0.154000
30
0.0
11
0.062714
21
0.154000
31
0.0
0
LINE
8
0
6
CONTINUOUS
10
0.084079
20
0.154000
30
0.0
11
0.079177
21
0.154000
31
0.0
0
LINE
8
0
6
CONTINUOUS
10
0.097523
20
0.154000
30
0.0
11
0.095625
21
0.154000
31
0.0
0
LINE
8
0
6
CONTINUOUS
10
0.079177
20
0.154000
30
0.0
11
0.074234
21
0.154000
31
0.0
0
LINE
8
0
6
CONTINUOUS
10
0.098168
20
0.154000
30
0.0
11
0.097523
21
0.154000
31
0.0
0
LINE
8
0
6
CONTINUOUS
10
0.098168
20
0.153610
30
0.0
11
0.098168
21
0.154000
31
0.0
0
LINE
8
0
6
CONTINUOUS
10
0.092604
20
0.154000
30
0.0
11
0.088666
21
0.154000
31
0.0
0
LINE
8
0
6
CONTINUOUS
10
0.069668
20
0.154000
30
0.0
11
0.065733
21
0.154000
31
0.0
0
LINE
8
0
6
CONTINUOUS
10
0.062714
20
0.154000
30
0.0
11
0.060816
21
0.154000
31
0.0
0
LINE
8
0
6
CONTINUOUS
10
0.095625
20
0.154000
30
0.0
11
0.092604
21
0.154000
31
0.0
0
LINE
8
0
6
CONTINUOUS
10
0.098168
20
0.128901
30
0.0
11
0.098168
21
0.153610
31
0.0
0
LINE
8
0
6
CONTINUOUS
10
0.060168
20
0.154000
30
0.0
11
0.060168
21
0.153511
31
0.0
0
LINE
8
0
6
CONTINUOUS
10
0.060816
20
0.154000
30
0.0
11
0.060168
21
0.154000
31
0.0
0
LINE
8
0
6
CONTINUOUS
10
0.055190
20
0.145605
30
0.0
11
0.054359
21
0.144949
31
0.0
0
LINE
8
0
6
CONTINUOUS
10
0.054359
20
0.144949
30
0.0
11
0.054359
21
0.144445
31
0.0
0
LINE
8
0
6
CONTINUOUS
10
0.054648
20
0.144994
30
0.0
11
0.054359
21
0.144949
31
0.0
0
LINE
8
0
6
CONTINUOUS
10
0.054359
20
0.144445
30
0.0
11
0.054359
21
0.128901
31
0.0
0
LINE
8
0
6
CONTINUOUS
10
0.054810
20
0.145017
30
0.0
11
0.055601
21
0.145289
31
0.0
0
LINE
8
0
6
CONTINUOUS
10
0.055601
20
0.145289
30
0.0
11
0.060244
21
0.147386
31
0.0
0
LINE
8
0
6
CONTINUOUS
10
0.060244
20
0.147386
30
0.0
11
0.058081
21
0.147268
31
0.0
0
LINE
8
0
6
CONTINUOUS
10
0.060289
20
0.150139
30
0.0
11
0.060240
21
0.150142
31
0.0
0
LINE
8
0
6
CONTINUOUS
10
0.054765
20
0.128901
30
0.0
11
0.054807
21
0.144509
31
0.0
0
LINE
8
0
6
CONTINUOUS
10
0.054807
20
0.144509
30
0.0
11
0.054810
21
0.145017
31
0.0
0
LINE
8
0
6
CONTINUOUS
10
0.054648
20
0.144994
30
0.0
11
0.054810
21
0.145017
31
0.0
0
LINE
8
0
6
CONTINUOUS
10
0.054810
20
0.145017
30
0.0
11
0.055457
21
0.145622
31
0.0
0
LINE
8
0
6
CONTINUOUS
10
0.060796
20
0.146445
30
0.0
11
0.060796
21
0.147015
31
0.0
0
LINE
8
0
6
CONTINUOUS
10
0.060796
20
0.147015
30
0.0
11
0.060796
21
0.147585
31
0.0
0
LINE
8
0
6
CONTINUOUS
10
0.060149
20
0.150148
30
0.0
11
0.059215
21
0.148860
31
0.0
0
LINE
8
0
6
CONTINUOUS
10
0.060240
20
0.150142
30
0.0
11
0.060149
21
0.150148
31
0.0
0
LINE
8
0
6
CONTINUOUS
10
0.060796
20
0.147585
30
0.0
11
0.060796
21
0.147705
31
0.0
0
LINE
8
0
6
CONTINUOUS
10
0.060796
20
0.149949
30
0.0
11
0.060796
21
0.150104
31
0.0
0
LINE
8
0
6
CONTINUOUS
10
0.060796
20
0.150104
30
0.0
11
0.060714
21
0.150110
31
0.0
0
LINE
8
0
6
CONTINUOUS
10
0.060714
20
0.150110
30
0.0
11
0.060352
21
0.150134
31
0.0
0
LINE
8
0
6
CONTINUOUS
10
0.060352
20
0.150134
30
0.0
11
0.060289
21
0.150139
31
0.0
0
LINE
8
0
6
CONTINUOUS
10
0.057462
20
0.147160
30
0.0
11
0.055190
21
0.145605
31
0.0
0
LINE
8
0
6
CONTINUOUS
10
0.060470
20
0.148731
30
0.0
11
0.060796
21
0.147705
31
0.0
0
LINE
8
0
6
CONTINUOUS
10
0.060796
20
0.147705
30
0.0
11
0.060796
21
0.148827
31
0.0
0
LINE
8
0
6
CONTINUOUS
10
0.060796
20
0.148827
30
0.0
11
0.060796
21
0.149949
31
0.0
0
LINE
8
0
6
CONTINUOUS
10
0.058081
20
0.147268
30
0.0
11
0.060285
21
0.147632
31
0.0
0
LINE
8
0
6
CONTINUOUS
10
0.059104
20
0.148010
30
0.0
11
0.060285
21
0.147632
31
0.0
0
LINE
8
0
6
CONTINUOUS
10
0.060285
20
0.147632
30
0.0
11
0.060470
21
0.148731
31
0.0
0
LINE
8
0
6
CONTINUOUS
10
0.058511
20
0.147877
30
0.0
11
0.057462
21
0.147160
31
0.0
0
LINE
8
0
6
CONTINUOUS
10
0.059215
20
0.148860
30
0.0
11
0.058511
21
0.147877
31
0.0
0
LINE
8
0
6
CONTINUOUS
10
0.060795
20
0.128901
30
0.0
11
0.060796
21
0.146445
31
0.0
0
LINE
8
0
6
CONTINUOUS
10
0.069668
20
0.103802
30
0.0
11
0.074234
21
0.103802
31
0.0
0
LINE
8
0
6
CONTINUOUS
10
0.084079
20
0.103802
30
0.0
11
0.088666
21
0.103802
31
0.0
0
LINE
8
0
6
CONTINUOUS
10
0.062714
20
0.103802
30
0.0
11
0.065733
21
0.103802
31
0.0
0
LINE
8
0
6
CONTINUOUS
10
0.079177
20
0.103802
30
0.0
11
0.084079
21
0.103802
31
0.0
0
LINE
8
0
6
CONTINUOUS
10
0.095625
20
0.103802
30
0.0
11
0.097523
21
0.103802
31
0.0
0
LINE
8
0
6
CONTINUOUS
10
0.074234
20
0.103802
30
0.0
11
0.079177
21
0.103802
31
0.0
0
LINE
8
0
6
CONTINUOUS
10
0.098168
20
0.103802
30
0.0
11
0.098168
21
0.104193
31
0.0
0
LINE
8
0
6
CONTINUOUS
10
0.097523
20
0.103802
30
0.0
11
0.098168
21
0.103802
31
0.0
0
LINE
8
0
6
CONTINUOUS
10
0.088666
20
0.103802
30
0.0
11
0.092604
21
0.103802
31
0.0
0
LINE
8
0
6
CONTINUOUS
10
0.065733
20
0.103802
30
0.0
11
0.069668
21
0.103802
31
0.0
0
LINE
8
0
6
CONTINUOUS
10
0.060816
20
0.103802
30
0.0
11
0.062714
21
0.103802
31
0.0
0
LINE
8
0
6
CONTINUOUS
10
0.092604
20
0.103802
30
0.0
11
0.095625
21
0.103802
31
0.0
0
LINE
8
0
6
CONTINUOUS
10
0.098168
20
0.104193
30
0.0
11
0.098168
21
0.128901
31
0.0
0
LINE
8
0
6
CONTINUOUS
10
0.060168
20
0.103802
30
0.0
11
0.060816
21
0.103802
31
0.0
0
LINE
8
0
6
CONTINUOUS
10
0.060168
20
0.104291
30
0.0
11
0.060168
21
0.103802
31
0.0
0
LINE
8
0
6
CONTINUOUS
10
0.054359
20
0.112853
30
0.0
11
0.055190
21
0.112197
31
0.0
0
LINE
8
0
6
CONTINUOUS
10
0.054359
20
0.112853
30
0.0
11
0.054648
21
0.112809
31
0.0
0
LINE
8
0
6
CONTINUOUS
10
0.054359
20
0.113358
30
0.0
11
0.054359
21
0.112853
31
0.0
0
LINE
8
0
6
CONTINUOUS
10
0.054359
20
0.128901
30
0.0
11
0.054359
21
0.113358
31
0.0
0
LINE
8
0
6
CONTINUOUS
10
0.055601
20
0.112513
30
0.0
11
0.054810
21
0.112785
31
0.0
0
LINE
8
0
6
CONTINUOUS
10
0.055601
20
0.112513
30
0.0
11
0.060244
21
0.110416
31
0.0
0
LINE
8
0
6
CONTINUOUS
10
0.060244
20
0.110416
30
0.0
11
0.058081
21
0.110534
31
0.0
0
LINE
8
0
6
CONTINUOUS
10
0.060240
20
0.107660
30
0.0
11
0.060289
21
0.107664
31
0.0
0
LINE
8
0
6
CONTINUOUS
10
0.054807
20
0.113293
30
0.0
11
0.054765
21
0.128901
31
0.0
0
LINE
8
0
6
CONTINUOUS
10
0.054810
20
0.112785
30
0.0
11
0.054807
21
0.113293
31
0.0
0
LINE
8
0
6
CONTINUOUS
10
0.055457
20
0.112180
30
0.0
11
0.054810
21
0.112785
31
0.0
0
LINE
8
0
6
CONTINUOUS
10
0.054810
20
0.112785
30
0.0
11
0.054648
21
0.112809
31
0.0
0
LINE
8
0
6
CONTINUOUS
10
0.060796
20
0.110788
30
0.0
11
0.060796
21
0.111357
31
0.0
0
LINE
8
0
6
CONTINUOUS
10
0.060796
20
0.110217
30
0.0
11
0.060796
21
0.110788
31
0.0
0
LINE
8
0
6
CONTINUOUS
10
0.060149
20
0.107654
30
0.0
11
0.060240
21
0.107660
31
0.0
0
LINE
8
0
6
CONTINUOUS
10
0.059215
20
0.108942
30
0.0
11
0.060149
21
0.107654
31
0.0
0
LINE
8
0
6
CONTINUOUS
10
0.060796
20
0.110097
30
0.0
11
0.060796
21
0.110217
31
0.0
0
LINE
8
0
6
CONTINUOUS
10
0.060714
20
0.107692
30
0.0
11
0.060796
21
0.107698
31
0.0
0
LINE
8
0
6
CONTINUOUS
10
0.060796
20
0.107698
30
0.0
11
0.060796
21
0.107853
31
0.0
0
LINE
8
0
6
CONTINUOUS
10
0.060352
20
0.107668
30
0.0
11
0.060714
21
0.107692
31
0.0
0
LINE
8
0
6
CONTINUOUS
10
0.060289
20
0.107664
30
0.0
11
0.060352
21
0.107668
31
0.0
0
LINE
8
0
6
CONTINUOUS
10
0.055190
20
0.112197
30
0.0
11
0.057462
21
0.110643
31
0.0
0
LINE
8
0
6
CONTINUOUS
10
0.060796
20
0.108975
30
0.0
11
0.060796
21
0.110097
31
0.0
0
LINE
8
0
6
CONTINUOUS
10
0.060470
20
0.109071
30
0.0
11
0.060796
21
0.110097
31
0.0
0
LINE
8
0
6
CONTINUOUS
10
0.060796
20
0.107853
30
0.0
11
0.060796
21
0.108975
31
0.0
0
LINE
8
0
6
CONTINUOUS
10
0.060470
20
0.109071
30
0.0
11
0.060285
21
0.110170
31
0.0
0
LINE
8
0
6
CONTINUOUS
10
0.059104
20
0.109792
30
0.0
11
0.060285
21
0.110170
31
0.0
0
LINE
8
0
6
CONTINUOUS
10
0.060285
20
0.110170
30
0.0
11
0.058081
21
0.110534
31
0.0
0
LINE
8
0
6
CONTINUOUS
10
0.057462
20
0.110643
30
0.0
11
0.058511
21
0.109926
31
0.0
0
LINE
8
0
6
CONTINUOUS
10
0.058511
20
0.109926
30
0.0
11
0.059215
21
0.108942
31
0.0
0
LINE
8
0
6
CONTINUOUS
10
0.060796
20
0.111357
30
0.0
11
0.060795
21
0.128900
31
0.0
0
LINE
8
0
6
CONTINUOUS
10
0.107532
20
-0.079767
30
0.0
11
0.108018
21
-0.079210
31
0.0
0
LINE
8
0
6
CONTINUOUS
10
0.107447
20
-0.076072
30
0.0
11
0.106078
21
-0.076941
31
0.0
0
LINE
8
0
6
CONTINUOUS
10
0.116639
20
-0.077238
30
0.0
11
0.111950
21
-0.076873
31
0.0
0
LINE
8
0
6
CONTINUOUS
10
0.116639
20
-0.077238
30
0.0
11
0.112119
21
-0.077458
31
0.0
0
LINE
8
0
6
CONTINUOUS
10
0.111971
20
-0.077638
30
0.0
11
0.116650
21
-0.077498
31
0.0
0
LINE
8
0
6
CONTINUOUS
10
0.119773
20
-0.077160
30
0.0
11
0.118720
21
-0.077247
31
0.0
0
LINE
8
0
6
CONTINUOUS
10
0.119389
20
-0.077511
30
0.0
11
0.119773
21
-0.077160
31
0.0
0
LINE
8
0
6
CONTINUOUS
10
0.111950
20
-0.076873
30
0.0
11
0.116612
21
-0.077160
31
0.0
0
LINE
8
0
6
CONTINUOUS
10
0.106078
20
-0.076941
30
0.0
11
0.105039
21
-0.077918
31
0.0
0
LINE
8
0
6
CONTINUOUS
10
0.107089
20
-0.080363
30
0.0
11
0.107532
21
-0.079767
31
0.0
0
LINE
8
0
6
CONTINUOUS
10
0.108919
20
-0.077035
30
0.0
11
0.108014
21
-0.077538
31
0.0
0
LINE
8
0
6
CONTINUOUS
10
0.108596
20
-0.078741
30
0.0
11
0.109278
21
-0.078460
31
0.0
0
LINE
8
0
6
CONTINUOUS
10
0.108948
20
-0.077952
30
0.0
11
0.108235
21
-0.078327
31
0.0
0
LINE
8
0
6
CONTINUOUS
10
0.116659
20
-0.075216
30
0.0
11
0.112303
21
-0.074769
31
0.0
0
LINE
8
0
6
CONTINUOUS
10
0.107186
20
-0.079482
30
0.0
11
0.107601
21
-0.078790
31
0.0
0
LINE
8
0
6
CONTINUOUS
10
0.107105
20
-0.078040
30
0.0
11
0.106569
21
-0.078924
31
0.0
0
LINE
8
0
6
CONTINUOUS
10
0.109386
20
-0.075197
30
0.0
11
0.107447
21
-0.076072
31
0.0
0
LINE
8
0
6
CONTINUOUS
10
0.105717
20
-0.078536
30
0.0
11
0.105094
21
-0.079361
31
0.0
0
LINE
8
0
6
CONTINUOUS
10
0.106815
20
-0.080182
30
0.0
11
0.107186
21
-0.079482
31
0.0
0
LINE
8
0
6
CONTINUOUS
10
0.106569
20
-0.078924
30
0.0
11
0.106244
21
-0.079901
31
0.0
0
LINE
8
0
6
CONTINUOUS
10
0.108235
20
-0.078327
30
0.0
11
0.107601
21
-0.078790
31
0.0
0
LINE
8
0
6
CONTINUOUS
10
0.108018
20
-0.079210
30
0.0
11
0.108596
21
-0.078741
31
0.0
0
LINE
8
0
6
CONTINUOUS
10
0.105039
20
-0.077918
30
0.0
11
0.104123
21
-0.078979
31
0.0
0
LINE
8
0
6
CONTINUOUS
10
0.108919
20
-0.077035
30
0.0
11
0.111950
21
-0.076873
31
0.0
0
LINE
8
0
6
CONTINUOUS
10
0.108855
20
-0.076056
30
0.0
11
0.112012
21
-0.075564
31
0.0
0
LINE
8
0
6
CONTINUOUS
10
0.116672
20
-0.075707
30
0.0
11
0.112013
21
-0.075058
31
0.0
0
LINE
8
0
6
CONTINUOUS
10
0.112008
20
-0.075268
30
0.0
11
0.116672
21
-0.075707
31
0.0
0
LINE
8
0
6
CONTINUOUS
10
0.107597
20
-0.076406
30
0.0
11
0.108938
21
-0.075770
31
0.0
0
LINE
8
0
6
CONTINUOUS
10
0.109018
20
-0.075473
30
0.0
11
0.107459
21
-0.076156
31
0.0
0
LINE
8
0
6
CONTINUOUS
10
0.106341
20
-0.077243
30
0.0
11
0.107597
21
-0.076406
31
0.0
0
LINE
8
0
6
CONTINUOUS
10
0.107459
20
-0.076156
30
0.0
11
0.106107
21
-0.077060
31
0.0
0
LINE
8
0
6
CONTINUOUS
10
0.105390
20
-0.078330
30
0.0
11
0.106341
21
-0.077243
31
0.0
0
LINE
8
0
6
CONTINUOUS
10
0.106107
20
-0.077060
30
0.0
11
0.105108
21
-0.078168
31
0.0
0
LINE
8
0
6
CONTINUOUS
10
0.105108
20
-0.078168
30
0.0
11
0.104250
21
-0.079039
31
0.0
0
LINE
8
0
6
CONTINUOUS
10
0.108938
20
-0.075770
30
0.0
11
0.112008
21
-0.075268
31
0.0
0
LINE
8
0
6
CONTINUOUS
10
0.118715
20
-0.075216
30
0.0
11
0.116659
21
-0.075216
31
0.0
0
LINE
8
0
6
CONTINUOUS
10
0.119773
20
-0.077160
30
0.0
11
0.119818
21
-0.076144
31
0.0
0
LINE
8
0
6
CONTINUOUS
10
0.119575
20
-0.077160
30
0.0
11
0.119773
21
-0.077160
31
0.0
0
LINE
8
0
6
CONTINUOUS
10
0.118656
20
-0.077160
30
0.0
11
0.119248
21
-0.077160
31
0.0
0
LINE
8
0
6
CONTINUOUS
10
0.118728
20
-0.075707
30
0.0
11
0.119396
21
-0.075707
31
0.0
0
LINE
8
0
6
CONTINUOUS
10
0.119389
20
-0.077511
30
0.0
11
0.118720
21
-0.077247
31
0.0
0
LINE
8
0
6
CONTINUOUS
10
0.116650
20
-0.077498
30
0.0
11
0.119389
21
-0.077511
31
0.0
0
LINE
8
0
6
CONTINUOUS
10
0.119822
20
-0.075216
30
0.0
11
0.118715
21
-0.075216
31
0.0
0
LINE
8
0
6
CONTINUOUS
10
0.118727
20
-0.075579
30
0.0
11
0.119495
21
-0.075579
31
0.0
0
LINE
8
0
6
CONTINUOUS
10
0.119822
20
-0.075216
30
0.0
11
0.119495
21
-0.075579
31
0.0
0
LINE
8
0
6
CONTINUOUS
10
0.119818
20
-0.076144
30
0.0
11
0.119822
21
-0.075216
31
0.0
0
LINE
8
0
6
CONTINUOUS
10
0.118656
20
-0.077160
30
0.0
11
0.118727
21
-0.076144
31
0.0
0
LINE
8
0
6
CONTINUOUS
10
0.118727
20
-0.076144
30
0.0
11
0.118728
21
-0.075707
31
0.0
0
LINE
8
0
6
CONTINUOUS
10
0.116672
20
-0.075707
30
0.0
11
0.118728
21
-0.075707
31
0.0
0
LINE
8
0
6
CONTINUOUS
10
0.118656
20
-0.077160
30
0.0
11
0.116612
21
-0.077160
31
0.0
0
LINE
8
0
6
CONTINUOUS
10
0.119248
20
-0.077160
30
0.0
11
0.119575
21
-0.077160
31
0.0
0
LINE
8
0
6
CONTINUOUS
10
0.109278
20
-0.078460
30
0.0
11
0.111971
21
-0.077638
31
0.0
0
LINE
8
0
6
CONTINUOUS
10
0.112119
20
-0.077458
30
0.0
11
0.108948
21
-0.077952
31
0.0
0
LINE
8
0
6
CONTINUOUS
10
0.119495
20
-0.075579
30
0.0
11
0.119396
21
-0.075707
31
0.0
0
LINE
8
0
6
CONTINUOUS
10
0.119396
20
-0.075707
30
0.0
11
0.119394
21
-0.076144
31
0.0
0
LINE
8
0
6
CONTINUOUS
10
0.112303
20
-0.074769
30
0.0
11
0.109386
21
-0.075197
31
0.0
0
LINE
8
0
6
CONTINUOUS
10
0.109018
20
-0.075473
30
0.0
11
0.112013
21
-0.075058
31
0.0
0
LINE
8
0
6
CONTINUOUS
10
0.106244
20
-0.079901
30
0.0
11
0.100712
21
-0.100480
31
0.0
0
LINE
8
0
6
CONTINUOUS
10
0.100941
20
-0.103319
30
0.0
11
0.107089
21
-0.080363
31
0.0
0
LINE
8
0
6
CONTINUOUS
10
0.106815
20
-0.080182
30
0.0
11
0.100816
21
-0.102706
31
0.0
0
LINE
8
0
6
CONTINUOUS
10
0.104250
20
-0.079039
30
0.0
11
0.104123
21
-0.078979
31
0.0
0
LINE
8
0
6
CONTINUOUS
10
0.100680
20
-0.091635
30
0.0
11
0.104250
21
-0.079039
31
0.0
0
LINE
8
0
6
CONTINUOUS
10
0.104123
20
-0.078979
30
0.0
11
0.100815
21
-0.090509
31
0.0
0
LINE
8
0
6
CONTINUOUS
10
0.100641
20
-0.096435
30
0.0
11
0.105094
21
-0.079361
31
0.0
0
LINE
8
0
6
CONTINUOUS
10
-0.110839
20
0.091733
30
0.0
11
-0.112991
21
0.087918
31
0.0
0
LINE
8
0
6
CONTINUOUS
10
-0.113237
20
0.087482
30
0.0
11
-0.112755
21
0.087212
31
0.0
0
LINE
8
0
6
CONTINUOUS
10
-0.112991
20
0.087918
30
0.0
11
-0.113237
21
0.087482
31
0.0
0
LINE
8
0
6
CONTINUOUS
10
-0.111357
20
0.086426
30
0.0
11
-0.112755
21
0.087212
31
0.0
0
LINE
8
0
6
CONTINUOUS
10
-0.109179
20
0.085202
30
0.0
11
-0.111357
21
0.086426
31
0.0
0
LINE
8
0
6
CONTINUOUS
10
-0.106434
20
0.083660
30
0.0
11
-0.109179
21
0.085202
31
0.0
0
LINE
8
0
6
CONTINUOUS
10
-0.103392
20
0.081951
30
0.0
11
-0.106434
21
0.083660
31
0.0
0
LINE
8
0
6
CONTINUOUS
10
0.083711
20
0.102006
30
0.0
11
0.087948
21
0.102006
31
0.0
0
LINE
8
0
6
CONTINUOUS
10
0.087948
20
0.102006
30
0.0
11
0.091583
21
0.102006
31
0.0
0
LINE
8
0
6
CONTINUOUS
10
0.074508
20
0.102006
30
0.0
11
0.079177
21
0.102006
31
0.0
0
LINE
8
0
6
CONTINUOUS
10
0.091583
20
0.102006
30
0.0
11
0.094366
21
0.102006
31
0.0
0
LINE
8
0
6
CONTINUOUS
10
0.096704
20
0.102006
30
0.0
11
0.096704
21
0.103802
31
0.0
0
LINE
8
0
6
CONTINUOUS
10
0.096111
20
0.102006
30
0.0
11
0.096704
21
0.102006
31
0.0
0
LINE
8
0
6
CONTINUOUS
10
0.079177
20
0.102006
30
0.0
11
0.083711
21
0.102006
31
0.0
0
LINE
8
0
6
CONTINUOUS
10
0.094366
20
0.102006
30
0.0
11
0.096111
21
0.102006
31
0.0
0
LINE
8
0
6
CONTINUOUS
10
-0.093541
20
0.076104
30
0.0
11
-0.093296
21
0.076539
31
0.0
0
LINE
8
0
6
CONTINUOUS
10
-0.094022
20
0.076374
30
0.0
11
-0.093541
21
0.076104
31
0.0
0
LINE
8
0
6
CONTINUOUS
10
-0.094022
20
0.076374
30
0.0
11
-0.095417
21
0.077160
31
0.0
0
LINE
8
0
6
CONTINUOUS
10
-0.097590
20
0.078384
30
0.0
11
-0.095417
21
0.077160
31
0.0
0
LINE
8
0
6
CONTINUOUS
10
-0.097590
20
0.078384
30
0.0
11
-0.100329
21
0.079925
31
0.0
0
LINE
8
0
6
CONTINUOUS
10
-0.100329
20
0.079925
30
0.0
11
-0.103365
21
0.081635
31
0.0
0
LINE
8
0
6
CONTINUOUS
10
-0.103365
20
0.081635
30
0.0
11
-0.106400
21
0.083344
31
0.0
0
LINE
8
0
6
CONTINUOUS
10
-0.109139
20
0.084886
30
0.0
11
-0.106400
21
0.083344
31
0.0
0
LINE
8
0
6
CONTINUOUS
10
-0.111312
20
0.086109
30
0.0
11
-0.109139
21
0.084886
31
0.0
0
LINE
8
0
6
CONTINUOUS
10
-0.111312
20
0.086109
30
0.0
11
-0.112708
21
0.086895
31
0.0
0
LINE
8
0
6
CONTINUOUS
10
-0.113064
20
0.087386
30
0.0
11
-0.113188
21
0.087165
31
0.0
0
LINE
8
0
6
CONTINUOUS
10
-0.112708
20
0.086895
30
0.0
11
-0.113188
21
0.087165
31
0.0
0
LINE
8
0
6
CONTINUOUS
10
-0.093296
20
0.076539
30
0.0
11
-0.091324
21
0.080041
31
0.0
0
LINE
8
0
6
CONTINUOUS
10
-0.086687
20
0.078597
30
0.0
11
-0.084510
21
0.078445
31
0.0
0
LINE
8
0
6
CONTINUOUS
10
0.056908
20
0.065446
30
0.0
11
0.057890
21
0.059325
31
0.0
0
LINE
8
0
6
CONTINUOUS
10
0.042972
20
0.075618
30
0.0
11
0.048494
21
0.074058
31
0.0
0
LINE
8
0
6
CONTINUOUS
10
0.048494
20
0.074058
30
0.0
11
0.053730
21
0.070689
31
0.0
0
LINE
8
0
6
CONTINUOUS
10
0.053730
20
0.070689
30
0.0
11
0.056908
21
0.065446
31
0.0
0
LINE
8
0
6
CONTINUOUS
10
0.057479
20
0.053119
30
0.0
11
0.055454
21
-0.153000
31
0.0
0
LINE
8
0
6
CONTINUOUS
10
0.098802
20
0.076492
30
0.0
11
0.098555
21
0.085894
31
0.0
0
LINE
8
0
6
CONTINUOUS
10
0.099386
20
0.054341
30
0.0
11
0.099050
21
0.067089
31
0.0
0
LINE
8
0
6
CONTINUOUS
10
0.099050
20
0.067089
30
0.0
11
0.098802
21
0.076492
31
0.0
0
LINE
8
0
6
CONTINUOUS
10
0.101431
20
-0.153000
30
0.0
11
0.100939
21
-0.103135
31
0.0
0
LINE
8
0
6
CONTINUOUS
10
0.100816
20
-0.090618
30
0.0
11
0.099386
21
0.054341
31
0.0
0
LINE
8
0
6
CONTINUOUS
10
0.098307
20
0.095297
30
0.0
11
0.098147
21
0.101354
31
0.0
0
LINE
8
0
6
CONTINUOUS
10
0.098555
20
0.085894
30
0.0
11
0.098307
21
0.095297
31
0.0
0
LINE
8
0
6
CONTINUOUS
10
-0.112590
20
0.093062
30
0.0
11
-0.107908
21
0.089510
31
0.0
0
LINE
8
0
6
CONTINUOUS
10
-0.111628
20
0.092772
30
0.0
11
-0.106361
21
0.088892
31
0.0
0
LINE
8
0
6
CONTINUOUS
10
-0.093657
20
0.081689
30
0.0
11
-0.091215
21
0.080236
31
0.0
0
LINE
8
0
6
CONTINUOUS
10
-0.100449
20
0.085416
30
0.0
11
-0.097812
21
0.084008
31
0.0
0
LINE
8
0
6
CONTINUOUS
10
-0.107908
20
0.089510
30
0.0
11
-0.103078
21
0.086523
31
0.0
0
LINE
8
0
6
CONTINUOUS
10
-0.106361
20
0.088892
30
0.0
11
-0.100449
21
0.085416
31
0.0
0
LINE
8
0
6
CONTINUOUS
10
-0.116558
20
0.096945
30
0.0
11
-0.112590
21
0.093062
31
0.0
0
LINE
8
0
6
CONTINUOUS
10
-0.115785
20
0.096769
30
0.0
11
-0.111628
21
0.092772
31
0.0
0
LINE
8
0
6
CONTINUOUS
10
-0.091324
20
0.080041
30
0.0
11
-0.089650
21
0.079095
31
0.0
0
LINE
8
0
6
CONTINUOUS
10
-0.089650
20
0.079095
30
0.0
11
-0.086687
21
0.078597
31
0.0
0
LINE
8
0
6
CONTINUOUS
10
-0.119182
20
0.101013
30
0.0
11
-0.116558
21
0.096945
31
0.0
0
LINE
8
0
6
CONTINUOUS
10
-0.115785
20
0.096769
30
0.0
11
-0.118558
21
0.101019
31
0.0
0
LINE
8
0
6
CONTINUOUS
10
0.079234
20
0.102006
30
0.0
11
0.058674
21
0.102006
31
0.0
0
LINE
8
0
6
CONTINUOUS
10
0.097523
20
0.102006
30
0.0
11
0.095625
21
0.102006
31
0.0
0
LINE
8
0
6
CONTINUOUS
10
0.088666
20
0.102006
30
0.0
11
0.084079
21
0.102006
31
0.0
0
LINE
8
0
6
CONTINUOUS
10
0.092604
20
0.102006
30
0.0
11
0.088666
21
0.102006
31
0.0
0
LINE
8
0
6
CONTINUOUS
10
0.095625
20
0.102006
30
0.0
11
0.092604
21
0.102006
31
0.0
0
LINE
8
0
6
CONTINUOUS
10
0.084079
20
0.102006
30
0.0
11
0.079234
21
0.102006
31
0.0
0
LINE
8
0
6
CONTINUOUS
10
0.098114
20
0.102006
30
0.0
11
0.097523
21
0.102006
31
0.0
0
LINE
8
0
6
CONTINUOUS
10
0.098147
20
0.101354
30
0.0
11
0.098114
21
0.102006
31
0.0
0
LINE
8
0
6
CONTINUOUS
10
-0.119204
20
0.102006
30
0.0
11
-0.119822
21
0.102006
31
0.0
0
LINE
8
0
6
CONTINUOUS
10
-0.119822
20
0.102006
30
0.0
11
-0.119182
21
0.101013
31
0.0
0
LINE
8
0
6
CONTINUOUS
10
-0.116826
20
0.102006
30
0.0
11
-0.119204
21
0.102006
31
0.0
0
LINE
8
0
6
CONTINUOUS
10
-0.119204
20
0.102006
30
0.0
11
-0.118558
21
0.101019
31
0.0
0
LINE
8
0
6
CONTINUOUS
10
0.058674
20
0.102006
30
0.0
11
-0.114643
21
0.102006
31
0.0
0
LINE
8
0
6
CONTINUOUS
10
-0.114643
20
0.102006
30
0.0
11
-0.116826
21
0.102006
31
0.0
0
LINE
8
0
6
CONTINUOUS
10
-0.084510
20
0.078445
30
0.0
11
0.042972
21
0.075618
31
0.0
0
LINE
8
0
6
CONTINUOUS
10
0.057890
20
0.059325
30
0.0
11
0.057479
21
0.053119
31
0.0
0
LINE
8
0
6
CONTINUOUS
10
0.062184
20
-0.154000
30
0.0
11
0.058527
21
-0.154000
31
0.0
0
LINE
8
0
6
CONTINUOUS
10
0.066950
20
-0.154000
30
0.0
11
0.062184
21
-0.154000
31
0.0
0
LINE
8
0
6
CONTINUOUS
10
0.055454
20
-0.153000
30
0.0
11
0.055444
21
-0.154000
31
0.0
0
LINE
8
0
6
CONTINUOUS
10
0.056228
20
-0.154000
30
0.0
11
0.055444
21
-0.154000
31
0.0
0
LINE
8
0
6
CONTINUOUS
10
0.058527
20
-0.154000
30
0.0
11
0.056228
21
-0.154000
31
0.0
0
LINE
8
0
6
CONTINUOUS
10
0.072499
20
-0.154000
30
0.0
11
0.066950
21
-0.154000
31
0.0
0
LINE
8
0
6
CONTINUOUS
10
0.100602
20
-0.154000
30
0.0
11
0.098304
21
-0.154000
31
0.0
0
LINE
8
0
6
CONTINUOUS
10
0.101444
20
-0.154000
30
0.0
11
0.101431
21
-0.153000
31
0.0
0
LINE
8
0
6
CONTINUOUS
10
0.101444
20
-0.154000
30
0.0
11
0.100602
21
-0.154000
31
0.0
0
LINE
8
0
6
CONTINUOUS
10
0.084321
20
-0.154000
30
0.0
11
0.078454
21
-0.154000
31
0.0
0
LINE
8
0
6
CONTINUOUS
10
0.098304
20
-0.154000
30
0.0
11
0.094645
21
-0.154000
31
0.0
0
LINE
8
0
6
CONTINUOUS
10
0.089876
20
-0.154000
30
0.0
11
0.094645
21
-0.154000
31
0.0
0
LINE
8
0
6
CONTINUOUS
10
0.089876
20
-0.154000
30
0.0
11
0.084321
21
-0.154000
31
0.0
0
LINE
8
0
6
CONTINUOUS
10
0.078454
20
-0.154000
30
0.0
11
0.072499
21
-0.154000
31
0.0
0
LINE
8
0
6
CONTINUOUS
10
-0.102204
20
0.086155
30
0.0
11
-0.101268
21
0.085717
31
0.0
0
LINE
8
0
6
CONTINUOUS
10
-0.103410
20
0.086762
30
0.0
11
-0.102204
21
0.086155
31
0.0
0
LINE
8
0
6
CONTINUOUS
10
0.100642
20
-0.093871
30
0.0
11
0.100648
21
-0.093497
31
0.0
0
LINE
8
0
6
CONTINUOUS
10
0.100712
20
-0.100480
30
0.0
11
0.100680
21
-0.098283
31
0.0
0
LINE
8
0
6
CONTINUOUS
10
0.100680
20
-0.098283
30
0.0
11
0.100641
21
-0.096435
31
0.0
0
LINE
8
0
6
CONTINUOUS
10
0.100749
20
-0.101148
30
0.0
11
0.100712
21
-0.100480
31
0.0
0
LINE
8
0
6
CONTINUOUS
10
0.100641
20
-0.096435
30
0.0
11
0.100644
21
-0.095505
31
0.0
0
LINE
8
0
6
CONTINUOUS
10
0.100648
20
-0.093497
30
0.0
11
0.100659
21
-0.092699
31
0.0
0
LINE
8
0
6
CONTINUOUS
10
0.100900
20
-0.103035
30
0.0
11
0.100816
21
-0.102706
31
0.0
0
LINE
8
0
6
CONTINUOUS
10
0.100659
20
-0.092699
30
0.0
11
0.100680
21
-0.091635
31
0.0
0
LINE
8
0
6
CONTINUOUS
10
0.100816
20
-0.102706
30
0.0
11
0.100786
21
-0.101870
31
0.0
0
LINE
8
0
6
CONTINUOUS
10
0.100939
20
-0.103135
30
0.0
11
0.100900
21
-0.103035
31
0.0
0
LINE
8
0
6
CONTINUOUS
10
0.100786
20
-0.101870
30
0.0
11
0.100749
21
-0.101148
31
0.0
0
LINE
8
0
6
CONTINUOUS
10
0.100792
20
-0.090901
30
0.0
11
0.100680
21
-0.091635
31
0.0
0
LINE
8
0
6
CONTINUOUS
10
0.100792
20
-0.090901
30
0.0
11
0.100816
21
-0.090618
31
0.0
0
ENDSEC
0
EOF
