999
Erzeugt mit innoplus bad 
0
SECTION
2
HEADER
9
$ACADVER
1
AC1009
9
$DWGCODEPAGE
3
ISO8859-1
0
ENDSEC
0
SECTION
2
TABLES
0
TABLE
2
LAYER
70
1
0
LAYER
2
0
70
0
62
7
6
CONTINUOUS
0
ENDTAB
0
ENDSEC
0
SECTION
2
ENTITIES
0
LINE
8
0
6
CONTINUOUS
10
0.017496
20
0.102002
30
0.0
11
0.017496
21
0.103802
31
0.0
0
LINE
8
0
6
CONTINUOUS
10
-0.017496
20
0.103802
30
0.0
11
-0.017496
21
0.102002
31
0.0
0
LINE
8
0
6
CONTINUOUS
10
-0.016455
20
0.154000
30
0.0
11
-0.018353
21
0.154000
31
0.0
0
LINE
8
0
6
CONTINUOUS
10
-0.009500
20
0.154000
30
0.0
11
-0.013435
21
0.154000
31
0.0
0
LINE
8
0
6
CONTINUOUS
10
-0.019000
20
0.154000
30
0.0
11
-0.019000
21
0.153610
31
0.0
0
LINE
8
0
6
CONTINUOUS
10
-0.018353
20
0.154000
30
0.0
11
-0.019000
21
0.154000
31
0.0
0
LINE
8
0
6
CONTINUOUS
10
-0.013435
20
0.154000
30
0.0
11
-0.016455
21
0.154000
31
0.0
0
LINE
8
0
6
CONTINUOUS
10
-0.004918
20
0.154000
30
0.0
11
-0.009500
21
0.154000
31
0.0
0
LINE
8
0
6
CONTINUOUS
10
-0.019000
20
0.153610
30
0.0
11
-0.019000
21
0.128901
31
0.0
0
LINE
8
0
6
CONTINUOUS
10
0.000000
20
0.154000
30
0.0
11
-0.004918
21
0.154000
31
0.0
0
LINE
8
0
6
CONTINUOUS
10
0.000000
20
0.144949
30
0.0
11
-0.000697
21
0.144994
31
0.0
0
LINE
8
0
6
CONTINUOUS
10
-0.001577
20
0.145289
30
0.0
11
-0.001063
21
0.145017
31
0.0
0
LINE
8
0
6
CONTINUOUS
10
-0.001577
20
0.145289
30
0.0
11
-0.004601
21
0.147386
31
0.0
0
LINE
8
0
6
CONTINUOUS
10
-0.004601
20
0.147386
30
0.0
11
-0.001550
21
0.147268
31
0.0
0
LINE
8
0
6
CONTINUOUS
10
-0.000690
20
0.150142
30
0.0
11
-0.001062
21
0.150139
31
0.0
0
LINE
8
0
6
CONTINUOUS
10
-0.001062
20
0.144509
30
0.0
11
-0.001050
21
0.128924
31
0.0
0
LINE
8
0
6
CONTINUOUS
10
-0.001063
20
0.145017
30
0.0
11
-0.001062
21
0.144509
31
0.0
0
LINE
8
0
6
CONTINUOUS
10
-0.001073
20
0.145622
30
0.0
11
-0.001063
21
0.145017
31
0.0
0
LINE
8
0
6
CONTINUOUS
10
-0.001063
20
0.145017
30
0.0
11
-0.000697
21
0.144994
31
0.0
0
LINE
8
0
6
CONTINUOUS
10
-0.004918
20
0.147015
30
0.0
11
-0.004918
21
0.146445
31
0.0
0
LINE
8
0
6
CONTINUOUS
10
-0.004918
20
0.147585
30
0.0
11
-0.004918
21
0.147015
31
0.0
0
LINE
8
0
6
CONTINUOUS
10
0.000000
20
0.150148
30
0.0
11
-0.000690
21
0.150142
31
0.0
0
LINE
8
0
6
CONTINUOUS
10
-0.004918
20
0.147705
30
0.0
11
-0.004918
21
0.147585
31
0.0
0
LINE
8
0
6
CONTINUOUS
10
-0.004290
20
0.150110
30
0.0
11
-0.004918
21
0.150104
31
0.0
0
LINE
8
0
6
CONTINUOUS
10
-0.004918
20
0.150104
30
0.0
11
-0.004918
21
0.149949
31
0.0
0
LINE
8
0
6
CONTINUOUS
10
-0.001540
20
0.150134
30
0.0
11
-0.004290
21
0.150110
31
0.0
0
LINE
8
0
6
CONTINUOUS
10
-0.001062
20
0.150139
30
0.0
11
-0.001540
21
0.150134
31
0.0
0
LINE
8
0
6
CONTINUOUS
10
-0.004918
20
0.148827
30
0.0
11
-0.004918
21
0.147705
31
0.0
0
LINE
8
0
6
CONTINUOUS
10
-0.004448
20
0.148731
30
0.0
11
-0.004918
21
0.147705
31
0.0
0
LINE
8
0
6
CONTINUOUS
10
-0.004918
20
0.149949
30
0.0
11
-0.004918
21
0.148827
31
0.0
0
LINE
8
0
6
CONTINUOUS
10
-0.004448
20
0.148731
30
0.0
11
-0.004573
21
0.147632
31
0.0
0
LINE
8
0
6
CONTINUOUS
10
-0.001548
20
0.148010
30
0.0
11
-0.004573
21
0.147632
31
0.0
0
LINE
8
0
6
CONTINUOUS
10
-0.004573
20
0.147632
30
0.0
11
-0.001550
21
0.147268
31
0.0
0
LINE
8
0
6
CONTINUOUS
10
-0.004918
20
0.146445
30
0.0
11
-0.004918
21
0.128901
31
0.0
0
LINE
8
0
6
CONTINUOUS
10
-0.018353
20
0.103802
30
0.0
11
-0.016455
21
0.103802
31
0.0
0
LINE
8
0
6
CONTINUOUS
10
-0.013435
20
0.103802
30
0.0
11
-0.009500
21
0.103802
31
0.0
0
LINE
8
0
6
CONTINUOUS
10
-0.019000
20
0.103802
30
0.0
11
-0.018353
21
0.103802
31
0.0
0
LINE
8
0
6
CONTINUOUS
10
-0.019000
20
0.104193
30
0.0
11
-0.019000
21
0.103802
31
0.0
0
LINE
8
0
6
CONTINUOUS
10
-0.016455
20
0.103802
30
0.0
11
-0.013435
21
0.103802
31
0.0
0
LINE
8
0
6
CONTINUOUS
10
-0.009500
20
0.103802
30
0.0
11
-0.004918
21
0.103802
31
0.0
0
LINE
8
0
6
CONTINUOUS
10
-0.019000
20
0.128901
30
0.0
11
-0.019000
21
0.104193
31
0.0
0
LINE
8
0
6
CONTINUOUS
10
-0.004918
20
0.103802
30
0.0
11
0.000000
21
0.103802
31
0.0
0
LINE
8
0
6
CONTINUOUS
10
-0.000697
20
0.112809
30
0.0
11
0.000000
21
0.112853
31
0.0
0
LINE
8
0
6
CONTINUOUS
10
-0.001063
20
0.112785
30
0.0
11
-0.001577
21
0.112513
31
0.0
0
LINE
8
0
6
CONTINUOUS
10
-0.001577
20
0.112513
30
0.0
11
-0.004601
21
0.110416
31
0.0
0
LINE
8
0
6
CONTINUOUS
10
-0.004601
20
0.110416
30
0.0
11
-0.001550
21
0.110534
31
0.0
0
LINE
8
0
6
CONTINUOUS
10
-0.001062
20
0.107664
30
0.0
11
-0.000690
21
0.107660
31
0.0
0
LINE
8
0
6
CONTINUOUS
10
-0.001050
20
0.128901
30
0.0
11
-0.001062
21
0.113293
31
0.0
0
LINE
8
0
6
CONTINUOUS
10
-0.001062
20
0.113293
30
0.0
11
-0.001063
21
0.112785
31
0.0
0
LINE
8
0
6
CONTINUOUS
10
-0.000697
20
0.112809
30
0.0
11
-0.001063
21
0.112785
31
0.0
0
LINE
8
0
6
CONTINUOUS
10
-0.001063
20
0.112785
30
0.0
11
-0.001073
21
0.112180
31
0.0
0
LINE
8
0
6
CONTINUOUS
10
-0.004918
20
0.111357
30
0.0
11
-0.004918
21
0.110788
31
0.0
0
LINE
8
0
6
CONTINUOUS
10
-0.004918
20
0.110788
30
0.0
11
-0.004918
21
0.110217
31
0.0
0
LINE
8
0
6
CONTINUOUS
10
-0.000690
20
0.107660
30
0.0
11
0.000000
21
0.107654
31
0.0
0
LINE
8
0
6
CONTINUOUS
10
-0.004918
20
0.110217
30
0.0
11
-0.004918
21
0.110097
31
0.0
0
LINE
8
0
6
CONTINUOUS
10
-0.004918
20
0.107853
30
0.0
11
-0.004918
21
0.107698
31
0.0
0
LINE
8
0
6
CONTINUOUS
10
-0.004918
20
0.107698
30
0.0
11
-0.004290
21
0.107692
31
0.0
0
LINE
8
0
6
CONTINUOUS
10
-0.004290
20
0.107692
30
0.0
11
-0.001540
21
0.107668
31
0.0
0
LINE
8
0
6
CONTINUOUS
10
-0.001540
20
0.107668
30
0.0
11
-0.001062
21
0.107664
31
0.0
0
LINE
8
0
6
CONTINUOUS
10
-0.004448
20
0.109071
30
0.0
11
-0.004918
21
0.110097
31
0.0
0
LINE
8
0
6
CONTINUOUS
10
-0.004918
20
0.110097
30
0.0
11
-0.004918
21
0.108975
31
0.0
0
LINE
8
0
6
CONTINUOUS
10
-0.004918
20
0.108975
30
0.0
11
-0.004918
21
0.107853
31
0.0
0
LINE
8
0
6
CONTINUOUS
10
-0.001550
20
0.110534
30
0.0
11
-0.004573
21
0.110170
31
0.0
0
LINE
8
0
6
CONTINUOUS
10
-0.001548
20
0.109792
30
0.0
11
-0.004573
21
0.110170
31
0.0
0
LINE
8
0
6
CONTINUOUS
10
-0.004573
20
0.110170
30
0.0
11
-0.004448
21
0.109071
31
0.0
0
LINE
8
0
6
CONTINUOUS
10
-0.004918
20
0.128901
30
0.0
11
-0.004918
21
0.111357
31
0.0
0
LINE
8
0
6
CONTINUOUS
10
0.018353
20
0.154000
30
0.0
11
0.016455
21
0.154000
31
0.0
0
LINE
8
0
6
CONTINUOUS
10
0.013435
20
0.154000
30
0.0
11
0.009500
21
0.154000
31
0.0
0
LINE
8
0
6
CONTINUOUS
10
0.019000
20
0.154000
30
0.0
11
0.018353
21
0.154000
31
0.0
0
LINE
8
0
6
CONTINUOUS
10
0.019000
20
0.153610
30
0.0
11
0.019000
21
0.154000
31
0.0
0
LINE
8
0
6
CONTINUOUS
10
0.016455
20
0.154000
30
0.0
11
0.013435
21
0.154000
31
0.0
0
LINE
8
0
6
CONTINUOUS
10
0.009500
20
0.154000
30
0.0
11
0.004918
21
0.154000
31
0.0
0
LINE
8
0
6
CONTINUOUS
10
0.019000
20
0.128901
30
0.0
11
0.019000
21
0.153610
31
0.0
0
LINE
8
0
6
CONTINUOUS
10
0.004918
20
0.154000
30
0.0
11
0.000000
21
0.154000
31
0.0
0
LINE
8
0
6
CONTINUOUS
10
0.000000
20
0.145605
30
0.0
11
0.000000
21
0.144949
31
0.0
0
LINE
8
0
6
CONTINUOUS
10
0.000000
20
0.144949
30
0.0
11
0.000000
21
0.144445
31
0.0
0
LINE
8
0
6
CONTINUOUS
10
0.000697
20
0.144994
30
0.0
11
0.000000
21
0.144949
31
0.0
0
LINE
8
0
6
CONTINUOUS
10
0.000000
20
0.144445
30
0.0
11
0.000000
21
0.128931
31
0.0
0
LINE
8
0
6
CONTINUOUS
10
0.001063
20
0.145017
30
0.0
11
0.001577
21
0.145289
31
0.0
0
LINE
8
0
6
CONTINUOUS
10
0.001577
20
0.145289
30
0.0
11
0.004601
21
0.147386
31
0.0
0
LINE
8
0
6
CONTINUOUS
10
0.004601
20
0.147386
30
0.0
11
0.001550
21
0.147268
31
0.0
0
LINE
8
0
6
CONTINUOUS
10
0.001062
20
0.150139
30
0.0
11
0.000690
21
0.150142
31
0.0
0
LINE
8
0
6
CONTINUOUS
10
0.001050
20
0.128901
30
0.0
11
0.001062
21
0.144509
31
0.0
0
LINE
8
0
6
CONTINUOUS
10
0.001062
20
0.144509
30
0.0
11
0.001063
21
0.145017
31
0.0
0
LINE
8
0
6
CONTINUOUS
10
0.000697
20
0.144994
30
0.0
11
0.001063
21
0.145017
31
0.0
0
LINE
8
0
6
CONTINUOUS
10
0.001063
20
0.145017
30
0.0
11
0.001073
21
0.145622
31
0.0
0
LINE
8
0
6
CONTINUOUS
10
0.004918
20
0.146445
30
0.0
11
0.004918
21
0.147015
31
0.0
0
LINE
8
0
6
CONTINUOUS
10
0.004918
20
0.147015
30
0.0
11
0.004918
21
0.147585
31
0.0
0
LINE
8
0
6
CONTINUOUS
10
0.000690
20
0.150142
30
0.0
11
0.000000
21
0.150148
31
0.0
0
LINE
8
0
6
CONTINUOUS
10
0.004918
20
0.147585
30
0.0
11
0.004918
21
0.147705
31
0.0
0
LINE
8
0
6
CONTINUOUS
10
0.004918
20
0.149949
30
0.0
11
0.004918
21
0.150104
31
0.0
0
LINE
8
0
6
CONTINUOUS
10
0.004918
20
0.150104
30
0.0
11
0.004290
21
0.150110
31
0.0
0
LINE
8
0
6
CONTINUOUS
10
0.004290
20
0.150110
30
0.0
11
0.001540
21
0.150134
31
0.0
0
LINE
8
0
6
CONTINUOUS
10
0.001540
20
0.150134
30
0.0
11
0.001062
21
0.150139
31
0.0
0
LINE
8
0
6
CONTINUOUS
10
0.004448
20
0.148731
30
0.0
11
0.004918
21
0.147705
31
0.0
0
LINE
8
0
6
CONTINUOUS
10
0.004918
20
0.147705
30
0.0
11
0.004918
21
0.148827
31
0.0
0
LINE
8
0
6
CONTINUOUS
10
0.004918
20
0.148827
30
0.0
11
0.004918
21
0.149949
31
0.0
0
LINE
8
0
6
CONTINUOUS
10
0.001550
20
0.147268
30
0.0
11
0.004573
21
0.147632
31
0.0
0
LINE
8
0
6
CONTINUOUS
10
0.001548
20
0.148010
30
0.0
11
0.004573
21
0.147632
31
0.0
0
LINE
8
0
6
CONTINUOUS
10
0.004573
20
0.147632
30
0.0
11
0.004448
21
0.148731
31
0.0
0
LINE
8
0
6
CONTINUOUS
10
0.004918
20
0.128901
30
0.0
11
0.004918
21
0.146445
31
0.0
0
LINE
8
0
6
CONTINUOUS
10
0.016455
20
0.103802
30
0.0
11
0.018353
21
0.103802
31
0.0
0
LINE
8
0
6
CONTINUOUS
10
0.009500
20
0.103802
30
0.0
11
0.013435
21
0.103802
31
0.0
0
LINE
8
0
6
CONTINUOUS
10
0.019000
20
0.103802
30
0.0
11
0.019000
21
0.104193
31
0.0
0
LINE
8
0
6
CONTINUOUS
10
0.018353
20
0.103802
30
0.0
11
0.019000
21
0.103802
31
0.0
0
LINE
8
0
6
CONTINUOUS
10
0.013435
20
0.103802
30
0.0
11
0.016455
21
0.103802
31
0.0
0
LINE
8
0
6
CONTINUOUS
10
0.004918
20
0.103802
30
0.0
11
0.009500
21
0.103802
31
0.0
0
LINE
8
0
6
CONTINUOUS
10
0.019000
20
0.104193
30
0.0
11
0.019000
21
0.128901
31
0.0
0
LINE
8
0
6
CONTINUOUS
10
0.000000
20
0.103802
30
0.0
11
0.004918
21
0.103802
31
0.0
0
LINE
8
0
6
CONTINUOUS
10
0.000000
20
0.112853
30
0.0
11
0.000000
21
0.112197
31
0.0
0
LINE
8
0
6
CONTINUOUS
10
0.000000
20
0.112853
30
0.0
11
0.000697
21
0.112809
31
0.0
0
LINE
8
0
6
CONTINUOUS
10
0.000000
20
0.113358
30
0.0
11
0.000000
21
0.112853
31
0.0
0
LINE
8
0
6
CONTINUOUS
10
0.000000
20
0.128901
30
0.0
11
0.000000
21
0.113358
31
0.0
0
LINE
8
0
6
CONTINUOUS
10
0.001577
20
0.112513
30
0.0
11
0.001063
21
0.112785
31
0.0
0
LINE
8
0
6
CONTINUOUS
10
0.001577
20
0.112513
30
0.0
11
0.004601
21
0.110416
31
0.0
0
LINE
8
0
6
CONTINUOUS
10
0.004601
20
0.110416
30
0.0
11
0.001550
21
0.110534
31
0.0
0
LINE
8
0
6
CONTINUOUS
10
0.000690
20
0.107660
30
0.0
11
0.001062
21
0.107664
31
0.0
0
LINE
8
0
6
CONTINUOUS
10
0.001062
20
0.113293
30
0.0
11
0.001050
21
0.128878
31
0.0
0
LINE
8
0
6
CONTINUOUS
10
0.001063
20
0.112785
30
0.0
11
0.001062
21
0.113293
31
0.0
0
LINE
8
0
6
CONTINUOUS
10
0.001073
20
0.112180
30
0.0
11
0.001063
21
0.112785
31
0.0
0
LINE
8
0
6
CONTINUOUS
10
0.001063
20
0.112785
30
0.0
11
0.000697
21
0.112809
31
0.0
0
LINE
8
0
6
CONTINUOUS
10
0.004918
20
0.110788
30
0.0
11
0.004918
21
0.111357
31
0.0
0
LINE
8
0
6
CONTINUOUS
10
0.004918
20
0.110217
30
0.0
11
0.004918
21
0.110788
31
0.0
0
LINE
8
0
6
CONTINUOUS
10
0.000000
20
0.107654
30
0.0
11
0.000690
21
0.107660
31
0.0
0
LINE
8
0
6
CONTINUOUS
10
0.004918
20
0.110097
30
0.0
11
0.004918
21
0.110217
31
0.0
0
LINE
8
0
6
CONTINUOUS
10
0.004290
20
0.107692
30
0.0
11
0.004918
21
0.107698
31
0.0
0
LINE
8
0
6
CONTINUOUS
10
0.004918
20
0.107698
30
0.0
11
0.004918
21
0.107853
31
0.0
0
LINE
8
0
6
CONTINUOUS
10
0.001540
20
0.107668
30
0.0
11
0.004290
21
0.107692
31
0.0
0
LINE
8
0
6
CONTINUOUS
10
0.001062
20
0.107664
30
0.0
11
0.001540
21
0.107668
31
0.0
0
LINE
8
0
6
CONTINUOUS
10
0.004918
20
0.108975
30
0.0
11
0.004918
21
0.110097
31
0.0
0
LINE
8
0
6
CONTINUOUS
10
0.004448
20
0.109071
30
0.0
11
0.004918
21
0.110097
31
0.0
0
LINE
8
0
6
CONTINUOUS
10
0.004918
20
0.107853
30
0.0
11
0.004918
21
0.108975
31
0.0
0
LINE
8
0
6
CONTINUOUS
10
0.004448
20
0.109071
30
0.0
11
0.004573
21
0.110170
31
0.0
0
LINE
8
0
6
CONTINUOUS
10
0.001548
20
0.109792
30
0.0
11
0.004573
21
0.110170
31
0.0
0
LINE
8
0
6
CONTINUOUS
10
0.004573
20
0.110170
30
0.0
11
0.001550
21
0.110534
31
0.0
0
LINE
8
0
6
CONTINUOUS
10
0.004918
20
0.111357
30
0.0
11
0.004918
21
0.128901
31
0.0
0
LINE
8
0
6
CONTINUOUS
10
-0.011273
20
0.085717
30
0.0
11
-0.011273
21
0.082387
31
0.0
0
LINE
8
0
6
CONTINUOUS
10
0.011274
20
0.082387
30
0.0
11
0.011274
21
0.085717
31
0.0
0
LINE
8
0
6
CONTINUOUS
10
-0.011273
20
0.081951
30
0.0
11
-0.011259
21
0.081908
31
0.0
0
LINE
8
0
6
CONTINUOUS
10
-0.011273
20
0.082387
30
0.0
11
-0.011273
21
0.081951
31
0.0
0
LINE
8
0
6
CONTINUOUS
10
-0.010721
20
0.083660
30
0.0
11
-0.011273
21
0.081951
31
0.0
0
LINE
8
0
6
CONTINUOUS
10
-0.009120
20
0.085202
30
0.0
11
-0.010721
21
0.083660
31
0.0
0
LINE
8
0
6
CONTINUOUS
10
-0.006626
20
0.086426
30
0.0
11
-0.009120
21
0.085202
31
0.0
0
LINE
8
0
6
CONTINUOUS
10
-0.003483
20
0.087212
30
0.0
11
-0.006626
21
0.086426
31
0.0
0
LINE
8
0
6
CONTINUOUS
10
0.000000
20
0.087482
30
0.0
11
-0.003483
21
0.087212
31
0.0
0
LINE
8
0
6
CONTINUOUS
10
0.003484
20
0.087212
30
0.0
11
0.000000
21
0.087482
31
0.0
0
LINE
8
0
6
CONTINUOUS
10
0.006627
20
0.086426
30
0.0
11
0.003484
21
0.087212
31
0.0
0
LINE
8
0
6
CONTINUOUS
10
0.009121
20
0.085202
30
0.0
11
0.006627
21
0.086426
31
0.0
0
LINE
8
0
6
CONTINUOUS
10
0.010722
20
0.083660
30
0.0
11
0.009121
21
0.085202
31
0.0
0
LINE
8
0
6
CONTINUOUS
10
0.011274
20
0.081951
30
0.0
11
0.011274
21
0.082387
31
0.0
0
LINE
8
0
6
CONTINUOUS
10
0.011274
20
0.081951
30
0.0
11
0.010722
21
0.083660
31
0.0
0
LINE
8
0
6
CONTINUOUS
10
0.011260
20
0.081906
30
0.0
11
0.011274
21
0.081951
31
0.0
0
LINE
8
0
6
CONTINUOUS
10
0.002586
20
0.078047
30
0.0
11
0.000000
21
0.077846
31
0.0
0
LINE
8
0
6
CONTINUOUS
10
0.004918
20
0.078630
30
0.0
11
0.002586
21
0.078047
31
0.0
0
LINE
8
0
6
CONTINUOUS
10
0.006769
20
0.079538
30
0.0
11
0.004918
21
0.078630
31
0.0
0
LINE
8
0
6
CONTINUOUS
10
0.007958
20
0.080683
30
0.0
11
0.006769
21
0.079538
31
0.0
0
LINE
8
0
6
CONTINUOUS
10
0.008367
20
0.081951
30
0.0
11
0.007958
21
0.080683
31
0.0
0
LINE
8
0
6
CONTINUOUS
10
-0.007957
20
0.080683
30
0.0
11
-0.008366
21
0.081951
31
0.0
0
LINE
8
0
6
CONTINUOUS
10
-0.006768
20
0.079538
30
0.0
11
-0.007957
21
0.080683
31
0.0
0
LINE
8
0
6
CONTINUOUS
10
-0.004917
20
0.078630
30
0.0
11
-0.006768
21
0.079538
31
0.0
0
LINE
8
0
6
CONTINUOUS
10
-0.002585
20
0.078047
30
0.0
11
-0.004917
21
0.078630
31
0.0
0
LINE
8
0
6
CONTINUOUS
10
0.000000
20
0.077846
30
0.0
11
-0.002585
21
0.078047
31
0.0
0
LINE
8
0
6
CONTINUOUS
10
-0.003484
20
0.076374
30
0.0
11
0.000000
21
0.076104
31
0.0
0
LINE
8
0
6
CONTINUOUS
10
-0.006627
20
0.077160
30
0.0
11
-0.003484
21
0.076374
31
0.0
0
LINE
8
0
6
CONTINUOUS
10
-0.009121
20
0.078384
30
0.0
11
-0.006627
21
0.077160
31
0.0
0
LINE
8
0
6
CONTINUOUS
10
-0.010722
20
0.079925
30
0.0
11
-0.009121
21
0.078384
31
0.0
0
LINE
8
0
6
CONTINUOUS
10
-0.011274
20
0.081635
30
0.0
11
-0.010722
21
0.079925
31
0.0
0
LINE
8
0
6
CONTINUOUS
10
-0.011274
20
0.082070
30
0.0
11
-0.011274
21
0.081635
31
0.0
0
LINE
8
0
6
CONTINUOUS
10
-0.010722
20
0.083344
30
0.0
11
-0.011274
21
0.081635
31
0.0
0
LINE
8
0
6
CONTINUOUS
10
-0.009121
20
0.084886
30
0.0
11
-0.010722
21
0.083344
31
0.0
0
LINE
8
0
6
CONTINUOUS
10
-0.006627
20
0.086109
30
0.0
11
-0.009121
21
0.084886
31
0.0
0
LINE
8
0
6
CONTINUOUS
10
-0.003484
20
0.086895
30
0.0
11
-0.006627
21
0.086109
31
0.0
0
LINE
8
0
6
CONTINUOUS
10
0.000000
20
0.087165
30
0.0
11
-0.003484
21
0.086895
31
0.0
0
LINE
8
0
6
CONTINUOUS
10
-0.002585
20
0.085538
30
0.0
11
0.000000
21
0.085739
31
0.0
0
LINE
8
0
6
CONTINUOUS
10
-0.004918
20
0.084955
30
0.0
11
-0.002585
21
0.085538
31
0.0
0
LINE
8
0
6
CONTINUOUS
10
-0.006769
20
0.084047
30
0.0
11
-0.004918
21
0.084955
31
0.0
0
LINE
8
0
6
CONTINUOUS
10
-0.007957
20
0.082903
30
0.0
11
-0.006769
21
0.084047
31
0.0
0
LINE
8
0
6
CONTINUOUS
10
-0.008367
20
0.081635
30
0.0
11
-0.007957
21
0.082903
31
0.0
0
LINE
8
0
6
CONTINUOUS
10
-0.007957
20
0.080366
30
0.0
11
-0.008367
21
0.081635
31
0.0
0
LINE
8
0
6
CONTINUOUS
10
-0.006769
20
0.079222
30
0.0
11
-0.007957
21
0.080366
31
0.0
0
LINE
8
0
6
CONTINUOUS
10
-0.004918
20
0.078314
30
0.0
11
-0.006769
21
0.079222
31
0.0
0
LINE
8
0
6
CONTINUOUS
10
-0.002585
20
0.077731
30
0.0
11
-0.004918
21
0.078314
31
0.0
0
LINE
8
0
6
CONTINUOUS
10
0.000000
20
0.077530
30
0.0
11
-0.002585
21
0.077731
31
0.0
0
LINE
8
0
6
CONTINUOUS
10
-0.019222
20
0.095416
30
0.0
11
-0.019544
21
0.085207
31
0.0
0
LINE
8
0
6
CONTINUOUS
10
-0.014753
20
0.088892
30
0.0
11
-0.015757
21
0.092772
31
0.0
0
LINE
8
0
6
CONTINUOUS
10
-0.011273
20
0.084561
30
0.0
11
-0.012409
21
0.085416
31
0.0
0
LINE
8
0
6
CONTINUOUS
10
-0.012409
20
0.085416
30
0.0
11
-0.014753
21
0.088892
31
0.0
0
LINE
8
0
6
CONTINUOUS
10
-0.015757
20
0.092772
30
0.0
11
-0.016358
21
0.096769
31
0.0
0
LINE
8
0
6
CONTINUOUS
10
-0.016759
20
0.101019
30
0.0
11
-0.016358
21
0.096769
31
0.0
0
LINE
8
0
6
CONTINUOUS
10
-0.019000
20
0.102006
30
0.0
11
-0.019034
21
0.101356
31
0.0
0
LINE
8
0
6
CONTINUOUS
10
-0.014454
20
0.102006
30
0.0
11
-0.016852
21
0.102006
31
0.0
0
LINE
8
0
6
CONTINUOUS
10
-0.016759
20
0.101019
30
0.0
11
-0.016852
21
0.102006
31
0.0
0
LINE
8
0
6
CONTINUOUS
10
-0.016852
20
0.102006
30
0.0
11
-0.017514
21
0.102006
31
0.0
0
LINE
8
0
6
CONTINUOUS
10
0.000000
20
0.102006
30
0.0
11
-0.012511
21
0.102006
31
0.0
0
LINE
8
0
6
CONTINUOUS
10
-0.017550
20
0.102006
30
0.0
11
-0.019000
21
0.102006
31
0.0
0
LINE
8
0
6
CONTINUOUS
10
-0.019034
20
0.101356
30
0.0
11
-0.019222
21
0.095416
31
0.0
0
LINE
8
0
6
CONTINUOUS
10
-0.012511
20
0.102006
30
0.0
11
-0.014454
21
0.102006
31
0.0
0
LINE
8
0
6
CONTINUOUS
10
-0.019866
20
0.074999
30
0.0
11
-0.020194
21
0.064610
31
0.0
0
LINE
8
0
6
CONTINUOUS
10
-0.019544
20
0.085207
30
0.0
11
-0.019866
21
0.074999
31
0.0
0
LINE
8
0
6
CONTINUOUS
10
-0.020194
20
0.064610
30
0.0
11
-0.020510
21
0.054581
31
0.0
0
LINE
8
0
6
CONTINUOUS
10
-0.020510
20
0.054581
30
0.0
11
-0.022968
21
-0.153001
31
0.0
0
LINE
8
0
6
CONTINUOUS
10
0.000000
20
0.076104
30
0.0
11
0.003484
21
0.076374
31
0.0
0
LINE
8
0
6
CONTINUOUS
10
0.003484
20
0.076374
30
0.0
11
0.006627
21
0.077160
31
0.0
0
LINE
8
0
6
CONTINUOUS
10
0.006627
20
0.077160
30
0.0
11
0.009121
21
0.078384
31
0.0
0
LINE
8
0
6
CONTINUOUS
10
0.009121
20
0.078384
30
0.0
11
0.010722
21
0.079925
31
0.0
0
LINE
8
0
6
CONTINUOUS
10
0.010722
20
0.079925
30
0.0
11
0.011274
21
0.081635
31
0.0
0
LINE
8
0
6
CONTINUOUS
10
0.011274
20
0.081635
30
0.0
11
0.011274
21
0.082070
31
0.0
0
LINE
8
0
6
CONTINUOUS
10
0.011274
20
0.081635
30
0.0
11
0.010722
21
0.083344
31
0.0
0
LINE
8
0
6
CONTINUOUS
10
0.010722
20
0.083344
30
0.0
11
0.009121
21
0.084886
31
0.0
0
LINE
8
0
6
CONTINUOUS
10
0.009121
20
0.084886
30
0.0
11
0.006627
21
0.086109
31
0.0
0
LINE
8
0
6
CONTINUOUS
10
0.006627
20
0.086109
30
0.0
11
0.003484
21
0.086895
31
0.0
0
LINE
8
0
6
CONTINUOUS
10
0.003484
20
0.086895
30
0.0
11
0.000000
21
0.087165
31
0.0
0
LINE
8
0
6
CONTINUOUS
10
0.000000
20
0.085739
30
0.0
11
0.002585
21
0.085538
31
0.0
0
LINE
8
0
6
CONTINUOUS
10
0.002585
20
0.085538
30
0.0
11
0.004918
21
0.084955
31
0.0
0
LINE
8
0
6
CONTINUOUS
10
0.004918
20
0.084955
30
0.0
11
0.006769
21
0.084047
31
0.0
0
LINE
8
0
6
CONTINUOUS
10
0.006769
20
0.084047
30
0.0
11
0.007957
21
0.082903
31
0.0
0
LINE
8
0
6
CONTINUOUS
10
0.007957
20
0.082903
30
0.0
11
0.008367
21
0.081635
31
0.0
0
LINE
8
0
6
CONTINUOUS
10
0.008367
20
0.081635
30
0.0
11
0.007957
21
0.080366
31
0.0
0
LINE
8
0
6
CONTINUOUS
10
0.007957
20
0.080366
30
0.0
11
0.006769
21
0.079222
31
0.0
0
LINE
8
0
6
CONTINUOUS
10
0.006769
20
0.079222
30
0.0
11
0.004918
21
0.078314
31
0.0
0
LINE
8
0
6
CONTINUOUS
10
0.004918
20
0.078314
30
0.0
11
0.002585
21
0.077731
31
0.0
0
LINE
8
0
6
CONTINUOUS
10
0.002585
20
0.077731
30
0.0
11
0.000000
21
0.077530
31
0.0
0
LINE
8
0
6
CONTINUOUS
10
0.000000
20
0.065446
30
0.0
11
0.000000
21
0.059325
31
0.0
0
LINE
8
0
6
CONTINUOUS
10
0.000000
20
0.075618
30
0.0
11
0.000000
21
0.074058
31
0.0
0
LINE
8
0
6
CONTINUOUS
10
0.000000
20
0.074058
30
0.0
11
0.000000
21
0.070689
31
0.0
0
LINE
8
0
6
CONTINUOUS
10
0.000000
20
0.070689
30
0.0
11
0.000000
21
0.065446
31
0.0
0
LINE
8
0
6
CONTINUOUS
10
0.000000
20
0.053119
30
0.0
11
0.000000
21
-0.153000
31
0.0
0
LINE
8
0
6
CONTINUOUS
10
0.019546
20
0.085208
30
0.0
11
0.019223
21
0.095416
31
0.0
0
LINE
8
0
6
CONTINUOUS
10
0.015757
20
0.092772
30
0.0
11
0.014753
21
0.088892
31
0.0
0
LINE
8
0
6
CONTINUOUS
10
0.012409
20
0.085416
30
0.0
11
0.011274
21
0.084561
31
0.0
0
LINE
8
0
6
CONTINUOUS
10
0.014753
20
0.088892
30
0.0
11
0.012409
21
0.085416
31
0.0
0
LINE
8
0
6
CONTINUOUS
10
0.016358
20
0.096769
30
0.0
11
0.015757
21
0.092772
31
0.0
0
LINE
8
0
6
CONTINUOUS
10
0.016358
20
0.096769
30
0.0
11
0.016759
21
0.101019
31
0.0
0
LINE
8
0
6
CONTINUOUS
10
0.019034
20
0.101356
30
0.0
11
0.019000
21
0.102006
31
0.0
0
LINE
8
0
6
CONTINUOUS
10
0.016852
20
0.102006
30
0.0
11
0.014454
21
0.102006
31
0.0
0
LINE
8
0
6
CONTINUOUS
10
0.017514
20
0.102006
30
0.0
11
0.016852
21
0.102006
31
0.0
0
LINE
8
0
6
CONTINUOUS
10
0.016852
20
0.102006
30
0.0
11
0.016759
21
0.101019
31
0.0
0
LINE
8
0
6
CONTINUOUS
10
0.012511
20
0.102006
30
0.0
11
0.000000
21
0.102006
31
0.0
0
LINE
8
0
6
CONTINUOUS
10
0.019000
20
0.102006
30
0.0
11
0.017550
21
0.102006
31
0.0
0
LINE
8
0
6
CONTINUOUS
10
0.019223
20
0.095416
30
0.0
11
0.019034
21
0.101356
31
0.0
0
LINE
8
0
6
CONTINUOUS
10
0.014454
20
0.102006
30
0.0
11
0.012511
21
0.102006
31
0.0
0
LINE
8
0
6
CONTINUOUS
10
0.020199
20
0.064610
30
0.0
11
0.019869
21
0.074999
31
0.0
0
LINE
8
0
6
CONTINUOUS
10
0.019869
20
0.074999
30
0.0
11
0.019546
21
0.085208
31
0.0
0
LINE
8
0
6
CONTINUOUS
10
0.020516
20
0.054581
30
0.0
11
0.020199
21
0.064610
31
0.0
0
LINE
8
0
6
CONTINUOUS
10
0.022984
20
-0.153000
30
0.0
11
0.020516
21
0.054581
31
0.0
0
LINE
8
0
6
CONTINUOUS
10
-0.016267
20
-0.154000
30
0.0
11
-0.011503
21
-0.154000
31
0.0
0
LINE
8
0
6
CONTINUOUS
10
-0.019922
20
-0.154000
30
0.0
11
-0.016267
21
-0.154000
31
0.0
0
LINE
8
0
6
CONTINUOUS
10
-0.005954
20
-0.154000
30
0.0
11
0.000000
21
-0.154000
31
0.0
0
LINE
8
0
6
CONTINUOUS
10
-0.011503
20
-0.154000
30
0.0
11
-0.005954
21
-0.154000
31
0.0
0
LINE
8
0
6
CONTINUOUS
10
-0.022218
20
-0.154000
30
0.0
11
-0.019922
21
-0.154000
31
0.0
0
LINE
8
0
6
CONTINUOUS
10
-0.022968
20
-0.153001
30
0.0
11
-0.023000
21
-0.154000
31
0.0
0
LINE
8
0
6
CONTINUOUS
10
-0.023000
20
-0.154000
30
0.0
11
-0.022218
21
-0.154000
31
0.0
0
LINE
8
0
6
CONTINUOUS
10
0.016267
20
-0.154000
30
0.0
11
0.011503
21
-0.154000
31
0.0
0
LINE
8
0
6
CONTINUOUS
10
0.019922
20
-0.154000
30
0.0
11
0.016267
21
-0.154000
31
0.0
0
LINE
8
0
6
CONTINUOUS
10
0.005954
20
-0.154000
30
0.0
11
0.000000
21
-0.154000
31
0.0
0
LINE
8
0
6
CONTINUOUS
10
0.011503
20
-0.154000
30
0.0
11
0.005954
21
-0.154000
31
0.0
0
LINE
8
0
6
CONTINUOUS
10
0.022218
20
-0.154000
30
0.0
11
0.019922
21
-0.154000
31
0.0
0
LINE
8
0
6
CONTINUOUS
10
0.023000
20
-0.154000
30
0.0
11
0.022984
21
-0.153000
31
0.0
0
LINE
8
0
6
CONTINUOUS
10
0.023000
20
-0.154000
30
0.0
11
0.022218
21
-0.154000
31
0.0
0
LINE
8
0
6
CONTINUOUS
10
0.009121
20
0.088978
30
0.0
11
0.009879
21
0.088194
31
0.0
0
LINE
8
0
6
CONTINUOUS
10
0.000000
20
0.091733
30
0.0
11
0.003484
21
0.091396
31
0.0
0
LINE
8
0
6
CONTINUOUS
10
0.009879
20
0.088194
30
0.0
11
0.010722
21
0.087321
31
0.0
0
LINE
8
0
6
CONTINUOUS
10
0.010722
20
0.087321
30
0.0
11
0.010809
21
0.087034
31
0.0
0
LINE
8
0
6
CONTINUOUS
10
0.011111
20
0.086155
30
0.0
11
0.011274
21
0.085717
31
0.0
0
LINE
8
0
6
CONTINUOUS
10
0.010809
20
0.087034
30
0.0
11
0.010898
21
0.086762
31
0.0
0
LINE
8
0
6
CONTINUOUS
10
0.010898
20
0.086762
30
0.0
11
0.011111
21
0.086155
31
0.0
0
LINE
8
0
6
CONTINUOUS
10
0.007958
20
0.080701
30
0.0
11
0.007868
21
0.080614
31
0.0
0
LINE
8
0
6
CONTINUOUS
10
0.004918
20
0.078645
30
0.0
11
0.006591
21
0.079467
31
0.0
0
LINE
8
0
6
CONTINUOUS
10
0.004535
20
0.078549
30
0.0
11
0.004918
21
0.078645
31
0.0
0
LINE
8
0
6
CONTINUOUS
10
0.006591
20
0.079467
30
0.0
11
0.006769
21
0.079554
31
0.0
0
LINE
8
0
6
CONTINUOUS
10
0.007868
20
0.080614
30
0.0
11
0.006769
21
0.079554
31
0.0
0
LINE
8
0
6
CONTINUOUS
10
0.002586
20
0.078061
30
0.0
11
0.004535
21
0.078549
31
0.0
0
LINE
8
0
6
CONTINUOUS
10
-0.003483
20
0.091396
30
0.0
11
0.000000
21
0.091733
31
0.0
0
LINE
8
0
6
CONTINUOUS
10
-0.008112
20
0.089510
30
0.0
11
-0.006626
21
0.090418
31
0.0
0
LINE
8
0
6
CONTINUOUS
10
-0.009120
20
0.088978
30
0.0
11
-0.009879
21
0.088193
31
0.0
0
LINE
8
0
6
CONTINUOUS
10
-0.009120
20
0.088978
30
0.0
11
-0.008112
21
0.089510
31
0.0
0
LINE
8
0
6
CONTINUOUS
10
-0.003423
20
0.087120
30
0.0
11
0.000000
21
0.087386
31
0.0
0
LINE
8
0
6
CONTINUOUS
10
-0.003484
20
0.087115
30
0.0
11
-0.003423
21
0.087120
31
0.0
0
LINE
8
0
6
CONTINUOUS
10
-0.004918
20
0.078548
30
0.0
11
-0.002631
21
0.077977
31
0.0
0
LINE
8
0
6
CONTINUOUS
10
-0.008367
20
0.081863
30
0.0
11
-0.007983
21
0.080678
31
0.0
0
LINE
8
0
6
CONTINUOUS
10
-0.006769
20
0.079454
30
0.0
11
-0.004988
21
0.078582
31
0.0
0
LINE
8
0
6
CONTINUOUS
10
-0.007957
20
0.080597
30
0.0
11
-0.006832
21
0.079515
31
0.0
0
LINE
8
0
6
CONTINUOUS
10
-0.011245
20
0.081951
30
0.0
11
-0.011259
21
0.081908
31
0.0
0
LINE
8
0
6
CONTINUOUS
10
-0.010722
20
0.083570
30
0.0
11
-0.011245
21
0.081951
31
0.0
0
LINE
8
0
6
CONTINUOUS
10
-0.006627
20
0.086331
30
0.0
11
-0.006523
21
0.086357
31
0.0
0
LINE
8
0
6
CONTINUOUS
10
-0.006523
20
0.086357
30
0.0
11
-0.003484
21
0.087115
31
0.0
0
LINE
8
0
6
CONTINUOUS
10
-0.009121
20
0.085109
30
0.0
11
-0.009010
21
0.085163
31
0.0
0
LINE
8
0
6
CONTINUOUS
10
-0.009010
20
0.085163
30
0.0
11
-0.006627
21
0.086331
31
0.0
0
LINE
8
0
6
CONTINUOUS
10
-0.009121
20
0.085109
30
0.0
11
-0.010641
21
0.083648
31
0.0
0
LINE
8
0
6
CONTINUOUS
10
-0.010641
20
0.083648
30
0.0
11
-0.010722
21
0.083570
31
0.0
0
ENDSEC
0
EOF
