999
Erzeugt mit innoplus bad 
0
SECTION
2
HEADER
9
$ACADVER
1
AC1009
9
$DWGCODEPAGE
3
ISO8859-1
0
ENDSEC
0
SECTION
2
TABLES
0
TABLE
2
LAYER
70
1
0
LAYER
2
0
70
0
62
7
6
CONTINUOUS
0
ENDTAB
0
ENDSEC
0
SECTION
2
ENTITIES
0
LINE
8
0
6
CONTINUOUS
10
-0.048613
20
0.011856
30
0.0
11
-0.046637
21
0.015358
31
0.0
0
LINE
8
0
6
CONTINUOUS
10
-0.066025
20
0.026955
30
0.0
11
-0.068302
21
0.022918
31
0.0
0
LINE
8
0
6
CONTINUOUS
10
-0.068548
20
0.022482
30
0.0
11
-0.068066
21
0.022212
31
0.0
0
LINE
8
0
6
CONTINUOUS
10
-0.068302
20
0.022918
30
0.0
11
-0.068548
21
0.022482
31
0.0
0
LINE
8
0
6
CONTINUOUS
10
-0.066668
20
0.021426
30
0.0
11
-0.068066
21
0.022212
31
0.0
0
LINE
8
0
6
CONTINUOUS
10
-0.064490
20
0.020202
30
0.0
11
-0.066668
21
0.021426
31
0.0
0
LINE
8
0
6
CONTINUOUS
10
-0.061746
20
0.018660
30
0.0
11
-0.064490
21
0.020202
31
0.0
0
LINE
8
0
6
CONTINUOUS
10
-0.058704
20
0.016951
30
0.0
11
-0.061746
21
0.018660
31
0.0
0
LINE
8
0
6
CONTINUOUS
10
-0.058704
20
0.016951
30
0.0
11
-0.055661
21
0.015242
31
0.0
0
LINE
8
0
6
CONTINUOUS
10
-0.055661
20
0.015242
30
0.0
11
-0.052917
21
0.013700
31
0.0
0
LINE
8
0
6
CONTINUOUS
10
-0.050739
20
0.012476
30
0.0
11
-0.052917
21
0.013700
31
0.0
0
LINE
8
0
6
CONTINUOUS
10
-0.050739
20
0.012476
30
0.0
11
-0.049341
21
0.011691
31
0.0
0
LINE
8
0
6
CONTINUOUS
10
-0.048859
20
0.011420
30
0.0
11
-0.048613
21
0.011856
31
0.0
0
LINE
8
0
6
CONTINUOUS
10
-0.049341
20
0.011691
30
0.0
11
-0.048859
21
0.011420
31
0.0
0
LINE
8
0
6
CONTINUOUS
10
0.047923
20
0.089000
30
0.0
11
0.043357
21
0.089000
31
0.0
0
LINE
8
0
6
CONTINUOUS
10
0.062354
20
0.089000
30
0.0
11
0.057767
21
0.089000
31
0.0
0
LINE
8
0
6
CONTINUOUS
10
0.039422
20
0.089000
30
0.0
11
0.036403
21
0.089000
31
0.0
0
LINE
8
0
6
CONTINUOUS
10
0.057767
20
0.089000
30
0.0
11
0.052865
21
0.089000
31
0.0
0
LINE
8
0
6
CONTINUOUS
10
0.071212
20
0.089000
30
0.0
11
0.069314
21
0.089000
31
0.0
0
LINE
8
0
6
CONTINUOUS
10
0.052865
20
0.089000
30
0.0
11
0.047923
21
0.089000
31
0.0
0
LINE
8
0
6
CONTINUOUS
10
0.071857
20
0.089000
30
0.0
11
0.071212
21
0.089000
31
0.0
0
LINE
8
0
6
CONTINUOUS
10
0.071857
20
0.088610
30
0.0
11
0.071857
21
0.089000
31
0.0
0
LINE
8
0
6
CONTINUOUS
10
0.066292
20
0.089000
30
0.0
11
0.062354
21
0.089000
31
0.0
0
LINE
8
0
6
CONTINUOUS
10
0.043357
20
0.089000
30
0.0
11
0.039422
21
0.089000
31
0.0
0
LINE
8
0
6
CONTINUOUS
10
0.036403
20
0.089000
30
0.0
11
0.034505
21
0.089000
31
0.0
0
LINE
8
0
6
CONTINUOUS
10
0.069314
20
0.089000
30
0.0
11
0.066292
21
0.089000
31
0.0
0
LINE
8
0
6
CONTINUOUS
10
0.071857
20
0.063901
30
0.0
11
0.071857
21
0.088610
31
0.0
0
LINE
8
0
6
CONTINUOUS
10
0.033857
20
0.089000
30
0.0
11
0.033857
21
0.088511
31
0.0
0
LINE
8
0
6
CONTINUOUS
10
0.034505
20
0.089000
30
0.0
11
0.033857
21
0.089000
31
0.0
0
LINE
8
0
6
CONTINUOUS
10
0.028879
20
0.080605
30
0.0
11
0.028048
21
0.079949
31
0.0
0
LINE
8
0
6
CONTINUOUS
10
0.028048
20
0.079949
30
0.0
11
0.028048
21
0.079445
31
0.0
0
LINE
8
0
6
CONTINUOUS
10
0.028337
20
0.079994
30
0.0
11
0.028048
21
0.079949
31
0.0
0
LINE
8
0
6
CONTINUOUS
10
0.028048
20
0.079445
30
0.0
11
0.028048
21
0.063901
31
0.0
0
LINE
8
0
6
CONTINUOUS
10
0.028499
20
0.080017
30
0.0
11
0.029290
21
0.080289
31
0.0
0
LINE
8
0
6
CONTINUOUS
10
0.029290
20
0.080289
30
0.0
11
0.033933
21
0.082386
31
0.0
0
LINE
8
0
6
CONTINUOUS
10
0.033933
20
0.082386
30
0.0
11
0.031769
21
0.082268
31
0.0
0
LINE
8
0
6
CONTINUOUS
10
0.033978
20
0.085139
30
0.0
11
0.033929
21
0.085142
31
0.0
0
LINE
8
0
6
CONTINUOUS
10
0.028454
20
0.063901
30
0.0
11
0.028496
21
0.079509
31
0.0
0
LINE
8
0
6
CONTINUOUS
10
0.028496
20
0.079509
30
0.0
11
0.028499
21
0.080017
31
0.0
0
LINE
8
0
6
CONTINUOUS
10
0.028337
20
0.079994
30
0.0
11
0.028499
21
0.080017
31
0.0
0
LINE
8
0
6
CONTINUOUS
10
0.028499
20
0.080017
30
0.0
11
0.029145
21
0.080622
31
0.0
0
LINE
8
0
6
CONTINUOUS
10
0.034485
20
0.081445
30
0.0
11
0.034485
21
0.082015
31
0.0
0
LINE
8
0
6
CONTINUOUS
10
0.034485
20
0.082015
30
0.0
11
0.034485
21
0.082585
31
0.0
0
LINE
8
0
6
CONTINUOUS
10
0.033838
20
0.085148
30
0.0
11
0.032904
21
0.083860
31
0.0
0
LINE
8
0
6
CONTINUOUS
10
0.033929
20
0.085142
30
0.0
11
0.033838
21
0.085148
31
0.0
0
LINE
8
0
6
CONTINUOUS
10
0.034485
20
0.082585
30
0.0
11
0.034485
21
0.082705
31
0.0
0
LINE
8
0
6
CONTINUOUS
10
0.034485
20
0.084949
30
0.0
11
0.034485
21
0.085104
31
0.0
0
LINE
8
0
6
CONTINUOUS
10
0.034485
20
0.085104
30
0.0
11
0.034403
21
0.085110
31
0.0
0
LINE
8
0
6
CONTINUOUS
10
0.034403
20
0.085110
30
0.0
11
0.034041
21
0.085134
31
0.0
0
LINE
8
0
6
CONTINUOUS
10
0.034041
20
0.085134
30
0.0
11
0.033978
21
0.085139
31
0.0
0
LINE
8
0
6
CONTINUOUS
10
0.031151
20
0.082160
30
0.0
11
0.028879
21
0.080605
31
0.0
0
LINE
8
0
6
CONTINUOUS
10
0.034159
20
0.083731
30
0.0
11
0.034485
21
0.082705
31
0.0
0
LINE
8
0
6
CONTINUOUS
10
0.034485
20
0.082705
30
0.0
11
0.034485
21
0.083827
31
0.0
0
LINE
8
0
6
CONTINUOUS
10
0.034485
20
0.083827
30
0.0
11
0.034485
21
0.084949
31
0.0
0
LINE
8
0
6
CONTINUOUS
10
0.031769
20
0.082268
30
0.0
11
0.033974
21
0.082632
31
0.0
0
LINE
8
0
6
CONTINUOUS
10
0.032793
20
0.083010
30
0.0
11
0.033974
21
0.082632
31
0.0
0
LINE
8
0
6
CONTINUOUS
10
0.033974
20
0.082632
30
0.0
11
0.034159
21
0.083731
31
0.0
0
LINE
8
0
6
CONTINUOUS
10
0.032200
20
0.082877
30
0.0
11
0.031151
21
0.082160
31
0.0
0
LINE
8
0
6
CONTINUOUS
10
0.032904
20
0.083860
30
0.0
11
0.032200
21
0.082877
31
0.0
0
LINE
8
0
6
CONTINUOUS
10
0.034484
20
0.063901
30
0.0
11
0.034485
21
0.081445
31
0.0
0
LINE
8
0
6
CONTINUOUS
10
0.043357
20
0.038802
30
0.0
11
0.047923
21
0.038802
31
0.0
0
LINE
8
0
6
CONTINUOUS
10
0.057767
20
0.038802
30
0.0
11
0.062354
21
0.038802
31
0.0
0
LINE
8
0
6
CONTINUOUS
10
0.036403
20
0.038802
30
0.0
11
0.039422
21
0.038802
31
0.0
0
LINE
8
0
6
CONTINUOUS
10
0.052865
20
0.038802
30
0.0
11
0.057767
21
0.038802
31
0.0
0
LINE
8
0
6
CONTINUOUS
10
0.069314
20
0.038802
30
0.0
11
0.071212
21
0.038802
31
0.0
0
LINE
8
0
6
CONTINUOUS
10
0.047923
20
0.038802
30
0.0
11
0.052865
21
0.038802
31
0.0
0
LINE
8
0
6
CONTINUOUS
10
0.071857
20
0.038802
30
0.0
11
0.071857
21
0.039193
31
0.0
0
LINE
8
0
6
CONTINUOUS
10
0.071212
20
0.038802
30
0.0
11
0.071857
21
0.038802
31
0.0
0
LINE
8
0
6
CONTINUOUS
10
0.062354
20
0.038802
30
0.0
11
0.066292
21
0.038802
31
0.0
0
LINE
8
0
6
CONTINUOUS
10
0.039422
20
0.038802
30
0.0
11
0.043357
21
0.038802
31
0.0
0
LINE
8
0
6
CONTINUOUS
10
0.034505
20
0.038802
30
0.0
11
0.036403
21
0.038802
31
0.0
0
LINE
8
0
6
CONTINUOUS
10
0.066292
20
0.038802
30
0.0
11
0.069314
21
0.038802
31
0.0
0
LINE
8
0
6
CONTINUOUS
10
0.071857
20
0.039193
30
0.0
11
0.071857
21
0.063901
31
0.0
0
LINE
8
0
6
CONTINUOUS
10
0.033857
20
0.038802
30
0.0
11
0.034505
21
0.038802
31
0.0
0
LINE
8
0
6
CONTINUOUS
10
0.033857
20
0.039291
30
0.0
11
0.033857
21
0.038802
31
0.0
0
LINE
8
0
6
CONTINUOUS
10
0.028048
20
0.047853
30
0.0
11
0.028879
21
0.047197
31
0.0
0
LINE
8
0
6
CONTINUOUS
10
0.028048
20
0.047853
30
0.0
11
0.028337
21
0.047809
31
0.0
0
LINE
8
0
6
CONTINUOUS
10
0.028048
20
0.048358
30
0.0
11
0.028048
21
0.047853
31
0.0
0
LINE
8
0
6
CONTINUOUS
10
0.028048
20
0.063901
30
0.0
11
0.028048
21
0.048358
31
0.0
0
LINE
8
0
6
CONTINUOUS
10
0.029290
20
0.047513
30
0.0
11
0.028499
21
0.047785
31
0.0
0
LINE
8
0
6
CONTINUOUS
10
0.029290
20
0.047513
30
0.0
11
0.033933
21
0.045416
31
0.0
0
LINE
8
0
6
CONTINUOUS
10
0.033933
20
0.045416
30
0.0
11
0.031769
21
0.045534
31
0.0
0
LINE
8
0
6
CONTINUOUS
10
0.033929
20
0.042660
30
0.0
11
0.033978
21
0.042664
31
0.0
0
LINE
8
0
6
CONTINUOUS
10
0.028496
20
0.048293
30
0.0
11
0.028454
21
0.063901
31
0.0
0
LINE
8
0
6
CONTINUOUS
10
0.028499
20
0.047785
30
0.0
11
0.028496
21
0.048293
31
0.0
0
LINE
8
0
6
CONTINUOUS
10
0.029145
20
0.047180
30
0.0
11
0.028499
21
0.047785
31
0.0
0
LINE
8
0
6
CONTINUOUS
10
0.028499
20
0.047785
30
0.0
11
0.028337
21
0.047809
31
0.0
0
LINE
8
0
6
CONTINUOUS
10
0.034485
20
0.045788
30
0.0
11
0.034485
21
0.046357
31
0.0
0
LINE
8
0
6
CONTINUOUS
10
0.034485
20
0.045217
30
0.0
11
0.034485
21
0.045788
31
0.0
0
LINE
8
0
6
CONTINUOUS
10
0.033838
20
0.042654
30
0.0
11
0.033929
21
0.042660
31
0.0
0
LINE
8
0
6
CONTINUOUS
10
0.032904
20
0.043942
30
0.0
11
0.033838
21
0.042654
31
0.0
0
LINE
8
0
6
CONTINUOUS
10
0.034485
20
0.045097
30
0.0
11
0.034485
21
0.045217
31
0.0
0
LINE
8
0
6
CONTINUOUS
10
0.034403
20
0.042692
30
0.0
11
0.034485
21
0.042698
31
0.0
0
LINE
8
0
6
CONTINUOUS
10
0.034485
20
0.042698
30
0.0
11
0.034485
21
0.042853
31
0.0
0
LINE
8
0
6
CONTINUOUS
10
0.034041
20
0.042668
30
0.0
11
0.034403
21
0.042692
31
0.0
0
LINE
8
0
6
CONTINUOUS
10
0.033978
20
0.042664
30
0.0
11
0.034041
21
0.042668
31
0.0
0
LINE
8
0
6
CONTINUOUS
10
0.028879
20
0.047197
30
0.0
11
0.031151
21
0.045643
31
0.0
0
LINE
8
0
6
CONTINUOUS
10
0.034485
20
0.043975
30
0.0
11
0.034485
21
0.045097
31
0.0
0
LINE
8
0
6
CONTINUOUS
10
0.034159
20
0.044071
30
0.0
11
0.034485
21
0.045097
31
0.0
0
LINE
8
0
6
CONTINUOUS
10
0.034485
20
0.042853
30
0.0
11
0.034485
21
0.043975
31
0.0
0
LINE
8
0
6
CONTINUOUS
10
0.034159
20
0.044071
30
0.0
11
0.033974
21
0.045170
31
0.0
0
LINE
8
0
6
CONTINUOUS
10
0.032793
20
0.044792
30
0.0
11
0.033974
21
0.045170
31
0.0
0
LINE
8
0
6
CONTINUOUS
10
0.033974
20
0.045170
30
0.0
11
0.031769
21
0.045534
31
0.0
0
LINE
8
0
6
CONTINUOUS
10
0.031151
20
0.045643
30
0.0
11
0.032200
21
0.044926
31
0.0
0
LINE
8
0
6
CONTINUOUS
10
0.032200
20
0.044926
30
0.0
11
0.032904
21
0.043942
31
0.0
0
LINE
8
0
6
CONTINUOUS
10
0.034485
20
0.046357
30
0.0
11
0.034484
21
0.063900
31
0.0
0
LINE
8
0
6
CONTINUOUS
10
0.035289
20
0.038802
30
0.0
11
0.035289
21
0.037322
31
0.0
0
LINE
8
0
6
CONTINUOUS
10
0.070393
20
0.037002
30
0.0
11
0.070393
21
0.038802
31
0.0
0
LINE
8
0
6
CONTINUOUS
10
0.057400
20
0.037322
30
0.0
11
0.061637
21
0.037322
31
0.0
0
LINE
8
0
6
CONTINUOUS
10
0.061637
20
0.037322
30
0.0
11
0.065271
21
0.037322
31
0.0
0
LINE
8
0
6
CONTINUOUS
10
0.048197
20
0.037322
30
0.0
11
0.052866
21
0.037322
31
0.0
0
LINE
8
0
6
CONTINUOUS
10
0.065271
20
0.037322
30
0.0
11
0.068054
21
0.037322
31
0.0
0
LINE
8
0
6
CONTINUOUS
10
0.070393
20
0.037322
30
0.0
11
0.070393
21
0.038802
31
0.0
0
LINE
8
0
6
CONTINUOUS
10
0.069800
20
0.037322
30
0.0
11
0.070393
21
0.037322
31
0.0
0
LINE
8
0
6
CONTINUOUS
10
0.052866
20
0.037322
30
0.0
11
0.057400
21
0.037322
31
0.0
0
LINE
8
0
6
CONTINUOUS
10
0.068054
20
0.037322
30
0.0
11
0.069800
21
0.037322
31
0.0
0
LINE
8
0
6
CONTINUOUS
10
-0.041998
20
0.013913
30
0.0
11
-0.039821
21
0.013761
31
0.0
0
LINE
8
0
6
CONTINUOUS
10
0.030596
20
0.000763
30
0.0
11
0.031579
21
-0.005359
31
0.0
0
LINE
8
0
6
CONTINUOUS
10
0.016661
20
0.010934
30
0.0
11
0.022182
21
0.009374
31
0.0
0
LINE
8
0
6
CONTINUOUS
10
0.022182
20
0.009374
30
0.0
11
0.027418
21
0.006005
31
0.0
0
LINE
8
0
6
CONTINUOUS
10
0.027418
20
0.006005
30
0.0
11
0.030596
21
0.000763
31
0.0
0
LINE
8
0
6
CONTINUOUS
10
0.031168
20
-0.011565
30
0.0
11
0.029143
21
-0.088000
31
0.0
0
LINE
8
0
6
CONTINUOUS
10
0.072491
20
0.011808
30
0.0
11
0.072243
21
0.021211
31
0.0
0
LINE
8
0
6
CONTINUOUS
10
0.073074
20
-0.010343
30
0.0
11
0.072739
21
0.002406
31
0.0
0
LINE
8
0
6
CONTINUOUS
10
0.072739
20
0.002406
30
0.0
11
0.072491
21
0.011808
31
0.0
0
LINE
8
0
6
CONTINUOUS
10
0.075120
20
-0.088000
30
0.0
11
0.073074
21
-0.010343
31
0.0
0
LINE
8
0
6
CONTINUOUS
10
0.071996
20
0.030613
30
0.0
11
0.071836
21
0.036670
31
0.0
0
LINE
8
0
6
CONTINUOUS
10
0.072243
20
0.021211
30
0.0
11
0.071996
21
0.030613
31
0.0
0
LINE
8
0
6
CONTINUOUS
10
-0.067902
20
0.028378
30
0.0
11
-0.063220
21
0.024826
31
0.0
0
LINE
8
0
6
CONTINUOUS
10
-0.066940
20
0.028088
30
0.0
11
-0.061673
21
0.024208
31
0.0
0
LINE
8
0
6
CONTINUOUS
10
-0.048345
20
0.016634
30
0.0
11
-0.046527
21
0.015553
31
0.0
0
LINE
8
0
6
CONTINUOUS
10
-0.055760
20
0.020732
30
0.0
11
-0.053407
21
0.019476
31
0.0
0
LINE
8
0
6
CONTINUOUS
10
-0.063220
20
0.024826
30
0.0
11
-0.058390
21
0.021839
31
0.0
0
LINE
8
0
6
CONTINUOUS
10
-0.061673
20
0.024208
30
0.0
11
-0.055760
21
0.020732
31
0.0
0
LINE
8
0
6
CONTINUOUS
10
-0.071870
20
0.032261
30
0.0
11
-0.067902
21
0.028378
31
0.0
0
LINE
8
0
6
CONTINUOUS
10
-0.071097
20
0.032085
30
0.0
11
-0.066940
21
0.028088
31
0.0
0
LINE
8
0
6
CONTINUOUS
10
-0.046637
20
0.015358
30
0.0
11
-0.044962
21
0.014411
31
0.0
0
LINE
8
0
6
CONTINUOUS
10
-0.044962
20
0.014411
30
0.0
11
-0.041998
21
0.013913
31
0.0
0
LINE
8
0
6
CONTINUOUS
10
-0.074493
20
0.036330
30
0.0
11
-0.071870
21
0.032261
31
0.0
0
LINE
8
0
6
CONTINUOUS
10
-0.071097
20
0.032085
30
0.0
11
-0.073870
21
0.036335
31
0.0
0
LINE
8
0
6
CONTINUOUS
10
0.052923
20
0.037322
30
0.0
11
0.032363
21
0.037322
31
0.0
0
LINE
8
0
6
CONTINUOUS
10
0.071212
20
0.037322
30
0.0
11
0.069314
21
0.037322
31
0.0
0
LINE
8
0
6
CONTINUOUS
10
0.062354
20
0.037322
30
0.0
11
0.057767
21
0.037322
31
0.0
0
LINE
8
0
6
CONTINUOUS
10
0.066292
20
0.037322
30
0.0
11
0.062354
21
0.037322
31
0.0
0
LINE
8
0
6
CONTINUOUS
10
0.069314
20
0.037322
30
0.0
11
0.066292
21
0.037322
31
0.0
0
LINE
8
0
6
CONTINUOUS
10
0.057767
20
0.037322
30
0.0
11
0.052923
21
0.037322
31
0.0
0
LINE
8
0
6
CONTINUOUS
10
0.071803
20
0.037322
30
0.0
11
0.071212
21
0.037322
31
0.0
0
LINE
8
0
6
CONTINUOUS
10
0.071836
20
0.036670
30
0.0
11
0.071803
21
0.037322
31
0.0
0
LINE
8
0
6
CONTINUOUS
10
-0.074515
20
0.037322
30
0.0
11
-0.075133
21
0.037322
31
0.0
0
LINE
8
0
6
CONTINUOUS
10
-0.075133
20
0.037322
30
0.0
11
-0.074493
21
0.036330
31
0.0
0
LINE
8
0
6
CONTINUOUS
10
-0.072137
20
0.037322
30
0.0
11
-0.074515
21
0.037322
31
0.0
0
LINE
8
0
6
CONTINUOUS
10
-0.074515
20
0.037322
30
0.0
11
-0.073870
21
0.036335
31
0.0
0
LINE
8
0
6
CONTINUOUS
10
0.032363
20
0.037322
30
0.0
11
-0.069955
21
0.037322
31
0.0
0
LINE
8
0
6
CONTINUOUS
10
-0.069955
20
0.037322
30
0.0
11
-0.072137
21
0.037322
31
0.0
0
LINE
8
0
6
CONTINUOUS
10
-0.039821
20
0.013761
30
0.0
11
0.016661
21
0.010934
31
0.0
0
LINE
8
0
6
CONTINUOUS
10
0.031579
20
-0.005359
30
0.0
11
0.031168
21
-0.011565
31
0.0
0
LINE
8
0
6
CONTINUOUS
10
0.035873
20
-0.089000
30
0.0
11
0.032216
21
-0.089000
31
0.0
0
LINE
8
0
6
CONTINUOUS
10
0.040639
20
-0.089000
30
0.0
11
0.035873
21
-0.089000
31
0.0
0
LINE
8
0
6
CONTINUOUS
10
0.029143
20
-0.088000
30
0.0
11
0.029133
21
-0.089000
31
0.0
0
LINE
8
0
6
CONTINUOUS
10
0.029917
20
-0.089000
30
0.0
11
0.029133
21
-0.089000
31
0.0
0
LINE
8
0
6
CONTINUOUS
10
0.032216
20
-0.089000
30
0.0
11
0.029917
21
-0.089000
31
0.0
0
LINE
8
0
6
CONTINUOUS
10
0.046188
20
-0.089000
30
0.0
11
0.040639
21
-0.089000
31
0.0
0
LINE
8
0
6
CONTINUOUS
10
0.074291
20
-0.089000
30
0.0
11
0.071992
21
-0.089000
31
0.0
0
LINE
8
0
6
CONTINUOUS
10
0.075133
20
-0.089000
30
0.0
11
0.075120
21
-0.088000
31
0.0
0
LINE
8
0
6
CONTINUOUS
10
0.075133
20
-0.089000
30
0.0
11
0.074291
21
-0.089000
31
0.0
0
LINE
8
0
6
CONTINUOUS
10
0.058010
20
-0.089000
30
0.0
11
0.052143
21
-0.089000
31
0.0
0
LINE
8
0
6
CONTINUOUS
10
0.071992
20
-0.089000
30
0.0
11
0.068334
21
-0.089000
31
0.0
0
LINE
8
0
6
CONTINUOUS
10
0.063565
20
-0.089000
30
0.0
11
0.068334
21
-0.089000
31
0.0
0
LINE
8
0
6
CONTINUOUS
10
0.063565
20
-0.089000
30
0.0
11
0.058010
21
-0.089000
31
0.0
0
LINE
8
0
6
CONTINUOUS
10
0.052143
20
-0.089000
30
0.0
11
0.046188
21
-0.089000
31
0.0
0
LINE
8
0
6
CONTINUOUS
10
-0.048370
20
0.016675
30
0.0
11
-0.050174
21
0.017925
31
0.0
0
LINE
8
0
6
CONTINUOUS
10
-0.047446
20
0.016008
30
0.0
11
-0.048345
21
0.016634
31
0.0
0
LINE
8
0
6
CONTINUOUS
10
-0.053407
20
0.019476
30
0.0
11
-0.053291
21
0.019443
31
0.0
0
LINE
8
0
6
CONTINUOUS
10
-0.053291
20
0.019443
30
0.0
11
-0.050422
21
0.018123
31
0.0
0
LINE
8
0
6
CONTINUOUS
10
-0.047039
20
0.015771
30
0.0
11
-0.047446
21
0.016008
31
0.0
0
LINE
8
0
6
CONTINUOUS
10
-0.057559
20
0.021490
30
0.0
11
-0.056439
21
0.020966
31
0.0
0
LINE
8
0
6
CONTINUOUS
10
-0.056439
20
0.020966
30
0.0
11
-0.055254
21
0.020379
31
0.0
0
LINE
8
0
6
CONTINUOUS
10
-0.055254
20
0.020379
30
0.0
11
-0.053407
21
0.019476
31
0.0
0
LINE
8
0
6
CONTINUOUS
10
-0.046637
20
0.015358
30
0.0
11
-0.047026
21
0.015760
31
0.0
0
LINE
8
0
6
CONTINUOUS
10
-0.058705
20
0.022067
30
0.0
11
-0.057559
21
0.021490
31
0.0
0
ENDSEC
0
EOF
