999
Erzeugt mit innoplus bad 
0
SECTION
2
HEADER
9
$ACADVER
1
AC1009
9
$DWGCODEPAGE
3
ISO8859-1
0
ENDSEC
0
SECTION
2
TABLES
0
TABLE
2
LAYER
70
1
0
LAYER
2
0
70
0
62
7
6
CONTINUOUS
0
ENDTAB
0
ENDSEC
0
SECTION
2
ENTITIES
0
LINE
8
0
6
CONTINUOUS
10
-0.011274
20
0.020966
30
0.0
11
-0.011274
21
0.017387
31
0.0
0
LINE
8
0
6
CONTINUOUS
10
0.011274
20
0.017387
30
0.0
11
0.011274
21
0.020966
31
0.0
0
LINE
8
0
6
CONTINUOUS
10
-0.003484
20
0.011691
30
0.0
11
0.000000
21
0.011420
31
0.0
0
LINE
8
0
6
CONTINUOUS
10
-0.006627
20
0.012476
30
0.0
11
-0.003484
21
0.011691
31
0.0
0
LINE
8
0
6
CONTINUOUS
10
-0.009121
20
0.013700
30
0.0
11
-0.006627
21
0.012476
31
0.0
0
LINE
8
0
6
CONTINUOUS
10
-0.010722
20
0.015242
30
0.0
11
-0.009121
21
0.013700
31
0.0
0
LINE
8
0
6
CONTINUOUS
10
-0.011274
20
0.016951
30
0.0
11
-0.010722
21
0.015242
31
0.0
0
LINE
8
0
6
CONTINUOUS
10
-0.011274
20
0.017387
30
0.0
11
-0.011274
21
0.016951
31
0.0
0
LINE
8
0
6
CONTINUOUS
10
-0.010722
20
0.018660
30
0.0
11
-0.011274
21
0.016951
31
0.0
0
LINE
8
0
6
CONTINUOUS
10
-0.009121
20
0.020202
30
0.0
11
-0.010722
21
0.018660
31
0.0
0
LINE
8
0
6
CONTINUOUS
10
-0.006627
20
0.021426
30
0.0
11
-0.009121
21
0.020202
31
0.0
0
LINE
8
0
6
CONTINUOUS
10
-0.003484
20
0.022212
30
0.0
11
-0.006627
21
0.021426
31
0.0
0
LINE
8
0
6
CONTINUOUS
10
0.000000
20
0.022482
30
0.0
11
-0.003484
21
0.022212
31
0.0
0
LINE
8
0
6
CONTINUOUS
10
0.003484
20
0.022212
30
0.0
11
0.000000
21
0.022482
31
0.0
0
LINE
8
0
6
CONTINUOUS
10
0.006627
20
0.021426
30
0.0
11
0.003484
21
0.022212
31
0.0
0
LINE
8
0
6
CONTINUOUS
10
0.009121
20
0.020202
30
0.0
11
0.006627
21
0.021426
31
0.0
0
LINE
8
0
6
CONTINUOUS
10
0.010722
20
0.018660
30
0.0
11
0.009121
21
0.020202
31
0.0
0
LINE
8
0
6
CONTINUOUS
10
0.011274
20
0.016951
30
0.0
11
0.011274
21
0.017387
31
0.0
0
LINE
8
0
6
CONTINUOUS
10
0.011274
20
0.016951
30
0.0
11
0.010722
21
0.018660
31
0.0
0
LINE
8
0
6
CONTINUOUS
10
0.010722
20
0.015242
30
0.0
11
0.011274
21
0.016951
31
0.0
0
LINE
8
0
6
CONTINUOUS
10
0.009121
20
0.013700
30
0.0
11
0.010722
21
0.015242
31
0.0
0
LINE
8
0
6
CONTINUOUS
10
0.006627
20
0.012476
30
0.0
11
0.009121
21
0.013700
31
0.0
0
LINE
8
0
6
CONTINUOUS
10
0.003484
20
0.011691
30
0.0
11
0.006627
21
0.012476
31
0.0
0
LINE
8
0
6
CONTINUOUS
10
0.000000
20
0.011420
30
0.0
11
0.003484
21
0.011691
31
0.0
0
LINE
8
0
6
CONTINUOUS
10
0.002585
20
0.013296
30
0.0
11
0.004918
21
0.013879
31
0.0
0
LINE
8
0
6
CONTINUOUS
10
-0.004918
20
0.013879
30
0.0
11
-0.006769
21
0.014787
31
0.0
0
LINE
8
0
6
CONTINUOUS
10
0.002585
20
0.013296
30
0.0
11
0.000000
21
0.013095
31
0.0
0
LINE
8
0
6
CONTINUOUS
10
-0.006769
20
0.014787
30
0.0
11
-0.007957
21
0.015931
31
0.0
0
LINE
8
0
6
CONTINUOUS
10
0.008367
20
0.017200
30
0.0
11
0.007957
21
0.015931
31
0.0
0
LINE
8
0
6
CONTINUOUS
10
0.007957
20
0.015931
30
0.0
11
0.006769
21
0.014787
31
0.0
0
LINE
8
0
6
CONTINUOUS
10
-0.007957
20
0.015931
30
0.0
11
-0.008367
21
0.017200
31
0.0
0
LINE
8
0
6
CONTINUOUS
10
0.000000
20
0.013095
30
0.0
11
-0.002585
21
0.013296
31
0.0
0
LINE
8
0
6
CONTINUOUS
10
0.006769
20
0.014787
30
0.0
11
0.004918
21
0.013879
31
0.0
0
LINE
8
0
6
CONTINUOUS
10
-0.002585
20
0.013296
30
0.0
11
-0.004918
21
0.013879
31
0.0
0
LINE
8
0
6
CONTINUOUS
10
0.002585
20
0.013047
30
0.0
11
0.000000
21
0.012846
31
0.0
0
LINE
8
0
6
CONTINUOUS
10
0.004918
20
0.013630
30
0.0
11
0.002585
21
0.013047
31
0.0
0
LINE
8
0
6
CONTINUOUS
10
0.006769
20
0.014538
30
0.0
11
0.004918
21
0.013630
31
0.0
0
LINE
8
0
6
CONTINUOUS
10
0.007957
20
0.015683
30
0.0
11
0.006769
21
0.014538
31
0.0
0
LINE
8
0
6
CONTINUOUS
10
0.008367
20
0.016951
30
0.0
11
0.007957
21
0.015683
31
0.0
0
LINE
8
0
6
CONTINUOUS
10
0.007957
20
0.018220
30
0.0
11
0.008367
21
0.016951
31
0.0
0
LINE
8
0
6
CONTINUOUS
10
0.006769
20
0.019364
30
0.0
11
0.007957
21
0.018220
31
0.0
0
LINE
8
0
6
CONTINUOUS
10
0.004918
20
0.020272
30
0.0
11
0.006769
21
0.019364
31
0.0
0
LINE
8
0
6
CONTINUOUS
10
0.002585
20
0.020855
30
0.0
11
0.004918
21
0.020272
31
0.0
0
LINE
8
0
6
CONTINUOUS
10
0.000000
20
0.021056
30
0.0
11
0.002585
21
0.020855
31
0.0
0
LINE
8
0
6
CONTINUOUS
10
-0.002585
20
0.020855
30
0.0
11
0.000000
21
0.021056
31
0.0
0
LINE
8
0
6
CONTINUOUS
10
-0.004918
20
0.020272
30
0.0
11
-0.002585
21
0.020855
31
0.0
0
LINE
8
0
6
CONTINUOUS
10
-0.006769
20
0.019364
30
0.0
11
-0.004918
21
0.020272
31
0.0
0
LINE
8
0
6
CONTINUOUS
10
-0.007957
20
0.018220
30
0.0
11
-0.006769
21
0.019364
31
0.0
0
LINE
8
0
6
CONTINUOUS
10
-0.008367
20
0.016951
30
0.0
11
-0.007957
21
0.018220
31
0.0
0
LINE
8
0
6
CONTINUOUS
10
-0.007957
20
0.015683
30
0.0
11
-0.008367
21
0.016951
31
0.0
0
LINE
8
0
6
CONTINUOUS
10
-0.006769
20
0.014538
30
0.0
11
-0.007957
21
0.015683
31
0.0
0
LINE
8
0
6
CONTINUOUS
10
-0.004918
20
0.013630
30
0.0
11
-0.006769
21
0.014538
31
0.0
0
LINE
8
0
6
CONTINUOUS
10
-0.002585
20
0.013047
30
0.0
11
-0.004918
21
0.013630
31
0.0
0
LINE
8
0
6
CONTINUOUS
10
0.000000
20
0.012846
30
0.0
11
-0.002585
21
0.013047
31
0.0
0
LINE
8
0
6
CONTINUOUS
10
-0.016455
20
0.089000
30
0.0
11
-0.018353
21
0.089000
31
0.0
0
LINE
8
0
6
CONTINUOUS
10
-0.009500
20
0.089000
30
0.0
11
-0.013435
21
0.089000
31
0.0
0
LINE
8
0
6
CONTINUOUS
10
-0.019000
20
0.089000
30
0.0
11
-0.019000
21
0.088610
31
0.0
0
LINE
8
0
6
CONTINUOUS
10
-0.018353
20
0.089000
30
0.0
11
-0.019000
21
0.089000
31
0.0
0
LINE
8
0
6
CONTINUOUS
10
-0.013435
20
0.089000
30
0.0
11
-0.016455
21
0.089000
31
0.0
0
LINE
8
0
6
CONTINUOUS
10
-0.004918
20
0.089000
30
0.0
11
-0.009500
21
0.089000
31
0.0
0
LINE
8
0
6
CONTINUOUS
10
-0.019000
20
0.088610
30
0.0
11
-0.019000
21
0.063901
31
0.0
0
LINE
8
0
6
CONTINUOUS
10
0.000000
20
0.089000
30
0.0
11
-0.004918
21
0.089000
31
0.0
0
LINE
8
0
6
CONTINUOUS
10
0.000000
20
0.079949
30
0.0
11
-0.000697
21
0.079994
31
0.0
0
LINE
8
0
6
CONTINUOUS
10
-0.001577
20
0.080289
30
0.0
11
-0.001063
21
0.080017
31
0.0
0
LINE
8
0
6
CONTINUOUS
10
-0.001577
20
0.080289
30
0.0
11
-0.004601
21
0.082386
31
0.0
0
LINE
8
0
6
CONTINUOUS
10
-0.004601
20
0.082386
30
0.0
11
-0.001550
21
0.082268
31
0.0
0
LINE
8
0
6
CONTINUOUS
10
-0.000690
20
0.085142
30
0.0
11
-0.001062
21
0.085139
31
0.0
0
LINE
8
0
6
CONTINUOUS
10
-0.001062
20
0.079509
30
0.0
11
-0.001050
21
0.063924
31
0.0
0
LINE
8
0
6
CONTINUOUS
10
-0.001063
20
0.080017
30
0.0
11
-0.001062
21
0.079509
31
0.0
0
LINE
8
0
6
CONTINUOUS
10
-0.001073
20
0.080622
30
0.0
11
-0.001063
21
0.080017
31
0.0
0
LINE
8
0
6
CONTINUOUS
10
-0.001063
20
0.080017
30
0.0
11
-0.000697
21
0.079994
31
0.0
0
LINE
8
0
6
CONTINUOUS
10
-0.004918
20
0.082015
30
0.0
11
-0.004918
21
0.081445
31
0.0
0
LINE
8
0
6
CONTINUOUS
10
-0.004918
20
0.082585
30
0.0
11
-0.004918
21
0.082015
31
0.0
0
LINE
8
0
6
CONTINUOUS
10
0.000000
20
0.085148
30
0.0
11
-0.000690
21
0.085142
31
0.0
0
LINE
8
0
6
CONTINUOUS
10
-0.004918
20
0.082705
30
0.0
11
-0.004918
21
0.082585
31
0.0
0
LINE
8
0
6
CONTINUOUS
10
-0.004290
20
0.085110
30
0.0
11
-0.004918
21
0.085104
31
0.0
0
LINE
8
0
6
CONTINUOUS
10
-0.004918
20
0.085104
30
0.0
11
-0.004918
21
0.084949
31
0.0
0
LINE
8
0
6
CONTINUOUS
10
-0.001540
20
0.085134
30
0.0
11
-0.004290
21
0.085110
31
0.0
0
LINE
8
0
6
CONTINUOUS
10
-0.001062
20
0.085139
30
0.0
11
-0.001540
21
0.085134
31
0.0
0
LINE
8
0
6
CONTINUOUS
10
-0.004918
20
0.083827
30
0.0
11
-0.004918
21
0.082705
31
0.0
0
LINE
8
0
6
CONTINUOUS
10
-0.004448
20
0.083731
30
0.0
11
-0.004918
21
0.082705
31
0.0
0
LINE
8
0
6
CONTINUOUS
10
-0.004918
20
0.084949
30
0.0
11
-0.004918
21
0.083827
31
0.0
0
LINE
8
0
6
CONTINUOUS
10
-0.004448
20
0.083731
30
0.0
11
-0.004573
21
0.082632
31
0.0
0
LINE
8
0
6
CONTINUOUS
10
-0.001548
20
0.083010
30
0.0
11
-0.004573
21
0.082632
31
0.0
0
LINE
8
0
6
CONTINUOUS
10
-0.004573
20
0.082632
30
0.0
11
-0.001550
21
0.082268
31
0.0
0
LINE
8
0
6
CONTINUOUS
10
-0.004918
20
0.081445
30
0.0
11
-0.004918
21
0.063901
31
0.0
0
LINE
8
0
6
CONTINUOUS
10
-0.018353
20
0.038802
30
0.0
11
-0.016455
21
0.038802
31
0.0
0
LINE
8
0
6
CONTINUOUS
10
-0.013435
20
0.038802
30
0.0
11
-0.009500
21
0.038802
31
0.0
0
LINE
8
0
6
CONTINUOUS
10
-0.019000
20
0.038802
30
0.0
11
-0.018353
21
0.038802
31
0.0
0
LINE
8
0
6
CONTINUOUS
10
-0.019000
20
0.039193
30
0.0
11
-0.019000
21
0.038802
31
0.0
0
LINE
8
0
6
CONTINUOUS
10
-0.016455
20
0.038802
30
0.0
11
-0.013435
21
0.038802
31
0.0
0
LINE
8
0
6
CONTINUOUS
10
-0.009500
20
0.038802
30
0.0
11
-0.004918
21
0.038802
31
0.0
0
LINE
8
0
6
CONTINUOUS
10
-0.019000
20
0.063901
30
0.0
11
-0.019000
21
0.039193
31
0.0
0
LINE
8
0
6
CONTINUOUS
10
-0.004918
20
0.038802
30
0.0
11
0.000000
21
0.038802
31
0.0
0
LINE
8
0
6
CONTINUOUS
10
-0.000697
20
0.047809
30
0.0
11
0.000000
21
0.047853
31
0.0
0
LINE
8
0
6
CONTINUOUS
10
-0.001063
20
0.047785
30
0.0
11
-0.001577
21
0.047513
31
0.0
0
LINE
8
0
6
CONTINUOUS
10
-0.001577
20
0.047513
30
0.0
11
-0.004601
21
0.045416
31
0.0
0
LINE
8
0
6
CONTINUOUS
10
-0.004601
20
0.045416
30
0.0
11
-0.001550
21
0.045534
31
0.0
0
LINE
8
0
6
CONTINUOUS
10
-0.001062
20
0.042664
30
0.0
11
-0.000690
21
0.042660
31
0.0
0
LINE
8
0
6
CONTINUOUS
10
-0.001050
20
0.063901
30
0.0
11
-0.001062
21
0.048293
31
0.0
0
LINE
8
0
6
CONTINUOUS
10
-0.001062
20
0.048293
30
0.0
11
-0.001063
21
0.047785
31
0.0
0
LINE
8
0
6
CONTINUOUS
10
-0.000697
20
0.047809
30
0.0
11
-0.001063
21
0.047785
31
0.0
0
LINE
8
0
6
CONTINUOUS
10
-0.001063
20
0.047785
30
0.0
11
-0.001073
21
0.047180
31
0.0
0
LINE
8
0
6
CONTINUOUS
10
-0.004918
20
0.046357
30
0.0
11
-0.004918
21
0.045788
31
0.0
0
LINE
8
0
6
CONTINUOUS
10
-0.004918
20
0.045788
30
0.0
11
-0.004918
21
0.045217
31
0.0
0
LINE
8
0
6
CONTINUOUS
10
-0.000690
20
0.042660
30
0.0
11
0.000000
21
0.042654
31
0.0
0
LINE
8
0
6
CONTINUOUS
10
-0.004918
20
0.045217
30
0.0
11
-0.004918
21
0.045097
31
0.0
0
LINE
8
0
6
CONTINUOUS
10
-0.004918
20
0.042853
30
0.0
11
-0.004918
21
0.042698
31
0.0
0
LINE
8
0
6
CONTINUOUS
10
-0.004918
20
0.042698
30
0.0
11
-0.004290
21
0.042692
31
0.0
0
LINE
8
0
6
CONTINUOUS
10
-0.004290
20
0.042692
30
0.0
11
-0.001540
21
0.042668
31
0.0
0
LINE
8
0
6
CONTINUOUS
10
-0.001540
20
0.042668
30
0.0
11
-0.001062
21
0.042664
31
0.0
0
LINE
8
0
6
CONTINUOUS
10
-0.004448
20
0.044071
30
0.0
11
-0.004918
21
0.045097
31
0.0
0
LINE
8
0
6
CONTINUOUS
10
-0.004918
20
0.045097
30
0.0
11
-0.004918
21
0.043975
31
0.0
0
LINE
8
0
6
CONTINUOUS
10
-0.004918
20
0.043975
30
0.0
11
-0.004918
21
0.042853
31
0.0
0
LINE
8
0
6
CONTINUOUS
10
-0.001550
20
0.045534
30
0.0
11
-0.004573
21
0.045170
31
0.0
0
LINE
8
0
6
CONTINUOUS
10
-0.001548
20
0.044792
30
0.0
11
-0.004573
21
0.045170
31
0.0
0
LINE
8
0
6
CONTINUOUS
10
-0.004573
20
0.045170
30
0.0
11
-0.004448
21
0.044071
31
0.0
0
LINE
8
0
6
CONTINUOUS
10
-0.004918
20
0.063901
30
0.0
11
-0.004918
21
0.046357
31
0.0
0
LINE
8
0
6
CONTINUOUS
10
0.018353
20
0.089000
30
0.0
11
0.016455
21
0.089000
31
0.0
0
LINE
8
0
6
CONTINUOUS
10
0.013435
20
0.089000
30
0.0
11
0.009500
21
0.089000
31
0.0
0
LINE
8
0
6
CONTINUOUS
10
0.019000
20
0.089000
30
0.0
11
0.018353
21
0.089000
31
0.0
0
LINE
8
0
6
CONTINUOUS
10
0.019000
20
0.088610
30
0.0
11
0.019000
21
0.089000
31
0.0
0
LINE
8
0
6
CONTINUOUS
10
0.016455
20
0.089000
30
0.0
11
0.013435
21
0.089000
31
0.0
0
LINE
8
0
6
CONTINUOUS
10
0.009500
20
0.089000
30
0.0
11
0.004918
21
0.089000
31
0.0
0
LINE
8
0
6
CONTINUOUS
10
0.019000
20
0.063901
30
0.0
11
0.019000
21
0.088610
31
0.0
0
LINE
8
0
6
CONTINUOUS
10
0.004918
20
0.089000
30
0.0
11
0.000000
21
0.089000
31
0.0
0
LINE
8
0
6
CONTINUOUS
10
0.000000
20
0.080605
30
0.0
11
0.000000
21
0.079949
31
0.0
0
LINE
8
0
6
CONTINUOUS
10
0.000000
20
0.079949
30
0.0
11
0.000000
21
0.079445
31
0.0
0
LINE
8
0
6
CONTINUOUS
10
0.000697
20
0.079994
30
0.0
11
0.000000
21
0.079949
31
0.0
0
LINE
8
0
6
CONTINUOUS
10
0.000000
20
0.079445
30
0.0
11
0.000000
21
0.063931
31
0.0
0
LINE
8
0
6
CONTINUOUS
10
0.001063
20
0.080017
30
0.0
11
0.001577
21
0.080289
31
0.0
0
LINE
8
0
6
CONTINUOUS
10
0.001577
20
0.080289
30
0.0
11
0.004601
21
0.082386
31
0.0
0
LINE
8
0
6
CONTINUOUS
10
0.004601
20
0.082386
30
0.0
11
0.001550
21
0.082268
31
0.0
0
LINE
8
0
6
CONTINUOUS
10
0.001062
20
0.085139
30
0.0
11
0.000690
21
0.085142
31
0.0
0
LINE
8
0
6
CONTINUOUS
10
0.001050
20
0.063901
30
0.0
11
0.001062
21
0.079509
31
0.0
0
LINE
8
0
6
CONTINUOUS
10
0.001062
20
0.079509
30
0.0
11
0.001063
21
0.080017
31
0.0
0
LINE
8
0
6
CONTINUOUS
10
0.000697
20
0.079994
30
0.0
11
0.001063
21
0.080017
31
0.0
0
LINE
8
0
6
CONTINUOUS
10
0.001063
20
0.080017
30
0.0
11
0.001073
21
0.080622
31
0.0
0
LINE
8
0
6
CONTINUOUS
10
0.004918
20
0.081445
30
0.0
11
0.004918
21
0.082015
31
0.0
0
LINE
8
0
6
CONTINUOUS
10
0.004918
20
0.082015
30
0.0
11
0.004918
21
0.082585
31
0.0
0
LINE
8
0
6
CONTINUOUS
10
0.000690
20
0.085142
30
0.0
11
0.000000
21
0.085148
31
0.0
0
LINE
8
0
6
CONTINUOUS
10
0.004918
20
0.082585
30
0.0
11
0.004918
21
0.082705
31
0.0
0
LINE
8
0
6
CONTINUOUS
10
0.004918
20
0.084949
30
0.0
11
0.004918
21
0.085104
31
0.0
0
LINE
8
0
6
CONTINUOUS
10
0.004918
20
0.085104
30
0.0
11
0.004290
21
0.085110
31
0.0
0
LINE
8
0
6
CONTINUOUS
10
0.004290
20
0.085110
30
0.0
11
0.001540
21
0.085134
31
0.0
0
LINE
8
0
6
CONTINUOUS
10
0.001540
20
0.085134
30
0.0
11
0.001062
21
0.085139
31
0.0
0
LINE
8
0
6
CONTINUOUS
10
0.004448
20
0.083731
30
0.0
11
0.004918
21
0.082705
31
0.0
0
LINE
8
0
6
CONTINUOUS
10
0.004918
20
0.082705
30
0.0
11
0.004918
21
0.083827
31
0.0
0
LINE
8
0
6
CONTINUOUS
10
0.004918
20
0.083827
30
0.0
11
0.004918
21
0.084949
31
0.0
0
LINE
8
0
6
CONTINUOUS
10
0.001550
20
0.082268
30
0.0
11
0.004573
21
0.082632
31
0.0
0
LINE
8
0
6
CONTINUOUS
10
0.001548
20
0.083010
30
0.0
11
0.004573
21
0.082632
31
0.0
0
LINE
8
0
6
CONTINUOUS
10
0.004573
20
0.082632
30
0.0
11
0.004448
21
0.083731
31
0.0
0
LINE
8
0
6
CONTINUOUS
10
0.004918
20
0.063901
30
0.0
11
0.004918
21
0.081445
31
0.0
0
LINE
8
0
6
CONTINUOUS
10
0.016455
20
0.038802
30
0.0
11
0.018353
21
0.038802
31
0.0
0
LINE
8
0
6
CONTINUOUS
10
0.009500
20
0.038802
30
0.0
11
0.013435
21
0.038802
31
0.0
0
LINE
8
0
6
CONTINUOUS
10
0.019000
20
0.038802
30
0.0
11
0.019000
21
0.039193
31
0.0
0
LINE
8
0
6
CONTINUOUS
10
0.018353
20
0.038802
30
0.0
11
0.019000
21
0.038802
31
0.0
0
LINE
8
0
6
CONTINUOUS
10
0.013435
20
0.038802
30
0.0
11
0.016455
21
0.038802
31
0.0
0
LINE
8
0
6
CONTINUOUS
10
0.004918
20
0.038802
30
0.0
11
0.009500
21
0.038802
31
0.0
0
LINE
8
0
6
CONTINUOUS
10
0.019000
20
0.039193
30
0.0
11
0.019000
21
0.063901
31
0.0
0
LINE
8
0
6
CONTINUOUS
10
0.000000
20
0.038802
30
0.0
11
0.004918
21
0.038802
31
0.0
0
LINE
8
0
6
CONTINUOUS
10
0.000000
20
0.047853
30
0.0
11
0.000000
21
0.047197
31
0.0
0
LINE
8
0
6
CONTINUOUS
10
0.000000
20
0.047853
30
0.0
11
0.000697
21
0.047809
31
0.0
0
LINE
8
0
6
CONTINUOUS
10
0.000000
20
0.048358
30
0.0
11
0.000000
21
0.047853
31
0.0
0
LINE
8
0
6
CONTINUOUS
10
0.000000
20
0.063901
30
0.0
11
0.000000
21
0.048358
31
0.0
0
LINE
8
0
6
CONTINUOUS
10
0.001577
20
0.047513
30
0.0
11
0.001063
21
0.047785
31
0.0
0
LINE
8
0
6
CONTINUOUS
10
0.001577
20
0.047513
30
0.0
11
0.004601
21
0.045416
31
0.0
0
LINE
8
0
6
CONTINUOUS
10
0.004601
20
0.045416
30
0.0
11
0.001550
21
0.045534
31
0.0
0
LINE
8
0
6
CONTINUOUS
10
0.000690
20
0.042660
30
0.0
11
0.001062
21
0.042664
31
0.0
0
LINE
8
0
6
CONTINUOUS
10
0.001062
20
0.048293
30
0.0
11
0.001050
21
0.063878
31
0.0
0
LINE
8
0
6
CONTINUOUS
10
0.001063
20
0.047785
30
0.0
11
0.001062
21
0.048293
31
0.0
0
LINE
8
0
6
CONTINUOUS
10
0.001073
20
0.047180
30
0.0
11
0.001063
21
0.047785
31
0.0
0
LINE
8
0
6
CONTINUOUS
10
0.001063
20
0.047785
30
0.0
11
0.000697
21
0.047809
31
0.0
0
LINE
8
0
6
CONTINUOUS
10
0.004918
20
0.045788
30
0.0
11
0.004918
21
0.046357
31
0.0
0
LINE
8
0
6
CONTINUOUS
10
0.004918
20
0.045217
30
0.0
11
0.004918
21
0.045788
31
0.0
0
LINE
8
0
6
CONTINUOUS
10
0.000000
20
0.042654
30
0.0
11
0.000690
21
0.042660
31
0.0
0
LINE
8
0
6
CONTINUOUS
10
0.004918
20
0.045097
30
0.0
11
0.004918
21
0.045217
31
0.0
0
LINE
8
0
6
CONTINUOUS
10
0.004290
20
0.042692
30
0.0
11
0.004918
21
0.042698
31
0.0
0
LINE
8
0
6
CONTINUOUS
10
0.004918
20
0.042698
30
0.0
11
0.004918
21
0.042853
31
0.0
0
LINE
8
0
6
CONTINUOUS
10
0.001540
20
0.042668
30
0.0
11
0.004290
21
0.042692
31
0.0
0
LINE
8
0
6
CONTINUOUS
10
0.001062
20
0.042664
30
0.0
11
0.001540
21
0.042668
31
0.0
0
LINE
8
0
6
CONTINUOUS
10
0.004918
20
0.043975
30
0.0
11
0.004918
21
0.045097
31
0.0
0
LINE
8
0
6
CONTINUOUS
10
0.004448
20
0.044071
30
0.0
11
0.004918
21
0.045097
31
0.0
0
LINE
8
0
6
CONTINUOUS
10
0.004918
20
0.042853
30
0.0
11
0.004918
21
0.043975
31
0.0
0
LINE
8
0
6
CONTINUOUS
10
0.004448
20
0.044071
30
0.0
11
0.004573
21
0.045170
31
0.0
0
LINE
8
0
6
CONTINUOUS
10
0.001548
20
0.044792
30
0.0
11
0.004573
21
0.045170
31
0.0
0
LINE
8
0
6
CONTINUOUS
10
0.004573
20
0.045170
30
0.0
11
0.001550
21
0.045534
31
0.0
0
LINE
8
0
6
CONTINUOUS
10
0.004918
20
0.046357
30
0.0
11
0.004918
21
0.063901
31
0.0
0
LINE
8
0
6
CONTINUOUS
10
0.017496
20
0.037002
30
0.0
11
0.017496
21
0.038802
31
0.0
0
LINE
8
0
6
CONTINUOUS
10
-0.017496
20
0.038802
30
0.0
11
-0.017496
21
0.037002
31
0.0
0
LINE
8
0
6
CONTINUOUS
10
-0.019222
20
0.030732
30
0.0
11
-0.019544
21
0.020524
31
0.0
0
LINE
8
0
6
CONTINUOUS
10
-0.014753
20
0.024208
30
0.0
11
-0.015757
21
0.028088
31
0.0
0
LINE
8
0
6
CONTINUOUS
10
-0.011274
20
0.019877
30
0.0
11
-0.012409
21
0.020732
31
0.0
0
LINE
8
0
6
CONTINUOUS
10
-0.012409
20
0.020732
30
0.0
11
-0.014753
21
0.024208
31
0.0
0
LINE
8
0
6
CONTINUOUS
10
-0.015757
20
0.028088
30
0.0
11
-0.016358
21
0.032085
31
0.0
0
LINE
8
0
6
CONTINUOUS
10
-0.016759
20
0.036335
30
0.0
11
-0.016358
21
0.032085
31
0.0
0
LINE
8
0
6
CONTINUOUS
10
-0.019000
20
0.037322
30
0.0
11
-0.019034
21
0.036672
31
0.0
0
LINE
8
0
6
CONTINUOUS
10
-0.014454
20
0.037322
30
0.0
11
-0.016852
21
0.037322
31
0.0
0
LINE
8
0
6
CONTINUOUS
10
-0.016759
20
0.036335
30
0.0
11
-0.016852
21
0.037322
31
0.0
0
LINE
8
0
6
CONTINUOUS
10
-0.016852
20
0.037322
30
0.0
11
-0.017514
21
0.037322
31
0.0
0
LINE
8
0
6
CONTINUOUS
10
0.000000
20
0.037322
30
0.0
11
-0.012511
21
0.037322
31
0.0
0
LINE
8
0
6
CONTINUOUS
10
-0.017550
20
0.037322
30
0.0
11
-0.019000
21
0.037322
31
0.0
0
LINE
8
0
6
CONTINUOUS
10
-0.019034
20
0.036672
30
0.0
11
-0.019222
21
0.030732
31
0.0
0
LINE
8
0
6
CONTINUOUS
10
-0.012511
20
0.037322
30
0.0
11
-0.014454
21
0.037322
31
0.0
0
LINE
8
0
6
CONTINUOUS
10
-0.019866
20
0.010315
30
0.0
11
-0.020194
21
-0.000074
31
0.0
0
LINE
8
0
6
CONTINUOUS
10
-0.019544
20
0.020524
30
0.0
11
-0.019866
21
0.010315
31
0.0
0
LINE
8
0
6
CONTINUOUS
10
-0.020194
20
-0.000074
30
0.0
11
-0.020510
21
-0.010103
31
0.0
0
LINE
8
0
6
CONTINUOUS
10
-0.020510
20
-0.010103
30
0.0
11
-0.022968
21
-0.088001
31
0.0
0
LINE
8
0
6
CONTINUOUS
10
0.000000
20
0.000763
30
0.0
11
0.000000
21
-0.005359
31
0.0
0
LINE
8
0
6
CONTINUOUS
10
0.000000
20
0.010934
30
0.0
11
0.000000
21
0.009374
31
0.0
0
LINE
8
0
6
CONTINUOUS
10
0.000000
20
0.009374
30
0.0
11
0.000000
21
0.006005
31
0.0
0
LINE
8
0
6
CONTINUOUS
10
0.000000
20
0.006005
30
0.0
11
0.000000
21
0.000763
31
0.0
0
LINE
8
0
6
CONTINUOUS
10
0.000000
20
-0.011565
30
0.0
11
0.000000
21
-0.088000
31
0.0
0
LINE
8
0
6
CONTINUOUS
10
0.019546
20
0.020524
30
0.0
11
0.019223
21
0.030732
31
0.0
0
LINE
8
0
6
CONTINUOUS
10
0.015757
20
0.028088
30
0.0
11
0.014753
21
0.024208
31
0.0
0
LINE
8
0
6
CONTINUOUS
10
0.012409
20
0.020732
30
0.0
11
0.011274
21
0.019877
31
0.0
0
LINE
8
0
6
CONTINUOUS
10
0.014753
20
0.024208
30
0.0
11
0.012409
21
0.020732
31
0.0
0
LINE
8
0
6
CONTINUOUS
10
0.016358
20
0.032085
30
0.0
11
0.015757
21
0.028088
31
0.0
0
LINE
8
0
6
CONTINUOUS
10
0.016358
20
0.032085
30
0.0
11
0.016759
21
0.036335
31
0.0
0
LINE
8
0
6
CONTINUOUS
10
0.019034
20
0.036672
30
0.0
11
0.019000
21
0.037322
31
0.0
0
LINE
8
0
6
CONTINUOUS
10
0.016852
20
0.037322
30
0.0
11
0.014454
21
0.037322
31
0.0
0
LINE
8
0
6
CONTINUOUS
10
0.017514
20
0.037322
30
0.0
11
0.016852
21
0.037322
31
0.0
0
LINE
8
0
6
CONTINUOUS
10
0.016852
20
0.037322
30
0.0
11
0.016759
21
0.036335
31
0.0
0
LINE
8
0
6
CONTINUOUS
10
0.012511
20
0.037322
30
0.0
11
0.000000
21
0.037322
31
0.0
0
LINE
8
0
6
CONTINUOUS
10
0.019000
20
0.037322
30
0.0
11
0.017550
21
0.037322
31
0.0
0
LINE
8
0
6
CONTINUOUS
10
0.019223
20
0.030732
30
0.0
11
0.019034
21
0.036672
31
0.0
0
LINE
8
0
6
CONTINUOUS
10
0.014454
20
0.037322
30
0.0
11
0.012511
21
0.037322
31
0.0
0
LINE
8
0
6
CONTINUOUS
10
0.020199
20
-0.000074
30
0.0
11
0.019869
21
0.010315
31
0.0
0
LINE
8
0
6
CONTINUOUS
10
0.019869
20
0.010315
30
0.0
11
0.019546
21
0.020524
31
0.0
0
LINE
8
0
6
CONTINUOUS
10
0.020516
20
-0.010102
30
0.0
11
0.020199
21
-0.000074
31
0.0
0
LINE
8
0
6
CONTINUOUS
10
0.022984
20
-0.088000
30
0.0
11
0.020516
21
-0.010102
31
0.0
0
LINE
8
0
6
CONTINUOUS
10
-0.016267
20
-0.089000
30
0.0
11
-0.011503
21
-0.089000
31
0.0
0
LINE
8
0
6
CONTINUOUS
10
-0.019922
20
-0.089000
30
0.0
11
-0.016267
21
-0.089000
31
0.0
0
LINE
8
0
6
CONTINUOUS
10
-0.005954
20
-0.089000
30
0.0
11
0.000000
21
-0.089000
31
0.0
0
LINE
8
0
6
CONTINUOUS
10
-0.011503
20
-0.089000
30
0.0
11
-0.005954
21
-0.089000
31
0.0
0
LINE
8
0
6
CONTINUOUS
10
-0.022218
20
-0.089000
30
0.0
11
-0.019922
21
-0.089000
31
0.0
0
LINE
8
0
6
CONTINUOUS
10
-0.022968
20
-0.088001
30
0.0
11
-0.023000
21
-0.089000
31
0.0
0
LINE
8
0
6
CONTINUOUS
10
-0.023000
20
-0.089000
30
0.0
11
-0.022218
21
-0.089000
31
0.0
0
LINE
8
0
6
CONTINUOUS
10
0.016267
20
-0.089000
30
0.0
11
0.011503
21
-0.089000
31
0.0
0
LINE
8
0
6
CONTINUOUS
10
0.019922
20
-0.089000
30
0.0
11
0.016267
21
-0.089000
31
0.0
0
LINE
8
0
6
CONTINUOUS
10
0.005954
20
-0.089000
30
0.0
11
0.000000
21
-0.089000
31
0.0
0
LINE
8
0
6
CONTINUOUS
10
0.011503
20
-0.089000
30
0.0
11
0.005954
21
-0.089000
31
0.0
0
LINE
8
0
6
CONTINUOUS
10
0.022218
20
-0.089000
30
0.0
11
0.019922
21
-0.089000
31
0.0
0
LINE
8
0
6
CONTINUOUS
10
0.023000
20
-0.089000
30
0.0
11
0.022984
21
-0.088000
31
0.0
0
LINE
8
0
6
CONTINUOUS
10
0.023000
20
-0.089000
30
0.0
11
0.022218
21
-0.089000
31
0.0
0
LINE
8
0
6
CONTINUOUS
10
0.009121
20
0.024213
30
0.0
11
0.009848
21
0.023460
31
0.0
0
LINE
8
0
6
CONTINUOUS
10
0.011079
20
0.021490
30
0.0
11
0.011274
21
0.020966
31
0.0
0
LINE
8
0
6
CONTINUOUS
10
0.010791
20
0.022325
30
0.0
11
0.010876
21
0.022067
31
0.0
0
LINE
8
0
6
CONTINUOUS
10
-0.009121
20
0.024213
30
0.0
11
-0.009848
21
0.023460
31
0.0
0
LINE
8
0
6
CONTINUOUS
10
0.010722
20
0.022556
30
0.0
11
0.010791
21
0.022325
31
0.0
0
LINE
8
0
6
CONTINUOUS
10
0.010876
20
0.022067
30
0.0
11
0.011079
21
0.021490
31
0.0
0
LINE
8
0
6
CONTINUOUS
10
0.009848
20
0.023460
30
0.0
11
0.010722
21
0.022556
31
0.0
0
LINE
8
0
6
CONTINUOUS
10
-0.009121
20
0.024213
30
0.0
11
-0.007957
21
0.024826
31
0.0
0
LINE
8
0
6
CONTINUOUS
10
-0.007957
20
0.024826
30
0.0
11
-0.006627
21
0.025639
31
0.0
0
LINE
8
0
6
CONTINUOUS
10
-0.003484
20
0.026617
30
0.0
11
0.000000
21
0.026955
31
0.0
0
LINE
8
0
6
CONTINUOUS
10
0.000000
20
0.026955
30
0.0
11
0.003484
21
0.026617
31
0.0
0
ENDSEC
0
EOF
