999
Erzeugt mit innoplus bad 
0
SECTION
2
HEADER
9
$ACADVER
1
AC1009
9
$DWGCODEPAGE
3
ISO8859-1
0
ENDSEC
0
SECTION
2
TABLES
0
TABLE
2
LAYER
70
1
0
LAYER
2
0
70
0
62
7
6
CONTINUOUS
0
ENDTAB
0
ENDSEC
0
SECTION
2
ENTITIES
0
LINE
8
0
6
CONTINUOUS
10
0.026100
20
0.038802
30
0.0
11
0.026100
21
0.037322
31
0.0
0
LINE
8
0
6
CONTINUOUS
10
0.061204
20
0.037002
30
0.0
11
0.061204
21
0.038802
31
0.0
0
LINE
8
0
6
CONTINUOUS
10
0.048211
20
0.037322
30
0.0
11
0.052448
21
0.037322
31
0.0
0
LINE
8
0
6
CONTINUOUS
10
0.052448
20
0.037322
30
0.0
11
0.056083
21
0.037322
31
0.0
0
LINE
8
0
6
CONTINUOUS
10
0.039008
20
0.037322
30
0.0
11
0.043677
21
0.037322
31
0.0
0
LINE
8
0
6
CONTINUOUS
10
0.056083
20
0.037322
30
0.0
11
0.058866
21
0.037322
31
0.0
0
LINE
8
0
6
CONTINUOUS
10
0.061204
20
0.037322
30
0.0
11
0.061204
21
0.038802
31
0.0
0
LINE
8
0
6
CONTINUOUS
10
0.060611
20
0.037322
30
0.0
11
0.061204
21
0.037322
31
0.0
0
LINE
8
0
6
CONTINUOUS
10
0.043677
20
0.037322
30
0.0
11
0.048211
21
0.037322
31
0.0
0
LINE
8
0
6
CONTINUOUS
10
0.058866
20
0.037322
30
0.0
11
0.060611
21
0.037322
31
0.0
0
LINE
8
0
6
CONTINUOUS
10
-0.051187
20
0.013913
30
0.0
11
-0.049010
21
0.013761
31
0.0
0
LINE
8
0
6
CONTINUOUS
10
0.021408
20
0.000763
30
0.0
11
0.022390
21
-0.005359
31
0.0
0
LINE
8
0
6
CONTINUOUS
10
0.007472
20
0.010934
30
0.0
11
0.012994
21
0.009374
31
0.0
0
LINE
8
0
6
CONTINUOUS
10
0.012994
20
0.009374
30
0.0
11
0.018230
21
0.006005
31
0.0
0
LINE
8
0
6
CONTINUOUS
10
0.018230
20
0.006005
30
0.0
11
0.021408
21
0.000763
31
0.0
0
LINE
8
0
6
CONTINUOUS
10
0.021979
20
-0.011565
30
0.0
11
0.019954
21
-0.088000
31
0.0
0
LINE
8
0
6
CONTINUOUS
10
0.063302
20
0.011808
30
0.0
11
0.063055
21
0.021211
31
0.0
0
LINE
8
0
6
CONTINUOUS
10
0.063886
20
-0.010343
30
0.0
11
0.063550
21
0.002406
31
0.0
0
LINE
8
0
6
CONTINUOUS
10
0.063550
20
0.002406
30
0.0
11
0.063302
21
0.011808
31
0.0
0
LINE
8
0
6
CONTINUOUS
10
0.065931
20
-0.088000
30
0.0
11
0.064691
21
-0.040907
31
0.0
0
LINE
8
0
6
CONTINUOUS
10
0.064375
20
-0.028929
30
0.0
11
0.063886
21
-0.010343
31
0.0
0
LINE
8
0
6
CONTINUOUS
10
0.062807
20
0.030613
30
0.0
11
0.062647
21
0.036670
31
0.0
0
LINE
8
0
6
CONTINUOUS
10
0.063055
20
0.021211
30
0.0
11
0.062807
21
0.030613
31
0.0
0
LINE
8
0
6
CONTINUOUS
10
-0.077091
20
0.028378
30
0.0
11
-0.072408
21
0.024826
31
0.0
0
LINE
8
0
6
CONTINUOUS
10
-0.076128
20
0.028088
30
0.0
11
-0.070861
21
0.024208
31
0.0
0
LINE
8
0
6
CONTINUOUS
10
-0.057534
20
0.016634
30
0.0
11
-0.055716
21
0.015553
31
0.0
0
LINE
8
0
6
CONTINUOUS
10
-0.064949
20
0.020732
30
0.0
11
-0.062596
21
0.019476
31
0.0
0
LINE
8
0
6
CONTINUOUS
10
-0.072408
20
0.024826
30
0.0
11
-0.067579
21
0.021839
31
0.0
0
LINE
8
0
6
CONTINUOUS
10
-0.070861
20
0.024208
30
0.0
11
-0.064949
21
0.020732
31
0.0
0
LINE
8
0
6
CONTINUOUS
10
-0.081058
20
0.032261
30
0.0
11
-0.077091
21
0.028378
31
0.0
0
LINE
8
0
6
CONTINUOUS
10
-0.080286
20
0.032085
30
0.0
11
-0.076128
21
0.028088
31
0.0
0
LINE
8
0
6
CONTINUOUS
10
-0.055826
20
0.015358
30
0.0
11
-0.054150
21
0.014411
31
0.0
0
LINE
8
0
6
CONTINUOUS
10
-0.054150
20
0.014411
30
0.0
11
-0.051187
21
0.013913
31
0.0
0
LINE
8
0
6
CONTINUOUS
10
-0.083682
20
0.036330
30
0.0
11
-0.081058
21
0.032261
31
0.0
0
LINE
8
0
6
CONTINUOUS
10
-0.080286
20
0.032085
30
0.0
11
-0.083058
21
0.036335
31
0.0
0
LINE
8
0
6
CONTINUOUS
10
0.043734
20
0.037322
30
0.0
11
0.023174
21
0.037322
31
0.0
0
LINE
8
0
6
CONTINUOUS
10
0.062023
20
0.037322
30
0.0
11
0.060125
21
0.037322
31
0.0
0
LINE
8
0
6
CONTINUOUS
10
0.053166
20
0.037322
30
0.0
11
0.048579
21
0.037322
31
0.0
0
LINE
8
0
6
CONTINUOUS
10
0.057104
20
0.037322
30
0.0
11
0.053166
21
0.037322
31
0.0
0
LINE
8
0
6
CONTINUOUS
10
0.060125
20
0.037322
30
0.0
11
0.057104
21
0.037322
31
0.0
0
LINE
8
0
6
CONTINUOUS
10
0.048579
20
0.037322
30
0.0
11
0.043734
21
0.037322
31
0.0
0
LINE
8
0
6
CONTINUOUS
10
0.062614
20
0.037322
30
0.0
11
0.062023
21
0.037322
31
0.0
0
LINE
8
0
6
CONTINUOUS
10
0.062647
20
0.036670
30
0.0
11
0.062614
21
0.037322
31
0.0
0
LINE
8
0
6
CONTINUOUS
10
-0.083704
20
0.037322
30
0.0
11
-0.084322
21
0.037322
31
0.0
0
LINE
8
0
6
CONTINUOUS
10
-0.084322
20
0.037322
30
0.0
11
-0.083682
21
0.036330
31
0.0
0
LINE
8
0
6
CONTINUOUS
10
-0.081326
20
0.037322
30
0.0
11
-0.083704
21
0.037322
31
0.0
0
LINE
8
0
6
CONTINUOUS
10
-0.083704
20
0.037322
30
0.0
11
-0.083058
21
0.036335
31
0.0
0
LINE
8
0
6
CONTINUOUS
10
0.023174
20
0.037322
30
0.0
11
-0.079143
21
0.037322
31
0.0
0
LINE
8
0
6
CONTINUOUS
10
-0.079143
20
0.037322
30
0.0
11
-0.081326
21
0.037322
31
0.0
0
LINE
8
0
6
CONTINUOUS
10
-0.049010
20
0.013761
30
0.0
11
0.007472
21
0.010934
31
0.0
0
LINE
8
0
6
CONTINUOUS
10
0.022390
20
-0.005359
30
0.0
11
0.021979
21
-0.011565
31
0.0
0
LINE
8
0
6
CONTINUOUS
10
0.026684
20
-0.089000
30
0.0
11
0.023027
21
-0.089000
31
0.0
0
LINE
8
0
6
CONTINUOUS
10
0.031450
20
-0.089000
30
0.0
11
0.026684
21
-0.089000
31
0.0
0
LINE
8
0
6
CONTINUOUS
10
0.019954
20
-0.088000
30
0.0
11
0.019944
21
-0.089000
31
0.0
0
LINE
8
0
6
CONTINUOUS
10
0.020728
20
-0.089000
30
0.0
11
0.019944
21
-0.089000
31
0.0
0
LINE
8
0
6
CONTINUOUS
10
0.023027
20
-0.089000
30
0.0
11
0.020728
21
-0.089000
31
0.0
0
LINE
8
0
6
CONTINUOUS
10
0.036999
20
-0.089000
30
0.0
11
0.031450
21
-0.089000
31
0.0
0
LINE
8
0
6
CONTINUOUS
10
0.065102
20
-0.089000
30
0.0
11
0.062804
21
-0.089000
31
0.0
0
LINE
8
0
6
CONTINUOUS
10
0.065944
20
-0.089000
30
0.0
11
0.065931
21
-0.088000
31
0.0
0
LINE
8
0
6
CONTINUOUS
10
0.065944
20
-0.089000
30
0.0
11
0.065102
21
-0.089000
31
0.0
0
LINE
8
0
6
CONTINUOUS
10
0.048821
20
-0.089000
30
0.0
11
0.042954
21
-0.089000
31
0.0
0
LINE
8
0
6
CONTINUOUS
10
0.062804
20
-0.089000
30
0.0
11
0.059145
21
-0.089000
31
0.0
0
LINE
8
0
6
CONTINUOUS
10
0.054376
20
-0.089000
30
0.0
11
0.059145
21
-0.089000
31
0.0
0
LINE
8
0
6
CONTINUOUS
10
0.054376
20
-0.089000
30
0.0
11
0.048821
21
-0.089000
31
0.0
0
LINE
8
0
6
CONTINUOUS
10
0.042954
20
-0.089000
30
0.0
11
0.036999
21
-0.089000
31
0.0
0
LINE
8
0
6
CONTINUOUS
10
-0.057802
20
0.011856
30
0.0
11
-0.055826
21
0.015358
31
0.0
0
LINE
8
0
6
CONTINUOUS
10
-0.075214
20
0.026955
30
0.0
11
-0.077491
21
0.022918
31
0.0
0
LINE
8
0
6
CONTINUOUS
10
-0.077737
20
0.022482
30
0.0
11
-0.077255
21
0.022212
31
0.0
0
LINE
8
0
6
CONTINUOUS
10
-0.077491
20
0.022918
30
0.0
11
-0.077737
21
0.022482
31
0.0
0
LINE
8
0
6
CONTINUOUS
10
-0.075857
20
0.021426
30
0.0
11
-0.077255
21
0.022212
31
0.0
0
LINE
8
0
6
CONTINUOUS
10
-0.073679
20
0.020202
30
0.0
11
-0.075857
21
0.021426
31
0.0
0
LINE
8
0
6
CONTINUOUS
10
-0.070934
20
0.018660
30
0.0
11
-0.073679
21
0.020202
31
0.0
0
LINE
8
0
6
CONTINUOUS
10
-0.067892
20
0.016951
30
0.0
11
-0.070934
21
0.018660
31
0.0
0
LINE
8
0
6
CONTINUOUS
10
-0.067892
20
0.016951
30
0.0
11
-0.064850
21
0.015242
31
0.0
0
LINE
8
0
6
CONTINUOUS
10
-0.064850
20
0.015242
30
0.0
11
-0.062106
21
0.013700
31
0.0
0
LINE
8
0
6
CONTINUOUS
10
-0.059928
20
0.012476
30
0.0
11
-0.062106
21
0.013700
31
0.0
0
LINE
8
0
6
CONTINUOUS
10
-0.059928
20
0.012476
30
0.0
11
-0.058530
21
0.011691
31
0.0
0
LINE
8
0
6
CONTINUOUS
10
-0.058048
20
0.011420
30
0.0
11
-0.057802
21
0.011856
31
0.0
0
LINE
8
0
6
CONTINUOUS
10
-0.058530
20
0.011691
30
0.0
11
-0.058048
21
0.011420
31
0.0
0
LINE
8
0
6
CONTINUOUS
10
0.072032
20
-0.014767
30
0.0
11
0.072518
21
-0.014210
31
0.0
0
LINE
8
0
6
CONTINUOUS
10
0.071947
20
-0.011072
30
0.0
11
0.070578
21
-0.011941
31
0.0
0
LINE
8
0
6
CONTINUOUS
10
0.081139
20
-0.012238
30
0.0
11
0.076450
21
-0.011873
31
0.0
0
LINE
8
0
6
CONTINUOUS
10
0.081139
20
-0.012238
30
0.0
11
0.076619
21
-0.012458
31
0.0
0
LINE
8
0
6
CONTINUOUS
10
0.076471
20
-0.012638
30
0.0
11
0.081150
21
-0.012498
31
0.0
0
LINE
8
0
6
CONTINUOUS
10
0.084273
20
-0.012160
30
0.0
11
0.083220
21
-0.012247
31
0.0
0
LINE
8
0
6
CONTINUOUS
10
0.083889
20
-0.012511
30
0.0
11
0.084273
21
-0.012160
31
0.0
0
LINE
8
0
6
CONTINUOUS
10
0.076450
20
-0.011873
30
0.0
11
0.081112
21
-0.012160
31
0.0
0
LINE
8
0
6
CONTINUOUS
10
0.070578
20
-0.011941
30
0.0
11
0.069539
21
-0.012918
31
0.0
0
LINE
8
0
6
CONTINUOUS
10
0.071589
20
-0.015363
30
0.0
11
0.072032
21
-0.014767
31
0.0
0
LINE
8
0
6
CONTINUOUS
10
0.073419
20
-0.012035
30
0.0
11
0.072514
21
-0.012538
31
0.0
0
LINE
8
0
6
CONTINUOUS
10
0.073096
20
-0.013741
30
0.0
11
0.073778
21
-0.013460
31
0.0
0
LINE
8
0
6
CONTINUOUS
10
0.073448
20
-0.012952
30
0.0
11
0.072735
21
-0.013327
31
0.0
0
LINE
8
0
6
CONTINUOUS
10
0.081159
20
-0.010216
30
0.0
11
0.076803
21
-0.009769
31
0.0
0
LINE
8
0
6
CONTINUOUS
10
0.071686
20
-0.014482
30
0.0
11
0.072101
21
-0.013790
31
0.0
0
LINE
8
0
6
CONTINUOUS
10
0.071605
20
-0.013040
30
0.0
11
0.071069
21
-0.013924
31
0.0
0
LINE
8
0
6
CONTINUOUS
10
0.073886
20
-0.010197
30
0.0
11
0.071947
21
-0.011072
31
0.0
0
LINE
8
0
6
CONTINUOUS
10
0.070217
20
-0.013536
30
0.0
11
0.069594
21
-0.014361
31
0.0
0
LINE
8
0
6
CONTINUOUS
10
0.071315
20
-0.015182
30
0.0
11
0.071686
21
-0.014482
31
0.0
0
LINE
8
0
6
CONTINUOUS
10
0.071069
20
-0.013924
30
0.0
11
0.070744
21
-0.014901
31
0.0
0
LINE
8
0
6
CONTINUOUS
10
0.072735
20
-0.013327
30
0.0
11
0.072101
21
-0.013790
31
0.0
0
LINE
8
0
6
CONTINUOUS
10
0.072518
20
-0.014210
30
0.0
11
0.073096
21
-0.013741
31
0.0
0
LINE
8
0
6
CONTINUOUS
10
0.069539
20
-0.012918
30
0.0
11
0.068623
21
-0.013979
31
0.0
0
LINE
8
0
6
CONTINUOUS
10
0.073419
20
-0.012035
30
0.0
11
0.076450
21
-0.011873
31
0.0
0
LINE
8
0
6
CONTINUOUS
10
0.073355
20
-0.011056
30
0.0
11
0.076512
21
-0.010564
31
0.0
0
LINE
8
0
6
CONTINUOUS
10
0.081172
20
-0.010707
30
0.0
11
0.076513
21
-0.010058
31
0.0
0
LINE
8
0
6
CONTINUOUS
10
0.076508
20
-0.010268
30
0.0
11
0.081172
21
-0.010707
31
0.0
0
LINE
8
0
6
CONTINUOUS
10
0.072097
20
-0.011406
30
0.0
11
0.073438
21
-0.010770
31
0.0
0
LINE
8
0
6
CONTINUOUS
10
0.073518
20
-0.010473
30
0.0
11
0.071959
21
-0.011156
31
0.0
0
LINE
8
0
6
CONTINUOUS
10
0.070841
20
-0.012243
30
0.0
11
0.072097
21
-0.011406
31
0.0
0
LINE
8
0
6
CONTINUOUS
10
0.071959
20
-0.011156
30
0.0
11
0.070607
21
-0.012060
31
0.0
0
LINE
8
0
6
CONTINUOUS
10
0.069890
20
-0.013330
30
0.0
11
0.070841
21
-0.012243
31
0.0
0
LINE
8
0
6
CONTINUOUS
10
0.070607
20
-0.012060
30
0.0
11
0.069608
21
-0.013168
31
0.0
0
LINE
8
0
6
CONTINUOUS
10
0.069608
20
-0.013168
30
0.0
11
0.068750
21
-0.014039
31
0.0
0
LINE
8
0
6
CONTINUOUS
10
0.073438
20
-0.010770
30
0.0
11
0.076508
21
-0.010268
31
0.0
0
LINE
8
0
6
CONTINUOUS
10
0.083215
20
-0.010216
30
0.0
11
0.081159
21
-0.010216
31
0.0
0
LINE
8
0
6
CONTINUOUS
10
0.084273
20
-0.012160
30
0.0
11
0.084318
21
-0.011144
31
0.0
0
LINE
8
0
6
CONTINUOUS
10
0.084075
20
-0.012160
30
0.0
11
0.084273
21
-0.012160
31
0.0
0
LINE
8
0
6
CONTINUOUS
10
0.083156
20
-0.012160
30
0.0
11
0.083748
21
-0.012160
31
0.0
0
LINE
8
0
6
CONTINUOUS
10
0.083228
20
-0.010707
30
0.0
11
0.083896
21
-0.010707
31
0.0
0
LINE
8
0
6
CONTINUOUS
10
0.083889
20
-0.012511
30
0.0
11
0.083220
21
-0.012247
31
0.0
0
LINE
8
0
6
CONTINUOUS
10
0.081150
20
-0.012498
30
0.0
11
0.083889
21
-0.012511
31
0.0
0
LINE
8
0
6
CONTINUOUS
10
0.084322
20
-0.010216
30
0.0
11
0.083215
21
-0.010216
31
0.0
0
LINE
8
0
6
CONTINUOUS
10
0.083227
20
-0.010579
30
0.0
11
0.083995
21
-0.010579
31
0.0
0
LINE
8
0
6
CONTINUOUS
10
0.084322
20
-0.010216
30
0.0
11
0.083995
21
-0.010579
31
0.0
0
LINE
8
0
6
CONTINUOUS
10
0.084318
20
-0.011144
30
0.0
11
0.084322
21
-0.010216
31
0.0
0
LINE
8
0
6
CONTINUOUS
10
0.083156
20
-0.012160
30
0.0
11
0.083227
21
-0.011144
31
0.0
0
LINE
8
0
6
CONTINUOUS
10
0.083227
20
-0.011144
30
0.0
11
0.083228
21
-0.010707
31
0.0
0
LINE
8
0
6
CONTINUOUS
10
0.081172
20
-0.010707
30
0.0
11
0.083228
21
-0.010707
31
0.0
0
LINE
8
0
6
CONTINUOUS
10
0.083156
20
-0.012160
30
0.0
11
0.081112
21
-0.012160
31
0.0
0
LINE
8
0
6
CONTINUOUS
10
0.083748
20
-0.012160
30
0.0
11
0.084075
21
-0.012160
31
0.0
0
LINE
8
0
6
CONTINUOUS
10
0.073778
20
-0.013460
30
0.0
11
0.076471
21
-0.012638
31
0.0
0
LINE
8
0
6
CONTINUOUS
10
0.076619
20
-0.012458
30
0.0
11
0.073448
21
-0.012952
31
0.0
0
LINE
8
0
6
CONTINUOUS
10
0.083995
20
-0.010579
30
0.0
11
0.083896
21
-0.010707
31
0.0
0
LINE
8
0
6
CONTINUOUS
10
0.083896
20
-0.010707
30
0.0
11
0.083894
21
-0.011144
31
0.0
0
LINE
8
0
6
CONTINUOUS
10
0.076803
20
-0.009769
30
0.0
11
0.073886
21
-0.010197
31
0.0
0
LINE
8
0
6
CONTINUOUS
10
0.073518
20
-0.010473
30
0.0
11
0.076513
21
-0.010058
31
0.0
0
LINE
8
0
6
CONTINUOUS
10
0.070744
20
-0.014901
30
0.0
11
0.064431
21
-0.038385
31
0.0
0
LINE
8
0
6
CONTINUOUS
10
0.064696
20
-0.041102
30
0.0
11
0.071589
21
-0.015363
31
0.0
0
LINE
8
0
6
CONTINUOUS
10
0.071315
20
-0.015182
30
0.0
11
0.064570
21
-0.040509
31
0.0
0
LINE
8
0
6
CONTINUOUS
10
0.068750
20
-0.014039
30
0.0
11
0.068623
21
-0.013979
31
0.0
0
LINE
8
0
6
CONTINUOUS
10
0.064264
20
-0.029870
30
0.0
11
0.068750
21
-0.014039
31
0.0
0
LINE
8
0
6
CONTINUOUS
10
0.068623
20
-0.013979
30
0.0
11
0.064372
21
-0.028796
31
0.0
0
LINE
8
0
6
CONTINUOUS
10
0.064302
20
-0.034652
30
0.0
11
0.069594
21
-0.014361
31
0.0
0
LINE
8
0
6
CONTINUOUS
10
0.038734
20
0.089000
30
0.0
11
0.034169
21
0.089000
31
0.0
0
LINE
8
0
6
CONTINUOUS
10
0.053166
20
0.089000
30
0.0
11
0.048579
21
0.089000
31
0.0
0
LINE
8
0
6
CONTINUOUS
10
0.030233
20
0.089000
30
0.0
11
0.027214
21
0.089000
31
0.0
0
LINE
8
0
6
CONTINUOUS
10
0.048579
20
0.089000
30
0.0
11
0.043677
21
0.089000
31
0.0
0
LINE
8
0
6
CONTINUOUS
10
0.062023
20
0.089000
30
0.0
11
0.060125
21
0.089000
31
0.0
0
LINE
8
0
6
CONTINUOUS
10
0.043677
20
0.089000
30
0.0
11
0.038734
21
0.089000
31
0.0
0
LINE
8
0
6
CONTINUOUS
10
0.062669
20
0.089000
30
0.0
11
0.062023
21
0.089000
31
0.0
0
LINE
8
0
6
CONTINUOUS
10
0.062669
20
0.088610
30
0.0
11
0.062669
21
0.089000
31
0.0
0
LINE
8
0
6
CONTINUOUS
10
0.057104
20
0.089000
30
0.0
11
0.053166
21
0.089000
31
0.0
0
LINE
8
0
6
CONTINUOUS
10
0.034169
20
0.089000
30
0.0
11
0.030233
21
0.089000
31
0.0
0
LINE
8
0
6
CONTINUOUS
10
0.027214
20
0.089000
30
0.0
11
0.025316
21
0.089000
31
0.0
0
LINE
8
0
6
CONTINUOUS
10
0.060125
20
0.089000
30
0.0
11
0.057104
21
0.089000
31
0.0
0
LINE
8
0
6
CONTINUOUS
10
0.062669
20
0.063901
30
0.0
11
0.062669
21
0.088610
31
0.0
0
LINE
8
0
6
CONTINUOUS
10
0.024668
20
0.089000
30
0.0
11
0.024668
21
0.088511
31
0.0
0
LINE
8
0
6
CONTINUOUS
10
0.025316
20
0.089000
30
0.0
11
0.024668
21
0.089000
31
0.0
0
LINE
8
0
6
CONTINUOUS
10
0.019690
20
0.080605
30
0.0
11
0.018859
21
0.079949
31
0.0
0
LINE
8
0
6
CONTINUOUS
10
0.018859
20
0.079949
30
0.0
11
0.018859
21
0.079445
31
0.0
0
LINE
8
0
6
CONTINUOUS
10
0.019148
20
0.079994
30
0.0
11
0.018859
21
0.079949
31
0.0
0
LINE
8
0
6
CONTINUOUS
10
0.018859
20
0.079445
30
0.0
11
0.018859
21
0.063901
31
0.0
0
LINE
8
0
6
CONTINUOUS
10
0.019310
20
0.080017
30
0.0
11
0.020101
21
0.080289
31
0.0
0
LINE
8
0
6
CONTINUOUS
10
0.020101
20
0.080289
30
0.0
11
0.024744
21
0.082386
31
0.0
0
LINE
8
0
6
CONTINUOUS
10
0.024744
20
0.082386
30
0.0
11
0.022581
21
0.082268
31
0.0
0
LINE
8
0
6
CONTINUOUS
10
0.024789
20
0.085139
30
0.0
11
0.024740
21
0.085142
31
0.0
0
LINE
8
0
6
CONTINUOUS
10
0.019265
20
0.063901
30
0.0
11
0.019307
21
0.079509
31
0.0
0
LINE
8
0
6
CONTINUOUS
10
0.019307
20
0.079509
30
0.0
11
0.019310
21
0.080017
31
0.0
0
LINE
8
0
6
CONTINUOUS
10
0.019148
20
0.079994
30
0.0
11
0.019310
21
0.080017
31
0.0
0
LINE
8
0
6
CONTINUOUS
10
0.019310
20
0.080017
30
0.0
11
0.019957
21
0.080622
31
0.0
0
LINE
8
0
6
CONTINUOUS
10
0.025296
20
0.081445
30
0.0
11
0.025296
21
0.082015
31
0.0
0
LINE
8
0
6
CONTINUOUS
10
0.025296
20
0.082015
30
0.0
11
0.025296
21
0.082585
31
0.0
0
LINE
8
0
6
CONTINUOUS
10
0.024649
20
0.085148
30
0.0
11
0.023715
21
0.083860
31
0.0
0
LINE
8
0
6
CONTINUOUS
10
0.024740
20
0.085142
30
0.0
11
0.024649
21
0.085148
31
0.0
0
LINE
8
0
6
CONTINUOUS
10
0.025296
20
0.082585
30
0.0
11
0.025296
21
0.082705
31
0.0
0
LINE
8
0
6
CONTINUOUS
10
0.025296
20
0.084949
30
0.0
11
0.025296
21
0.085104
31
0.0
0
LINE
8
0
6
CONTINUOUS
10
0.025296
20
0.085104
30
0.0
11
0.025214
21
0.085110
31
0.0
0
LINE
8
0
6
CONTINUOUS
10
0.025214
20
0.085110
30
0.0
11
0.024852
21
0.085134
31
0.0
0
LINE
8
0
6
CONTINUOUS
10
0.024852
20
0.085134
30
0.0
11
0.024789
21
0.085139
31
0.0
0
LINE
8
0
6
CONTINUOUS
10
0.021962
20
0.082160
30
0.0
11
0.019690
21
0.080605
31
0.0
0
LINE
8
0
6
CONTINUOUS
10
0.024970
20
0.083731
30
0.0
11
0.025296
21
0.082705
31
0.0
0
LINE
8
0
6
CONTINUOUS
10
0.025296
20
0.082705
30
0.0
11
0.025296
21
0.083827
31
0.0
0
LINE
8
0
6
CONTINUOUS
10
0.025296
20
0.083827
30
0.0
11
0.025296
21
0.084949
31
0.0
0
LINE
8
0
6
CONTINUOUS
10
0.022581
20
0.082268
30
0.0
11
0.024785
21
0.082632
31
0.0
0
LINE
8
0
6
CONTINUOUS
10
0.023604
20
0.083010
30
0.0
11
0.024785
21
0.082632
31
0.0
0
LINE
8
0
6
CONTINUOUS
10
0.024785
20
0.082632
30
0.0
11
0.024970
21
0.083731
31
0.0
0
LINE
8
0
6
CONTINUOUS
10
0.023011
20
0.082877
30
0.0
11
0.021962
21
0.082160
31
0.0
0
LINE
8
0
6
CONTINUOUS
10
0.023715
20
0.083860
30
0.0
11
0.023011
21
0.082877
31
0.0
0
LINE
8
0
6
CONTINUOUS
10
0.025295
20
0.063901
30
0.0
11
0.025296
21
0.081445
31
0.0
0
LINE
8
0
6
CONTINUOUS
10
0.034169
20
0.038802
30
0.0
11
0.038734
21
0.038802
31
0.0
0
LINE
8
0
6
CONTINUOUS
10
0.048579
20
0.038802
30
0.0
11
0.053166
21
0.038802
31
0.0
0
LINE
8
0
6
CONTINUOUS
10
0.027214
20
0.038802
30
0.0
11
0.030233
21
0.038802
31
0.0
0
LINE
8
0
6
CONTINUOUS
10
0.043677
20
0.038802
30
0.0
11
0.048579
21
0.038802
31
0.0
0
LINE
8
0
6
CONTINUOUS
10
0.060125
20
0.038802
30
0.0
11
0.062023
21
0.038802
31
0.0
0
LINE
8
0
6
CONTINUOUS
10
0.038734
20
0.038802
30
0.0
11
0.043677
21
0.038802
31
0.0
0
LINE
8
0
6
CONTINUOUS
10
0.062669
20
0.038802
30
0.0
11
0.062669
21
0.039193
31
0.0
0
LINE
8
0
6
CONTINUOUS
10
0.062023
20
0.038802
30
0.0
11
0.062669
21
0.038802
31
0.0
0
LINE
8
0
6
CONTINUOUS
10
0.053166
20
0.038802
30
0.0
11
0.057104
21
0.038802
31
0.0
0
LINE
8
0
6
CONTINUOUS
10
0.030233
20
0.038802
30
0.0
11
0.034169
21
0.038802
31
0.0
0
LINE
8
0
6
CONTINUOUS
10
0.025316
20
0.038802
30
0.0
11
0.027214
21
0.038802
31
0.0
0
LINE
8
0
6
CONTINUOUS
10
0.057104
20
0.038802
30
0.0
11
0.060125
21
0.038802
31
0.0
0
LINE
8
0
6
CONTINUOUS
10
0.062669
20
0.039193
30
0.0
11
0.062669
21
0.063901
31
0.0
0
LINE
8
0
6
CONTINUOUS
10
0.024668
20
0.038802
30
0.0
11
0.025316
21
0.038802
31
0.0
0
LINE
8
0
6
CONTINUOUS
10
0.024668
20
0.039291
30
0.0
11
0.024668
21
0.038802
31
0.0
0
LINE
8
0
6
CONTINUOUS
10
0.018859
20
0.047853
30
0.0
11
0.019690
21
0.047197
31
0.0
0
LINE
8
0
6
CONTINUOUS
10
0.018859
20
0.047853
30
0.0
11
0.019148
21
0.047809
31
0.0
0
LINE
8
0
6
CONTINUOUS
10
0.018859
20
0.048358
30
0.0
11
0.018859
21
0.047853
31
0.0
0
LINE
8
0
6
CONTINUOUS
10
0.018859
20
0.063901
30
0.0
11
0.018859
21
0.048358
31
0.0
0
LINE
8
0
6
CONTINUOUS
10
0.020101
20
0.047513
30
0.0
11
0.019310
21
0.047785
31
0.0
0
LINE
8
0
6
CONTINUOUS
10
0.020101
20
0.047513
30
0.0
11
0.024744
21
0.045416
31
0.0
0
LINE
8
0
6
CONTINUOUS
10
0.024744
20
0.045416
30
0.0
11
0.022581
21
0.045534
31
0.0
0
LINE
8
0
6
CONTINUOUS
10
0.024740
20
0.042660
30
0.0
11
0.024789
21
0.042664
31
0.0
0
LINE
8
0
6
CONTINUOUS
10
0.019307
20
0.048293
30
0.0
11
0.019265
21
0.063901
31
0.0
0
LINE
8
0
6
CONTINUOUS
10
0.019310
20
0.047785
30
0.0
11
0.019307
21
0.048293
31
0.0
0
LINE
8
0
6
CONTINUOUS
10
0.019957
20
0.047180
30
0.0
11
0.019310
21
0.047785
31
0.0
0
LINE
8
0
6
CONTINUOUS
10
0.019310
20
0.047785
30
0.0
11
0.019148
21
0.047809
31
0.0
0
LINE
8
0
6
CONTINUOUS
10
0.025296
20
0.045788
30
0.0
11
0.025296
21
0.046357
31
0.0
0
LINE
8
0
6
CONTINUOUS
10
0.025296
20
0.045217
30
0.0
11
0.025296
21
0.045788
31
0.0
0
LINE
8
0
6
CONTINUOUS
10
0.024649
20
0.042654
30
0.0
11
0.024740
21
0.042660
31
0.0
0
LINE
8
0
6
CONTINUOUS
10
0.023715
20
0.043942
30
0.0
11
0.024649
21
0.042654
31
0.0
0
LINE
8
0
6
CONTINUOUS
10
0.025296
20
0.045097
30
0.0
11
0.025296
21
0.045217
31
0.0
0
LINE
8
0
6
CONTINUOUS
10
0.025214
20
0.042692
30
0.0
11
0.025296
21
0.042698
31
0.0
0
LINE
8
0
6
CONTINUOUS
10
0.025296
20
0.042698
30
0.0
11
0.025296
21
0.042853
31
0.0
0
LINE
8
0
6
CONTINUOUS
10
0.024852
20
0.042668
30
0.0
11
0.025214
21
0.042692
31
0.0
0
LINE
8
0
6
CONTINUOUS
10
0.024789
20
0.042664
30
0.0
11
0.024852
21
0.042668
31
0.0
0
LINE
8
0
6
CONTINUOUS
10
0.019690
20
0.047197
30
0.0
11
0.021962
21
0.045643
31
0.0
0
LINE
8
0
6
CONTINUOUS
10
0.025296
20
0.043975
30
0.0
11
0.025296
21
0.045097
31
0.0
0
LINE
8
0
6
CONTINUOUS
10
0.024970
20
0.044071
30
0.0
11
0.025296
21
0.045097
31
0.0
0
LINE
8
0
6
CONTINUOUS
10
0.025296
20
0.042853
30
0.0
11
0.025296
21
0.043975
31
0.0
0
LINE
8
0
6
CONTINUOUS
10
0.024970
20
0.044071
30
0.0
11
0.024785
21
0.045170
31
0.0
0
LINE
8
0
6
CONTINUOUS
10
0.023604
20
0.044792
30
0.0
11
0.024785
21
0.045170
31
0.0
0
LINE
8
0
6
CONTINUOUS
10
0.024785
20
0.045170
30
0.0
11
0.022581
21
0.045534
31
0.0
0
LINE
8
0
6
CONTINUOUS
10
0.021962
20
0.045643
30
0.0
11
0.023011
21
0.044926
31
0.0
0
LINE
8
0
6
CONTINUOUS
10
0.023011
20
0.044926
30
0.0
11
0.023715
21
0.043942
31
0.0
0
LINE
8
0
6
CONTINUOUS
10
0.025296
20
0.046357
30
0.0
11
0.025295
21
0.063900
31
0.0
0
LINE
8
0
6
CONTINUOUS
10
0.064691
20
-0.040907
30
0.0
11
0.064670
21
-0.040857
31
0.0
0
LINE
8
0
6
CONTINUOUS
10
0.064351
20
-0.029272
30
0.0
11
0.064375
21
-0.028929
31
0.0
0
LINE
8
0
6
CONTINUOUS
10
0.064351
20
-0.029272
30
0.0
11
0.064264
21
-0.029870
31
0.0
0
LINE
8
0
6
CONTINUOUS
10
0.064670
20
-0.040857
30
0.0
11
0.064570
21
-0.040509
31
0.0
0
LINE
8
0
6
CONTINUOUS
10
0.064570
20
-0.040509
30
0.0
11
0.064536
21
-0.039888
31
0.0
0
LINE
8
0
6
CONTINUOUS
10
0.064258
20
-0.032067
30
0.0
11
0.064257
21
-0.031130
31
0.0
0
LINE
8
0
6
CONTINUOUS
10
0.064536
20
-0.039888
30
0.0
11
0.064431
21
-0.038385
31
0.0
0
LINE
8
0
6
CONTINUOUS
10
0.064257
20
-0.031130
30
0.0
11
0.064264
21
-0.029870
31
0.0
0
LINE
8
0
6
CONTINUOUS
10
0.064302
20
-0.034652
30
0.0
11
0.064292
21
-0.033930
31
0.0
0
LINE
8
0
6
CONTINUOUS
10
-0.055826
20
0.015358
30
0.0
11
-0.056214
21
0.015760
31
0.0
0
LINE
8
0
6
CONTINUOUS
10
-0.056228
20
0.015771
30
0.0
11
-0.056635
21
0.016008
31
0.0
0
LINE
8
0
6
CONTINUOUS
10
-0.066748
20
0.021490
30
0.0
11
-0.065627
21
0.020966
31
0.0
0
LINE
8
0
6
CONTINUOUS
10
-0.067894
20
0.022067
30
0.0
11
-0.066748
21
0.021490
31
0.0
0
LINE
8
0
6
CONTINUOUS
10
-0.056635
20
0.016008
30
0.0
11
-0.057534
21
0.016634
31
0.0
0
LINE
8
0
6
CONTINUOUS
10
-0.065627
20
0.020966
30
0.0
11
-0.064443
21
0.020379
31
0.0
0
LINE
8
0
6
CONTINUOUS
10
-0.064443
20
0.020379
30
0.0
11
-0.062596
21
0.019476
31
0.0
0
LINE
8
0
6
CONTINUOUS
10
-0.062596
20
0.019476
30
0.0
11
-0.062480
21
0.019443
31
0.0
0
LINE
8
0
6
CONTINUOUS
10
-0.062480
20
0.019443
30
0.0
11
-0.059610
21
0.018123
31
0.0
0
LINE
8
0
6
CONTINUOUS
10
-0.057559
20
0.016675
30
0.0
11
-0.059363
21
0.017925
31
0.0
0
ENDSEC
0
EOF
