999
Erzeugt mit innoplus bad 
0
SECTION
2
HEADER
9
$ACADVER
1
AC1009
9
$DWGCODEPAGE
3
ISO8859-1
0
ENDSEC
0
SECTION
2
TABLES
0
TABLE
2
LAYER
70
1
0
LAYER
2
0
70
0
62
7
6
CONTINUOUS
0
ENDTAB
0
ENDSEC
0
SECTION
2
ENTITIES
0
LINE
8
0
6
CONTINUOUS
10
-20.810857
20
85.587376
30
0.0
11
-19.547285
21
85.584335
31
0.0
0
LINE
8
0
6
CONTINUOUS
10
-20.810857
20
87.770619
30
0.0
11
-19.630305
21
88.290905
31
0.0
0
LINE
8
0
6
CONTINUOUS
10
-11.029815
20
95.705135
30
0.0
11
-8.890275
21
100.928675
31
0.0
0
LINE
8
0
6
CONTINUOUS
10
-10.219385
20
107.031285
30
0.0
11
-11.172695
21
100.786825
31
0.0
0
LINE
8
0
6
CONTINUOUS
10
-8.890275
20
100.928675
30
0.0
11
-7.918345
21
107.020765
31
0.0
0
LINE
8
0
6
CONTINUOUS
10
-19.547555
20
128.463465
30
0.0
11
-21.533045
21
128.460425
31
0.0
0
LINE
8
0
6
CONTINUOUS
10
-19.629305
20
125.749175
30
0.0
11
-22.307035
21
126.933465
31
0.0
0
LINE
8
0
6
CONTINUOUS
10
-21.533045
20
128.460425
30
0.0
11
-24.115425
21
128.549275
31
0.0
0
LINE
8
0
6
CONTINUOUS
10
-24.115425
20
128.549275
30
0.0
11
-27.861875
21
129.240435
31
0.0
0
LINE
8
0
6
CONTINUOUS
10
-7.918345
20
107.020765
30
0.0
11
-8.867905
21
113.040385
31
0.0
0
LINE
8
0
6
CONTINUOUS
10
-11.161965
20
113.180495
30
0.0
11
-10.219385
21
107.031285
31
0.0
0
LINE
8
0
6
CONTINUOUS
10
-56.010535
20
112.981945
30
0.0
11
-56.810005
21
107.035215
31
0.0
0
LINE
8
0
6
CONTINUOUS
10
-27.861875
20
129.240435
30
0.0
11
-33.810905
21
129.979365
31
0.0
0
LINE
8
0
6
CONTINUOUS
10
-55.778065
20
112.906235
30
0.0
11
-56.566565
21
107.020745
31
0.0
0
LINE
8
0
6
CONTINUOUS
10
-49.878595
20
123.089095
30
0.0
11
-53.496895
21
118.386435
31
0.0
0
LINE
8
0
6
CONTINUOUS
10
-33.810875
20
129.735065
30
0.0
11
-39.689655
21
128.962165
31
0.0
0
LINE
8
0
6
CONTINUOUS
10
-22.434865
20
126.702445
30
0.0
11
-27.926395
21
128.989045
31
0.0
0
LINE
8
0
6
CONTINUOUS
10
-14.124345
20
95.665425
30
0.0
11
-11.844585
21
101.149165
31
0.0
0
LINE
8
0
6
CONTINUOUS
10
-53.496905
20
95.655095
30
0.0
11
-49.878605
21
90.952415
31
0.0
0
LINE
8
0
6
CONTINUOUS
10
-11.844585
20
101.149165
30
0.0
11
-11.055355
21
107.020745
31
0.0
0
LINE
8
0
6
CONTINUOUS
10
-56.566565
20
107.020745
30
0.0
11
-55.778085
21
101.135305
31
0.0
0
LINE
8
0
6
CONTINUOUS
10
-11.849145
20
112.898985
30
0.0
11
-14.128425
21
118.381325
31
0.0
0
LINE
8
0
6
CONTINUOUS
10
-17.743775
20
90.964055
30
0.0
11
-14.124345
21
95.665425
31
0.0
0
LINE
8
0
6
CONTINUOUS
10
-14.128425
20
118.381325
30
0.0
11
-17.742035
21
123.085845
31
0.0
0
LINE
8
0
6
CONTINUOUS
10
-39.689655
20
128.962165
30
0.0
11
-45.169515
21
126.695495
31
0.0
0
LINE
8
0
6
CONTINUOUS
10
-11.055355
20
107.020745
30
0.0
11
-11.849145
21
112.898985
31
0.0
0
LINE
8
0
6
CONTINUOUS
10
-49.878605
20
90.952415
30
0.0
11
-46.810855
21
88.603027
31
0.0
0
LINE
8
0
6
CONTINUOUS
10
-55.778085
20
101.135305
30
0.0
11
-53.496905
21
95.655095
31
0.0
0
LINE
8
0
6
CONTINUOUS
10
-45.169515
20
126.695495
30
0.0
11
-49.878595
21
123.089095
31
0.0
0
LINE
8
0
6
CONTINUOUS
10
-53.496895
20
118.386435
30
0.0
11
-55.778065
21
112.906235
31
0.0
0
LINE
8
0
6
CONTINUOUS
10
-17.742035
20
123.085845
30
0.0
11
-22.434865
21
126.702445
31
0.0
0
LINE
8
0
6
CONTINUOUS
10
-20.810859
20
88.594536
30
0.0
11
-17.743775
21
90.964055
31
0.0
0
LINE
8
0
6
CONTINUOUS
10
-17.663185
20
90.694475
30
0.0
11
-17.580735
21
90.790305
31
0.0
0
LINE
8
0
6
CONTINUOUS
10
-17.580735
20
90.790305
30
0.0
11
-14.055115
21
95.308395
31
0.0
0
LINE
8
0
6
CONTINUOUS
10
-14.055115
20
95.308395
30
0.0
11
-13.924155
21
95.538265
31
0.0
0
LINE
8
0
6
CONTINUOUS
10
-13.924155
20
95.538265
30
0.0
11
-11.672865
21
100.867415
31
0.0
0
LINE
8
0
6
CONTINUOUS
10
-11.672865
20
100.867415
30
0.0
11
-11.618785
21
101.075745
31
0.0
0
LINE
8
0
6
CONTINUOUS
10
-11.618785
20
101.075745
30
0.0
11
-10.811213
21
107.022834
31
0.0
0
LINE
8
0
6
CONTINUOUS
10
-50.045685
20
90.774425
30
0.0
11
-46.810855
21
88.298217
31
0.0
0
LINE
8
0
6
CONTINUOUS
10
-53.703125
20
95.524135
30
0.0
11
-50.045685
21
90.774425
31
0.0
0
LINE
8
0
6
CONTINUOUS
10
-56.010575
20
101.059685
30
0.0
11
-53.703125
21
95.524135
31
0.0
0
LINE
8
0
6
CONTINUOUS
10
-27.865615
20
129.226765
30
0.0
11
-33.810915
21
129.979365
31
0.0
0
LINE
8
0
6
CONTINUOUS
10
-17.582025
20
123.256325
30
0.0
11
-17.655685
21
123.342305
31
0.0
0
LINE
8
0
6
CONTINUOUS
10
-14.056025
20
118.734735
30
0.0
11
-17.582025
21
123.256325
31
0.0
0
LINE
8
0
6
CONTINUOUS
10
-13.927925
20
118.508645
30
0.0
11
-14.056025
21
118.734735
31
0.0
0
LINE
8
0
6
CONTINUOUS
10
-11.671215
20
113.166355
30
0.0
11
-13.927925
21
118.508645
31
0.0
0
LINE
8
0
6
CONTINUOUS
10
-11.622275
20
112.972715
30
0.0
11
-11.671215
21
113.166355
31
0.0
0
LINE
8
0
6
CONTINUOUS
10
-10.811095
20
107.023705
30
0.0
11
-11.622275
21
112.972715
31
0.0
0
LINE
8
0
6
CONTINUOUS
10
-33.810915
20
129.979365
30
0.0
11
-39.750435
21
129.198775
31
0.0
0
LINE
8
0
6
CONTINUOUS
10
-45.287225
20
126.909585
30
0.0
11
-50.045705
21
123.267055
31
0.0
0
LINE
8
0
6
CONTINUOUS
10
-50.045705
20
123.267055
30
0.0
11
-53.703125
21
118.517355
31
0.0
0
LINE
8
0
6
CONTINUOUS
10
-53.703125
20
118.517355
30
0.0
11
-56.010575
21
112.981795
31
0.0
0
LINE
8
0
6
CONTINUOUS
10
-39.750435
20
129.198775
30
0.0
11
-45.287225
21
126.909585
31
0.0
0
LINE
8
0
6
CONTINUOUS
10
-56.010575
20
112.981795
30
0.0
11
-56.810595
21
107.015685
31
0.0
0
LINE
8
0
6
CONTINUOUS
10
-17.832985
20
90.494915
30
0.0
11
-17.663185
21
90.694475
31
0.0
0
LINE
8
0
6
CONTINUOUS
10
-17.663185
20
90.694475
30
0.0
11
-14.317415
21
94.827225
31
0.0
0
LINE
8
0
6
CONTINUOUS
10
-14.317415
20
94.827225
30
0.0
11
-14.055115
21
95.308395
31
0.0
0
LINE
8
0
6
CONTINUOUS
10
-14.055115
20
95.308395
30
0.0
11
-11.777125
21
100.432565
31
0.0
0
LINE
8
0
6
CONTINUOUS
10
-11.672865
20
100.867415
30
0.0
11
-11.727900
21
100.738991
31
0.0
0
LINE
8
0
6
CONTINUOUS
10
-11.777125
20
100.432565
30
0.0
11
-11.672865
21
100.867415
31
0.0
0
LINE
8
0
6
CONTINUOUS
10
-17.655685
20
123.342305
30
0.0
11
-17.806335
21
123.522285
31
0.0
0
LINE
8
0
6
CONTINUOUS
10
-14.324125
20
119.200935
30
0.0
11
-17.655685
21
123.342305
31
0.0
0
LINE
8
0
6
CONTINUOUS
10
-14.056025
20
118.734735
30
0.0
11
-14.324125
21
119.200935
31
0.0
0
LINE
8
0
6
CONTINUOUS
10
-11.777125
20
113.566995
30
0.0
11
-14.056025
21
118.734735
31
0.0
0
LINE
8
0
6
CONTINUOUS
10
-11.671215
20
113.166355
30
0.0
11
-11.777125
21
113.566995
31
0.0
0
LINE
8
0
6
CONTINUOUS
10
-11.742589
20
113.333008
30
0.0
11
-11.671215
21
113.166355
31
0.0
0
LINE
8
0
6
CONTINUOUS
10
6.707715
20
128.488875
30
0.0
11
6.456885
21
128.488635
31
0.0
0
LINE
8
0
6
CONTINUOUS
10
6.456655
20
85.601755
30
0.0
11
6.707475
21
85.601925
31
0.0
0
LINE
8
0
6
CONTINUOUS
10
7.929125
20
128.128265
30
0.0
11
6.707715
21
128.488875
31
0.0
0
LINE
8
0
6
CONTINUOUS
10
8.643615
20
127.818285
30
0.0
11
7.929125
21
128.128265
31
0.0
0
LINE
8
0
6
CONTINUOUS
10
8.643615
20
127.818285
30
0.0
11
7.435325
21
128.180085
31
0.0
0
LINE
8
0
6
CONTINUOUS
10
6.707475
20
85.601925
30
0.0
11
7.926665
21
85.951075
31
0.0
0
LINE
8
0
6
CONTINUOUS
10
7.926665
20
85.951075
30
0.0
11
8.641045
21
86.262145
31
0.0
0
LINE
8
0
6
CONTINUOUS
10
7.435165
20
85.911825
30
0.0
11
8.641045
21
86.262145
31
0.0
0
LINE
8
0
6
CONTINUOUS
10
6.250855
20
127.406145
30
0.0
11
7.435325
21
128.180085
31
0.0
0
LINE
8
0
6
CONTINUOUS
10
5.105665
20
125.442975
30
0.0
11
6.250855
21
127.406145
31
0.0
0
LINE
8
0
6
CONTINUOUS
10
9.314141
20
126.896755
30
0.0
11
8.643615
21
127.818285
31
0.0
0
LINE
8
0
6
CONTINUOUS
10
4.109595
20
122.389915
30
0.0
11
5.105665
21
125.442975
31
0.0
0
LINE
8
0
6
CONTINUOUS
10
3.287315
20
118.238715
30
0.0
11
4.109595
21
122.389915
31
0.0
0
LINE
8
0
6
CONTINUOUS
10
2.721765
20
113.125825
30
0.0
11
3.287315
21
118.238715
31
0.0
0
LINE
8
0
6
CONTINUOUS
10
7.435165
20
85.911825
30
0.0
11
6.253105
21
86.675645
31
0.0
0
LINE
8
0
6
CONTINUOUS
10
6.253105
20
86.675645
30
0.0
11
5.105905
21
88.643635
31
0.0
0
LINE
8
0
6
CONTINUOUS
10
2.501795
20
107.042415
30
0.0
11
2.721765
21
113.125825
31
0.0
0
LINE
8
0
6
CONTINUOUS
10
8.641045
20
86.262145
30
0.0
11
8.790027
21
86.467435
31
0.0
0
LINE
8
0
6
CONTINUOUS
10
5.105905
20
88.643635
30
0.0
11
4.109165
21
91.694855
31
0.0
0
LINE
8
0
6
CONTINUOUS
10
4.109165
20
91.694855
30
0.0
11
3.287615
21
95.825845
31
0.0
0
LINE
8
0
6
CONTINUOUS
10
2.721665
20
100.957275
30
0.0
11
2.501795
21
107.042415
31
0.0
0
LINE
8
0
6
CONTINUOUS
10
3.287615
20
95.825845
30
0.0
11
2.721665
21
100.957275
31
0.0
0
LINE
8
0
6
CONTINUOUS
10
6.456885
20
128.488635
30
0.0
11
-19.547555
21
128.463465
31
0.0
0
LINE
8
0
6
CONTINUOUS
10
-19.547285
20
85.584335
30
0.0
11
6.456655
21
85.601755
31
0.0
0
LINE
8
0
6
CONTINUOUS
10
-20.810865
20
70.236525
30
0.0
11
-20.810855
21
75.926225
31
0.0
0
LINE
8
0
6
CONTINUOUS
10
-20.810855
20
86.705215
30
0.0
11
-20.810865
21
91.552595
31
0.0
0
LINE
8
0
6
CONTINUOUS
10
-27.362865
20
118.306705
30
0.0
11
-33.810855
21
120.023015
31
0.0
0
LINE
8
0
6
CONTINUOUS
10
-20.810855
20
106.416105
30
0.0
11
-20.810855
21
106.950165
31
0.0
0
LINE
8
0
6
CONTINUOUS
10
-45.094855
20
113.469875
30
0.0
11
-46.810855
21
107.020755
31
0.0
0
LINE
8
0
6
CONTINUOUS
10
-46.810855
20
107.020755
30
0.0
11
-46.810855
21
106.950165
31
0.0
0
LINE
8
0
6
CONTINUOUS
10
-46.810855
20
102.652125
30
0.0
11
-46.810855
21
99.616415
31
0.0
0
LINE
8
0
6
CONTINUOUS
10
-20.810865
20
91.552595
30
0.0
11
-20.810855
21
95.888855
31
0.0
0
LINE
8
0
6
CONTINUOUS
10
-40.258855
20
118.306715
30
0.0
11
-45.094855
21
113.469875
31
0.0
0
LINE
8
0
6
CONTINUOUS
10
-20.810865
20
104.925865
30
0.0
11
-20.810855
21
106.416105
31
0.0
0
LINE
8
0
6
CONTINUOUS
10
-46.810855
20
91.552605
30
0.0
11
-46.810855
21
86.705225
31
0.0
0
LINE
8
0
6
CONTINUOUS
10
-46.810855
20
81.456235
30
0.0
11
-46.810855
21
75.926195
31
0.0
0
LINE
8
0
6
CONTINUOUS
10
-46.810855
20
95.888855
30
0.0
11
-46.810855
21
91.552605
31
0.0
0
LINE
8
0
6
CONTINUOUS
10
-46.810855
20
99.616415
30
0.0
11
-46.810855
21
95.888855
31
0.0
0
LINE
8
0
6
CONTINUOUS
10
-20.810865
20
99.616385
30
0.0
11
-20.810865
21
102.652115
31
0.0
0
LINE
8
0
6
CONTINUOUS
10
-20.810855
20
75.926225
30
0.0
11
-20.810865
21
81.456235
31
0.0
0
LINE
8
0
6
CONTINUOUS
10
-20.810865
20
81.456235
30
0.0
11
-20.810855
21
86.705215
31
0.0
0
LINE
8
0
6
CONTINUOUS
10
-46.810855
20
75.926195
30
0.0
11
-46.810855
21
70.236535
31
0.0
0
LINE
8
0
6
CONTINUOUS
10
-20.810865
20
102.652115
30
0.0
11
-20.810865
21
104.925865
31
0.0
0
LINE
8
0
6
CONTINUOUS
10
-46.810855
20
86.705225
30
0.0
11
-46.810855
21
81.456235
31
0.0
0
LINE
8
0
6
CONTINUOUS
10
-46.810855
20
106.950165
30
0.0
11
-46.810855
21
106.416115
31
0.0
0
LINE
8
0
6
CONTINUOUS
10
-46.810855
20
106.416115
30
0.0
11
-46.810855
21
104.925865
31
0.0
0
LINE
8
0
6
CONTINUOUS
10
-46.810855
20
104.925865
30
0.0
11
-46.810855
21
102.652125
31
0.0
0
LINE
8
0
6
CONTINUOUS
10
-33.810855
20
120.023015
30
0.0
11
-40.258855
21
118.306715
31
0.0
0
LINE
8
0
6
CONTINUOUS
10
-20.810855
20
95.888855
30
0.0
11
-20.810865
21
99.616385
31
0.0
0
LINE
8
0
6
CONTINUOUS
10
-22.526855
20
113.469875
30
0.0
11
-27.362865
21
118.306705
31
0.0
0
LINE
8
0
6
CONTINUOUS
10
-20.810855
20
107.020745
30
0.0
11
-22.526855
21
113.469875
31
0.0
0
LINE
8
0
6
CONTINUOUS
10
-20.810855
20
106.950165
30
0.0
11
-20.810855
21
107.020745
31
0.0
0
LINE
8
0
6
CONTINUOUS
10
-46.810855
20
70.236535
30
0.0
11
-46.810855
21
64.513315
31
0.0
0
LINE
8
0
6
CONTINUOUS
10
-33.810855
20
-129.679275
30
0.0
11
-27.362865
21
-129.679275
31
0.0
0
LINE
8
0
6
CONTINUOUS
10
-20.810855
20
64.513305
30
0.0
11
-20.810865
21
70.236525
31
0.0
0
LINE
8
0
6
CONTINUOUS
10
-27.362865
20
-129.679275
30
0.0
11
-22.526845
21
-129.679275
31
0.0
0
LINE
8
0
6
CONTINUOUS
10
-45.094865
20
-129.679275
30
0.0
11
-40.258855
21
-129.679275
31
0.0
0
LINE
8
0
6
CONTINUOUS
10
-20.810855
20
-129.679275
30
0.0
11
-20.810855
21
64.513305
31
0.0
0
LINE
8
0
6
CONTINUOUS
10
-22.526845
20
-129.679275
30
0.0
11
-20.810855
21
-129.679275
31
0.0
0
LINE
8
0
6
CONTINUOUS
10
-46.810855
20
-129.679275
30
0.0
11
-45.094865
21
-129.679275
31
0.0
0
LINE
8
0
6
CONTINUOUS
10
-46.810855
20
64.513315
30
0.0
11
-46.810855
21
-129.679275
31
0.0
0
LINE
8
0
6
CONTINUOUS
10
-40.258855
20
-129.679275
30
0.0
11
-33.810855
21
-129.679275
31
0.0
0
LINE
8
0
6
CONTINUOUS
10
-40.102855
20
-129.979345
30
0.0
11
-44.782855
21
-129.979345
31
0.0
0
LINE
8
0
6
CONTINUOUS
10
-27.518865
20
-129.979345
30
0.0
11
-33.810855
21
-129.979345
31
0.0
0
LINE
8
0
6
CONTINUOUS
10
-22.838855
20
-129.979345
30
0.0
11
-27.518865
21
-129.979345
31
0.0
0
LINE
8
0
6
CONTINUOUS
10
-33.810855
20
-129.979345
30
0.0
11
-40.102855
21
-129.979345
31
0.0
0
LINE
8
0
6
CONTINUOUS
10
-22.526845
20
-129.679275
30
0.0
11
-27.362865
21
-129.679275
31
0.0
0
LINE
8
0
6
CONTINUOUS
10
-27.518865
20
-129.979345
30
0.0
11
-22.838855
21
-129.979345
31
0.0
0
LINE
8
0
6
CONTINUOUS
10
-40.102855
20
-129.979345
30
0.0
11
-33.810855
21
-129.979345
31
0.0
0
LINE
8
0
6
CONTINUOUS
10
-33.810855
20
-129.679275
30
0.0
11
-40.258855
21
-129.679275
31
0.0
0
LINE
8
0
6
CONTINUOUS
10
-20.810855
20
-129.679275
30
0.0
11
-22.526845
21
-129.679275
31
0.0
0
LINE
8
0
6
CONTINUOUS
10
-21.122855
20
-129.979345
30
0.0
11
-20.810855
21
-129.679275
31
0.0
0
LINE
8
0
6
CONTINUOUS
10
-22.838855
20
-129.979345
30
0.0
11
-21.122855
21
-129.979345
31
0.0
0
LINE
8
0
6
CONTINUOUS
10
-33.810855
20
-129.979345
30
0.0
11
-27.518865
21
-129.979345
31
0.0
0
LINE
8
0
6
CONTINUOUS
10
-27.362865
20
-129.679275
30
0.0
11
-33.810855
21
-129.679275
31
0.0
0
LINE
8
0
6
CONTINUOUS
10
-45.094865
20
-129.679275
30
0.0
11
-46.810855
21
-129.679275
31
0.0
0
LINE
8
0
6
CONTINUOUS
10
-46.498865
20
-129.979345
30
0.0
11
-44.782855
21
-129.979345
31
0.0
0
LINE
8
0
6
CONTINUOUS
10
-46.810855
20
-129.679275
30
0.0
11
-46.498865
21
-129.979345
31
0.0
0
LINE
8
0
6
CONTINUOUS
10
-44.782855
20
-129.979345
30
0.0
11
-40.102855
21
-129.979345
31
0.0
0
LINE
8
0
6
CONTINUOUS
10
-40.258855
20
-129.679275
30
0.0
11
-45.094865
21
-129.679275
31
0.0
0
LINE
8
0
6
CONTINUOUS
10
7.836669
20
86.467435
30
0.0
11
8.930315
21
86.467435
31
0.0
0
LINE
8
0
6
CONTINUOUS
10
44.729235
20
102.446385
30
0.0
11
46.061145
21
102.505045
31
0.0
0
LINE
8
0
6
CONTINUOUS
10
44.039645
20
102.379475
30
0.0
11
44.729235
21
102.446385
31
0.0
0
LINE
8
0
6
CONTINUOUS
10
46.061145
20
102.505045
30
0.0
11
47.675955
21
102.546185
31
0.0
0
LINE
8
0
6
CONTINUOUS
10
38.276315
20
104.085625
30
0.0
11
38.807435
21
104.096095
31
0.0
0
LINE
8
0
6
CONTINUOUS
10
52.614595
20
104.102755
30
0.0
11
56.800985
21
102.833245
31
0.0
0
LINE
8
0
6
CONTINUOUS
10
56.800985
20
102.833245
30
0.0
11
56.810595
21
103.124605
31
0.0
0
LINE
8
0
6
CONTINUOUS
10
43.716115
20
102.037485
30
0.0
11
43.731875
21
102.292175
31
0.0
0
LINE
8
0
6
CONTINUOUS
10
37.564315
20
104.043075
30
0.0
11
37.840505
21
104.067685
31
0.0
0
LINE
8
0
6
CONTINUOUS
10
50.877555
20
104.191155
30
0.0
11
50.035355
21
104.192195
31
0.0
0
LINE
8
0
6
CONTINUOUS
10
47.675955
20
102.546185
30
0.0
11
55.708625
21
102.742615
31
0.0
0
LINE
8
0
6
CONTINUOUS
10
50.035355
20
104.192195
30
0.0
11
38.807435
21
104.096095
31
0.0
0
LINE
8
0
6
CONTINUOUS
10
43.731875
20
102.292175
30
0.0
11
44.039645
21
102.379475
31
0.0
0
LINE
8
0
6
CONTINUOUS
10
37.840505
20
104.067685
30
0.0
11
38.276315
21
104.085625
31
0.0
0
LINE
8
0
6
CONTINUOUS
10
52.614595
20
104.102755
30
0.0
11
52.332295
21
104.143295
31
0.0
0
LINE
8
0
6
CONTINUOUS
10
37.564315
20
104.043075
30
0.0
11
37.213865
21
104.009855
31
0.0
0
LINE
8
0
6
CONTINUOUS
10
56.742135
20
102.796855
30
0.0
11
56.800985
21
102.833245
31
0.0
0
LINE
8
0
6
CONTINUOUS
10
50.877555
20
104.191155
30
0.0
11
51.560295
21
104.173215
31
0.0
0
LINE
8
0
6
CONTINUOUS
10
52.332295
20
104.143295
30
0.0
11
52.332315
21
104.670555
31
0.0
0
LINE
8
0
6
CONTINUOUS
10
51.560295
20
104.173215
30
0.0
11
52.332295
21
104.143295
31
0.0
0
LINE
8
0
6
CONTINUOUS
10
55.708625
20
102.742615
30
0.0
11
56.357125
21
102.764865
31
0.0
0
LINE
8
0
6
CONTINUOUS
10
56.810595
20
106.010635
30
0.0
11
56.810595
21
106.682085
31
0.0
0
LINE
8
0
6
CONTINUOUS
10
56.810595
20
103.124605
30
0.0
11
56.810595
21
104.115355
31
0.0
0
LINE
8
0
6
CONTINUOUS
10
56.810595
20
104.115355
30
0.0
11
56.810595
21
104.747115
31
0.0
0
LINE
8
0
6
CONTINUOUS
10
56.810595
20
104.747115
30
0.0
11
56.810595
21
105.378875
31
0.0
0
LINE
8
0
6
CONTINUOUS
10
56.810595
20
105.378875
30
0.0
11
56.810595
21
106.010635
31
0.0
0
LINE
8
0
6
CONTINUOUS
10
34.900075
20
102.784065
30
0.0
11
33.973415
21
99.124535
31
0.0
0
LINE
8
0
6
CONTINUOUS
10
43.134055
20
84.611615
30
0.0
11
43.175015
21
85.392805
31
0.0
0
LINE
8
0
6
CONTINUOUS
10
42.407795
20
84.611095
30
0.0
11
43.134055
21
84.611615
31
0.0
0
LINE
8
0
6
CONTINUOUS
10
11.644205
20
84.609505
30
0.0
11
22.410135
21
84.609515
31
0.0
0
LINE
8
0
6
CONTINUOUS
10
29.279835
20
84.609515
30
0.0
11
32.714695
21
84.609515
31
0.0
0
LINE
8
0
6
CONTINUOUS
10
43.550765
20
99.141415
30
0.0
11
43.716115
21
102.037485
31
0.0
0
LINE
8
0
6
CONTINUOUS
10
34.907605
20
102.200455
30
0.0
11
33.973415
21
99.124535
31
0.0
0
LINE
8
0
6
CONTINUOUS
10
32.898195
20
96.178345
30
0.0
11
33.239065
21
94.106465
31
0.0
0
LINE
8
0
6
CONTINUOUS
10
32.069495
20
98.927975
30
0.0
11
31.755065
21
97.197555
31
0.0
0
LINE
8
0
6
CONTINUOUS
10
32.069495
20
98.927975
30
0.0
11
32.287725
21
96.072915
31
0.0
0
LINE
8
0
6
CONTINUOUS
10
22.410135
20
84.609515
30
0.0
11
25.844985
21
84.609515
31
0.0
0
LINE
8
0
6
CONTINUOUS
10
25.844985
20
84.609515
30
0.0
11
29.279835
21
84.609515
31
0.0
0
LINE
8
0
6
CONTINUOUS
10
35.263345
20
84.610305
30
0.0
11
42.407795
21
84.611095
31
0.0
0
LINE
8
0
6
CONTINUOUS
10
43.222025
20
88.002575
30
0.0
11
43.267085
21
91.320135
31
0.0
0
LINE
8
0
6
CONTINUOUS
10
43.325905
20
94.020345
30
0.0
11
43.357105
21
95.855985
31
0.0
0
LINE
8
0
6
CONTINUOUS
10
43.409715
20
96.740945
30
0.0
11
43.456755
21
97.541285
31
0.0
0
LINE
8
0
6
CONTINUOUS
10
43.456755
20
97.541285
30
0.0
11
43.550765
21
99.141415
31
0.0
0
LINE
8
0
6
CONTINUOUS
10
8.246215
20
87.687115
30
0.0
11
9.525195
21
85.406825
31
0.0
0
LINE
8
0
6
CONTINUOUS
10
5.787345
20
101.017795
30
0.0
11
6.315985
21
95.728395
31
0.0
0
LINE
8
0
6
CONTINUOUS
10
6.315985
20
95.728395
30
0.0
11
7.155395
21
91.185295
31
0.0
0
LINE
8
0
6
CONTINUOUS
10
7.155395
20
91.185295
30
0.0
11
8.246215
21
87.687115
31
0.0
0
LINE
8
0
6
CONTINUOUS
10
10.921755
20
84.609505
30
0.0
11
11.644205
21
84.609505
31
0.0
0
LINE
8
0
6
CONTINUOUS
10
9.525195
20
85.406825
30
0.0
11
10.921755
21
84.609505
31
0.0
0
LINE
8
0
6
CONTINUOUS
10
5.614155
20
106.682095
30
0.0
11
5.787345
21
101.017795
31
0.0
0
LINE
8
0
6
CONTINUOUS
10
32.714695
20
84.609515
30
0.0
11
35.263345
21
84.610305
31
0.0
0
LINE
8
0
6
CONTINUOUS
10
31.900335
20
90.094585
30
0.0
11
32.676115
21
85.414885
31
0.0
0
LINE
8
0
6
CONTINUOUS
10
43.175015
20
85.392805
30
0.0
11
43.222025
21
88.002575
31
0.0
0
LINE
8
0
6
CONTINUOUS
10
43.357105
20
95.855985
30
0.0
11
43.409715
21
96.740945
31
0.0
0
LINE
8
0
6
CONTINUOUS
10
32.690875
20
92.650565
30
0.0
11
33.002685
21
91.369065
31
0.0
0
LINE
8
0
6
CONTINUOUS
10
32.820385
20
94.948275
30
0.0
11
33.002685
21
91.369065
31
0.0
0
LINE
8
0
6
CONTINUOUS
10
33.239065
20
94.106465
30
0.0
11
32.820385
21
94.948275
31
0.0
0
LINE
8
0
6
CONTINUOUS
10
31.755065
20
97.197555
30
0.0
11
31.486765
21
95.472145
31
0.0
0
LINE
8
0
6
CONTINUOUS
10
43.267085
20
91.320135
30
0.0
11
43.325905
21
94.020345
31
0.0
0
LINE
8
0
6
CONTINUOUS
10
31.486765
20
95.472145
30
0.0
11
31.320795
21
93.143935
31
0.0
0
LINE
8
0
6
CONTINUOUS
10
32.931165
20
96.969555
30
0.0
11
32.965495
21
97.804815
31
0.0
0
LINE
8
0
6
CONTINUOUS
10
32.965495
20
97.804815
30
0.0
11
33.515405
21
99.507435
31
0.0
0
LINE
8
0
6
CONTINUOUS
10
32.898195
20
96.178345
30
0.0
11
32.931165
21
96.969555
31
0.0
0
LINE
8
0
6
CONTINUOUS
10
32.690875
20
92.650565
30
0.0
11
32.820385
21
94.948275
31
0.0
0
LINE
8
0
6
CONTINUOUS
10
33.515405
20
99.507435
30
0.0
11
34.900075
21
102.784065
31
0.0
0
LINE
8
0
6
CONTINUOUS
10
31.078025
20
91.760375
30
0.0
11
30.835235
21
90.376815
31
0.0
0
LINE
8
0
6
CONTINUOUS
10
31.320795
20
93.143935
30
0.0
11
31.078025
21
91.760375
31
0.0
0
LINE
8
0
6
CONTINUOUS
10
56.357125
20
102.764865
30
0.0
11
56.742135
21
102.796855
31
0.0
0
LINE
8
0
6
CONTINUOUS
10
35.257755
20
102.498595
30
0.0
11
35.141105
21
102.407465
31
0.0
0
LINE
8
0
6
CONTINUOUS
10
34.907605
20
102.200455
30
0.0
11
35.024785
21
102.316225
31
0.0
0
LINE
8
0
6
CONTINUOUS
10
35.141105
20
102.407465
30
0.0
11
35.024785
21
102.316225
31
0.0
0
LINE
8
0
6
CONTINUOUS
10
37.213865
20
104.009855
30
0.0
11
35.724715
21
102.869705
31
0.0
0
LINE
8
0
6
CONTINUOUS
10
35.374485
20
102.589725
30
0.0
11
35.491235
21
102.680845
31
0.0
0
LINE
8
0
6
CONTINUOUS
10
35.607835
20
102.775275
30
0.0
11
35.666135
21
102.822485
31
0.0
0
LINE
8
0
6
CONTINUOUS
10
35.549545
20
102.728065
30
0.0
11
35.607835
21
102.775275
31
0.0
0
LINE
8
0
6
CONTINUOUS
10
35.491235
20
102.680845
30
0.0
11
35.549545
21
102.728065
31
0.0
0
LINE
8
0
6
CONTINUOUS
10
35.257755
20
102.498595
30
0.0
11
35.374485
21
102.589725
31
0.0
0
LINE
8
0
6
CONTINUOUS
10
35.666135
20
102.822485
30
0.0
11
35.724715
21
102.869705
31
0.0
0
LINE
8
0
6
CONTINUOUS
10
8.930317
20
126.896755
30
0.0
11
7.935780
21
126.896755
31
0.0
0
LINE
8
0
6
CONTINUOUS
10
46.061145
20
110.859135
30
0.0
11
44.729235
21
110.917795
31
0.0
0
LINE
8
0
6
CONTINUOUS
10
44.729235
20
110.917795
30
0.0
11
44.039645
21
110.984705
31
0.0
0
LINE
8
0
6
CONTINUOUS
10
47.675955
20
110.817985
30
0.0
11
46.061145
21
110.859135
31
0.0
0
LINE
8
0
6
CONTINUOUS
10
38.807435
20
109.268085
30
0.0
11
38.276315
21
109.278555
31
0.0
0
LINE
8
0
6
CONTINUOUS
10
56.810595
20
110.239575
30
0.0
11
56.800985
21
110.530925
31
0.0
0
LINE
8
0
6
CONTINUOUS
10
56.800985
20
110.530925
30
0.0
11
52.614595
21
109.261415
31
0.0
0
LINE
8
0
6
CONTINUOUS
10
43.731875
20
111.072005
30
0.0
11
43.716115
21
111.326695
31
0.0
0
LINE
8
0
6
CONTINUOUS
10
37.840505
20
109.296495
30
0.0
11
37.564315
21
109.321105
31
0.0
0
LINE
8
0
6
CONTINUOUS
10
50.035355
20
109.171985
30
0.0
11
50.877555
21
109.173015
31
0.0
0
LINE
8
0
6
CONTINUOUS
10
55.708625
20
110.621565
30
0.0
11
47.675955
21
110.817985
31
0.0
0
LINE
8
0
6
CONTINUOUS
10
38.807435
20
109.268085
30
0.0
11
50.035355
21
109.171985
31
0.0
0
LINE
8
0
6
CONTINUOUS
10
44.039645
20
110.984705
30
0.0
11
43.731875
21
111.072005
31
0.0
0
LINE
8
0
6
CONTINUOUS
10
38.276315
20
109.278555
30
0.0
11
37.840505
21
109.296495
31
0.0
0
LINE
8
0
6
CONTINUOUS
10
52.332295
20
109.220875
30
0.0
11
52.614595
21
109.261415
31
0.0
0
LINE
8
0
6
CONTINUOUS
10
37.213865
20
109.354325
30
0.0
11
37.564315
21
109.321105
31
0.0
0
LINE
8
0
6
CONTINUOUS
10
56.800985
20
110.530925
30
0.0
11
56.742135
21
110.567325
31
0.0
0
LINE
8
0
6
CONTINUOUS
10
51.560295
20
109.190965
30
0.0
11
50.877555
21
109.173015
31
0.0
0
LINE
8
0
6
CONTINUOUS
10
52.332295
20
109.220875
30
0.0
11
51.560295
21
109.190965
31
0.0
0
LINE
8
0
6
CONTINUOUS
10
52.332315
20
108.693615
30
0.0
11
52.332295
21
109.220875
31
0.0
0
LINE
8
0
6
CONTINUOUS
10
56.357125
20
110.599315
30
0.0
11
55.708625
21
110.621565
31
0.0
0
LINE
8
0
6
CONTINUOUS
10
56.810595
20
106.682085
30
0.0
11
56.810595
21
107.353545
31
0.0
0
LINE
8
0
6
CONTINUOUS
10
56.810595
20
109.248815
30
0.0
11
56.810595
21
110.239575
31
0.0
0
LINE
8
0
6
CONTINUOUS
10
56.810595
20
108.617065
30
0.0
11
56.810595
21
109.248815
31
0.0
0
LINE
8
0
6
CONTINUOUS
10
56.810595
20
107.985305
30
0.0
11
56.810595
21
108.617065
31
0.0
0
LINE
8
0
6
CONTINUOUS
10
56.810595
20
107.353545
30
0.0
11
56.810595
21
107.985305
31
0.0
0
LINE
8
0
6
CONTINUOUS
10
34.900075
20
110.580115
30
0.0
11
33.973415
21
114.239645
31
0.0
0
LINE
8
0
6
CONTINUOUS
10
43.134065
20
128.752565
30
0.0
11
42.407795
21
128.753085
31
0.0
0
LINE
8
0
6
CONTINUOUS
10
43.175015
20
127.971375
30
0.0
11
43.134065
21
128.752565
31
0.0
0
LINE
8
0
6
CONTINUOUS
10
22.410135
20
128.754675
30
0.0
11
11.644215
21
128.754685
31
0.0
0
LINE
8
0
6
CONTINUOUS
10
32.714705
20
128.754675
30
0.0
11
29.279845
21
128.754675
31
0.0
0
LINE
8
0
6
CONTINUOUS
10
43.716115
20
111.326695
30
0.0
11
43.550765
21
114.222765
31
0.0
0
LINE
8
0
6
CONTINUOUS
10
33.973415
20
114.239645
30
0.0
11
34.907605
21
111.163725
31
0.0
0
LINE
8
0
6
CONTINUOUS
10
32.898205
20
117.185835
30
0.0
11
33.239065
21
119.257715
31
0.0
0
LINE
8
0
6
CONTINUOUS
10
32.069495
20
114.436205
30
0.0
11
32.287725
21
117.291265
31
0.0
0
LINE
8
0
6
CONTINUOUS
10
31.755075
20
116.166635
30
0.0
11
32.069495
21
114.436205
31
0.0
0
LINE
8
0
6
CONTINUOUS
10
25.844985
20
128.754675
30
0.0
11
22.410135
21
128.754675
31
0.0
0
LINE
8
0
6
CONTINUOUS
10
29.279845
20
128.754675
30
0.0
11
25.844985
21
128.754675
31
0.0
0
LINE
8
0
6
CONTINUOUS
10
42.407795
20
128.753085
30
0.0
11
35.263345
21
128.753885
31
0.0
0
LINE
8
0
6
CONTINUOUS
10
43.267095
20
122.044045
30
0.0
11
43.222025
21
125.361605
31
0.0
0
LINE
8
0
6
CONTINUOUS
10
43.357115
20
117.508195
30
0.0
11
43.325915
21
119.343835
31
0.0
0
LINE
8
0
6
CONTINUOUS
10
43.456755
20
115.822895
30
0.0
11
43.409715
21
116.623245
31
0.0
0
LINE
8
0
6
CONTINUOUS
10
43.550765
20
114.222765
30
0.0
11
43.456755
21
115.822895
31
0.0
0
LINE
8
0
6
CONTINUOUS
10
9.525195
20
127.957375
30
0.0
11
8.246225
21
125.677075
31
0.0
0
LINE
8
0
6
CONTINUOUS
10
6.315985
20
117.635795
30
0.0
11
5.787345
21
112.346395
31
0.0
0
LINE
8
0
6
CONTINUOUS
10
7.155405
20
122.178905
30
0.0
11
6.315985
21
117.635795
31
0.0
0
LINE
8
0
6
CONTINUOUS
10
8.246225
20
125.677075
30
0.0
11
7.155405
21
122.178905
31
0.0
0
LINE
8
0
6
CONTINUOUS
10
10.921765
20
128.754685
30
0.0
11
9.525195
21
127.957375
31
0.0
0
LINE
8
0
6
CONTINUOUS
10
11.644215
20
128.754685
30
0.0
11
10.921765
21
128.754685
31
0.0
0
LINE
8
0
6
CONTINUOUS
10
35.263345
20
128.753885
30
0.0
11
32.714705
21
128.754675
31
0.0
0
LINE
8
0
6
CONTINUOUS
10
31.900345
20
123.269595
30
0.0
11
32.676115
21
127.949305
31
0.0
0
LINE
8
0
6
CONTINUOUS
10
43.222025
20
125.361605
30
0.0
11
43.175015
21
127.971375
31
0.0
0
LINE
8
0
6
CONTINUOUS
10
43.409715
20
116.623245
30
0.0
11
43.357115
21
117.508195
31
0.0
0
LINE
8
0
6
CONTINUOUS
10
32.820385
20
118.415905
30
0.0
11
33.239065
21
119.257715
31
0.0
0
LINE
8
0
6
CONTINUOUS
10
32.820385
20
118.415905
30
0.0
11
33.002695
21
121.995115
31
0.0
0
LINE
8
0
6
CONTINUOUS
10
33.002695
20
121.995115
30
0.0
11
32.690885
21
120.713625
31
0.0
0
LINE
8
0
6
CONTINUOUS
10
31.486775
20
117.892045
30
0.0
11
31.755075
21
116.166635
31
0.0
0
LINE
8
0
6
CONTINUOUS
10
43.325915
20
119.343835
30
0.0
11
43.267095
21
122.044045
31
0.0
0
LINE
8
0
6
CONTINUOUS
10
31.320805
20
120.220245
30
0.0
11
31.486775
21
117.892045
31
0.0
0
LINE
8
0
6
CONTINUOUS
10
32.965505
20
115.559365
30
0.0
11
32.931175
21
116.394635
31
0.0
0
LINE
8
0
6
CONTINUOUS
10
33.515405
20
113.856745
30
0.0
11
32.965505
21
115.559365
31
0.0
0
LINE
8
0
6
CONTINUOUS
10
32.931175
20
116.394635
30
0.0
11
32.898205
21
117.185835
31
0.0
0
LINE
8
0
6
CONTINUOUS
10
32.820385
20
118.415905
30
0.0
11
32.690885
21
120.713625
31
0.0
0
LINE
8
0
6
CONTINUOUS
10
34.900075
20
110.580115
30
0.0
11
33.515405
21
113.856745
31
0.0
0
LINE
8
0
6
CONTINUOUS
10
30.835245
20
122.987375
30
0.0
11
31.078025
21
121.603805
31
0.0
0
LINE
8
0
6
CONTINUOUS
10
31.078025
20
121.603805
30
0.0
11
31.320805
21
120.220245
31
0.0
0
LINE
8
0
6
CONTINUOUS
10
56.742135
20
110.567325
30
0.0
11
56.357125
21
110.599315
31
0.0
0
LINE
8
0
6
CONTINUOUS
10
35.141105
20
110.956715
30
0.0
11
35.257755
21
110.865585
31
0.0
0
LINE
8
0
6
CONTINUOUS
10
35.024785
20
111.047955
30
0.0
11
34.907605
21
111.163725
31
0.0
0
LINE
8
0
6
CONTINUOUS
10
35.024785
20
111.047955
30
0.0
11
35.141105
21
110.956715
31
0.0
0
LINE
8
0
6
CONTINUOUS
10
35.724715
20
110.494475
30
0.0
11
37.213865
21
109.354325
31
0.0
0
LINE
8
0
6
CONTINUOUS
10
35.491235
20
110.683335
30
0.0
11
35.374485
21
110.774455
31
0.0
0
LINE
8
0
6
CONTINUOUS
10
35.666135
20
110.541695
30
0.0
11
35.607835
21
110.588905
31
0.0
0
LINE
8
0
6
CONTINUOUS
10
35.607835
20
110.588905
30
0.0
11
35.549545
21
110.636115
31
0.0
0
LINE
8
0
6
CONTINUOUS
10
35.549545
20
110.636115
30
0.0
11
35.491235
21
110.683335
31
0.0
0
LINE
8
0
6
CONTINUOUS
10
35.374485
20
110.774455
30
0.0
11
35.257755
21
110.865585
31
0.0
0
LINE
8
0
6
CONTINUOUS
10
35.724715
20
110.494475
30
0.0
11
35.666135
21
110.541695
31
0.0
0
LINE
8
0
6
CONTINUOUS
10
5.787345
20
112.346395
30
0.0
11
5.614155
21
106.682095
31
0.0
0
LINE
8
0
6
CONTINUOUS
10
3.417360
20
99.154526
30
0.0
11
3.214714
21
101.201081
31
0.0
0
LINE
8
0
6
CONTINUOUS
10
3.012842
20
106.682095
30
0.0
11
3.024302
21
107.043125
31
0.0
0
LINE
8
0
6
CONTINUOUS
10
3.214714
20
101.201081
30
0.0
11
3.182081
21
101.528237
31
0.0
0
LINE
8
0
6
CONTINUOUS
10
3.129416
20
102.981702
30
0.0
11
3.012842
21
106.682095
31
0.0
0
LINE
8
0
6
CONTINUOUS
10
3.656781
20
116.622725
30
0.0
11
3.835702
21
117.590809
31
0.0
0
LINE
8
0
6
CONTINUOUS
10
4.632866
20
121.436092
30
0.0
11
4.438211
21
120.820625
31
0.0
0
LINE
8
0
6
CONTINUOUS
10
3.721968
20
96.386296
30
0.0
11
3.616550
21
96.741465
31
0.0
0
LINE
8
0
6
CONTINUOUS
10
3.182081
20
101.528237
30
0.0
11
3.161162
21
101.628955
31
0.0
0
ENDSEC
0
EOF
