999
Erzeugt mit innoplus bad 
0
SECTION
2
HEADER
9
$ACADVER
1
AC1009
9
$DWGCODEPAGE
3
ISO8859-1
0
ENDSEC
0
SECTION
2
TABLES
0
TABLE
2
LAYER
70
1
0
LAYER
2
0
70
0
62
7
6
CONTINUOUS
0
ENDTAB
0
ENDSEC
0
SECTION
2
ENTITIES
0
LINE
8
0
6
CONTINUOUS
10
126.863475
20
-152.499995
30
0.0
11
129.198175
21
-152.499985
31
0.0
0
LINE
8
0
6
CONTINUOUS
10
90.607075
20
-152.499995
30
0.0
11
95.142935
21
-152.499995
31
0.0
0
LINE
8
0
6
CONTINUOUS
10
87.182405
20
-152.499995
30
0.0
11
90.607075
21
-152.499995
31
0.0
0
LINE
8
0
6
CONTINUOUS
10
85.584335
20
-101.355445
30
0.0
11
85.589115
21
-101.763905
31
0.0
0
LINE
8
0
6
CONTINUOUS
10
84.062125
20
-151.643215
30
0.0
11
84.062125
21
-152.499995
31
0.0
0
LINE
8
0
6
CONTINUOUS
10
84.062125
20
-95.785725
30
0.0
11
84.062125
21
-102.410195
31
0.0
0
LINE
8
0
6
CONTINUOUS
10
129.979365
20
-64.464355
30
0.0
11
129.967085
21
-64.146165
31
0.0
0
LINE
8
0
6
CONTINUOUS
10
118.896725
20
-152.499995
30
0.0
11
123.437185
21
-152.499995
31
0.0
0
LINE
8
0
6
CONTINUOUS
10
123.437185
20
-152.499995
30
0.0
11
126.863475
21
-152.499995
31
0.0
0
LINE
8
0
6
CONTINUOUS
10
128.460425
20
-101.762275
30
0.0
11
128.463465
21
-101.354335
31
0.0
0
LINE
8
0
6
CONTINUOUS
10
129.979365
20
-152.499995
30
0.0
11
129.979365
21
-151.643225
31
0.0
0
LINE
8
0
6
CONTINUOUS
10
129.979365
20
-102.409925
30
0.0
11
129.979365
21
-95.784235
31
0.0
0
LINE
8
0
6
CONTINUOUS
10
84.074395
20
-64.146155
30
0.0
11
84.062125
21
-64.464355
31
0.0
0
LINE
8
0
6
CONTINUOUS
10
84.843515
20
-152.499985
30
0.0
11
87.182405
21
-152.499995
31
0.0
0
LINE
8
0
6
CONTINUOUS
10
84.062125
20
-102.410195
30
0.0
11
84.062125
21
-110.116475
31
0.0
0
LINE
8
0
6
CONTINUOUS
10
129.979365
20
-110.116125
30
0.0
11
129.979365
21
-102.409925
31
0.0
0
LINE
8
0
6
CONTINUOUS
10
100.545885
20
-122.119965
30
0.0
11
94.809805
21
-119.395305
31
0.0
0
LINE
8
0
6
CONTINUOUS
10
107.020765
20
-123.104985
30
0.0
11
100.545885
21
-122.119965
31
0.0
0
LINE
8
0
6
CONTINUOUS
10
119.227695
20
-119.387065
30
0.0
11
113.508965
21
-122.119275
31
0.0
0
LINE
8
0
6
CONTINUOUS
10
113.508965
20
-122.119275
30
0.0
11
107.020765
21
-123.104985
31
0.0
0
LINE
8
0
6
CONTINUOUS
10
129.967085
20
-64.146165
30
0.0
11
129.735065
21
-63.583335
31
0.0
0
LINE
8
0
6
CONTINUOUS
10
84.306445
20
-63.583325
30
0.0
11
84.074395
21
-64.146155
31
0.0
0
LINE
8
0
6
CONTINUOUS
10
126.702445
20
-63.598685
30
0.0
11
128.989045
21
-63.612635
31
0.0
0
LINE
8
0
6
CONTINUOUS
10
84.306445
20
-63.583325
30
0.0
11
85.105135
21
-63.560975
31
0.0
0
LINE
8
0
6
CONTINUOUS
10
84.886705
20
-63.220135
30
0.0
11
84.306445
21
-63.583325
31
0.0
0
LINE
8
0
6
CONTINUOUS
10
90.964055
20
-63.573875
30
0.0
11
93.424450
21
-63.575974
31
0.0
0
LINE
8
0
6
CONTINUOUS
10
119.940908
20
-63.578707
30
0.0
11
123.085845
21
-63.581695
31
0.0
0
LINE
8
0
6
CONTINUOUS
10
85.105135
20
-63.560975
30
0.0
11
87.341425
21
-63.597485
31
0.0
0
LINE
8
0
6
CONTINUOUS
10
129.735065
20
-63.583335
30
0.0
11
129.155515
21
-63.220405
31
0.0
0
LINE
8
0
6
CONTINUOUS
10
123.085845
20
-63.581695
30
0.0
11
126.702445
21
-63.598685
31
0.0
0
LINE
8
0
6
CONTINUOUS
10
87.341425
20
-63.597485
30
0.0
11
90.964055
21
-63.573875
31
0.0
0
LINE
8
0
6
CONTINUOUS
10
127.969595
20
-63.177185
30
0.0
11
125.782005
21
-63.176215
31
0.0
0
LINE
8
0
6
CONTINUOUS
10
86.175035
20
-63.172275
30
0.0
11
85.388915
21
-63.174505
31
0.0
0
LINE
8
0
6
CONTINUOUS
10
85.388915
20
-63.174505
30
0.0
11
84.886705
21
-63.220135
31
0.0
0
LINE
8
0
6
CONTINUOUS
10
93.597457
20
-63.174635
30
0.0
11
91.721755
21
-63.174585
31
0.0
0
LINE
8
0
6
CONTINUOUS
10
122.325225
20
-63.174725
30
0.0
11
119.766762
21
-63.174725
31
0.0
0
LINE
8
0
6
CONTINUOUS
10
88.267855
20
-63.176015
30
0.0
11
86.175035
21
-63.172275
31
0.0
0
LINE
8
0
6
CONTINUOUS
10
128.654135
20
-63.174575
30
0.0
11
127.969595
21
-63.177185
31
0.0
0
LINE
8
0
6
CONTINUOUS
10
129.155515
20
-63.220405
30
0.0
11
128.654135
21
-63.174575
31
0.0
0
LINE
8
0
6
CONTINUOUS
10
125.782005
20
-63.176215
30
0.0
11
122.325225
21
-63.174725
31
0.0
0
LINE
8
0
6
CONTINUOUS
10
91.721755
20
-63.174585
30
0.0
11
88.267855
21
-63.176015
31
0.0
0
LINE
8
0
6
CONTINUOUS
10
129.979365
20
-93.531785
30
0.0
11
129.979365
21
-64.464355
31
0.0
0
LINE
8
0
6
CONTINUOUS
10
84.062125
20
-64.464355
30
0.0
11
84.062125
21
-93.533115
31
0.0
0
LINE
8
0
6
CONTINUOUS
10
84.062125
20
-112.478755
30
0.0
11
84.062125
21
-151.643215
31
0.0
0
LINE
8
0
6
CONTINUOUS
10
129.979365
20
-151.643225
30
0.0
11
129.979365
21
-112.478355
31
0.0
0
LINE
8
0
6
CONTINUOUS
10
100.515315
20
-152.499995
30
0.0
11
95.142935
21
-152.499995
31
0.0
0
LINE
8
0
6
CONTINUOUS
10
107.012275
20
-152.499995
30
0.0
11
100.515315
21
-152.499995
31
0.0
0
LINE
8
0
6
CONTINUOUS
10
84.843515
20
-152.499985
30
0.0
11
84.062125
21
-152.499995
31
0.0
0
LINE
8
0
6
CONTINUOUS
10
118.896725
20
-152.499995
30
0.0
11
113.525155
21
-152.499995
31
0.0
0
LINE
8
0
6
CONTINUOUS
10
113.525155
20
-152.499995
30
0.0
11
107.012275
21
-152.499995
31
0.0
0
LINE
8
0
6
CONTINUOUS
10
129.979365
20
-152.499995
30
0.0
11
129.198175
21
-152.499985
31
0.0
0
LINE
8
0
6
CONTINUOUS
10
100.499965
20
-125.029795
30
0.0
11
95.021345
21
-121.936305
31
0.0
0
LINE
8
0
6
CONTINUOUS
10
84.062125
20
-110.116475
30
0.0
11
84.062125
21
-112.478755
31
0.0
0
LINE
8
0
6
CONTINUOUS
10
119.007365
20
-121.932205
30
0.0
11
113.543555
21
-125.025265
31
0.0
0
LINE
8
0
6
CONTINUOUS
10
129.979365
20
-112.478355
30
0.0
11
129.979365
21
-110.116125
31
0.0
0
LINE
8
0
6
CONTINUOUS
10
129.979365
20
-95.784235
30
0.0
11
129.979365
21
-93.531785
31
0.0
0
LINE
8
0
6
CONTINUOUS
10
84.062125
20
-93.533115
30
0.0
11
84.062125
21
-95.785725
31
0.0
0
LINE
8
0
6
CONTINUOUS
10
128.463465
20
-101.354335
30
0.0
11
128.488635
21
-95.446375
31
0.0
0
LINE
8
0
6
CONTINUOUS
10
85.586336
20
-100.676629
30
0.0
11
85.584335
21
-101.355445
31
0.0
0
LINE
8
0
6
CONTINUOUS
10
127.818285
20
-100.036865
30
0.0
11
125.996435
21
-105.302345
31
0.0
0
LINE
8
0
6
CONTINUOUS
10
125.996435
20
-105.302345
30
0.0
11
122.955305
21
-109.707875
31
0.0
0
LINE
8
0
6
CONTINUOUS
10
122.955305
20
-109.707875
30
0.0
11
118.801005
21
-113.237375
31
0.0
0
LINE
8
0
6
CONTINUOUS
10
118.801005
20
-113.237375
30
0.0
11
113.252495
21
-115.812475
31
0.0
0
LINE
8
0
6
CONTINUOUS
10
113.252495
20
-115.812475
30
0.0
11
107.108345
21
-116.735095
31
0.0
0
LINE
8
0
6
CONTINUOUS
10
91.131195
20
-109.712305
30
0.0
11
88.095015
21
-105.310065
31
0.0
0
LINE
8
0
6
CONTINUOUS
10
107.108345
20
-116.735095
30
0.0
11
100.813185
21
-115.805895
31
0.0
0
LINE
8
0
6
CONTINUOUS
10
95.267975
20
-113.234205
30
0.0
11
91.131195
21
-109.712305
31
0.0
0
LINE
8
0
6
CONTINUOUS
10
100.813185
20
-115.805895
30
0.0
11
95.267975
21
-113.234205
31
0.0
0
LINE
8
0
6
CONTINUOUS
10
116.954215
20
118.922125
30
0.0
11
113.918505
21
125.692165
31
0.0
0
LINE
8
0
6
CONTINUOUS
10
89.298545
20
116.118095
30
0.0
11
91.379035
21
112.679675
31
0.0
0
LINE
8
0
6
CONTINUOUS
10
72.547995
20
126.261165
30
0.0
11
76.467515
21
125.363125
31
0.0
0
LINE
8
0
6
CONTINUOUS
10
80.195855
20
123.860995
30
0.0
11
83.634845
21
121.780805
31
0.0
0
LINE
8
0
6
CONTINUOUS
10
93.779605
20
105.033115
30
0.0
11
94.004355
21
101.020645
31
0.0
0
LINE
8
0
6
CONTINUOUS
10
120.023015
20
96.999865
30
0.0
11
119.879115
21
104.422895
31
0.0
0
LINE
8
0
6
CONTINUOUS
10
118.999655
20
111.783525
30
0.0
11
116.954215
21
118.922125
31
0.0
0
LINE
8
0
6
CONTINUOUS
10
113.918505
20
125.692165
30
0.0
11
109.933415
21
131.949945
31
0.0
0
LINE
8
0
6
CONTINUOUS
10
92.881435
20
108.951975
30
0.0
11
93.779605
21
105.033115
31
0.0
0
LINE
8
0
6
CONTINUOUS
10
91.379035
20
112.679675
30
0.0
11
92.881435
21
108.951975
31
0.0
0
LINE
8
0
6
CONTINUOUS
10
105.082465
20
137.561955
30
0.0
11
99.469475
21
142.412095
31
0.0
0
LINE
8
0
6
CONTINUOUS
10
86.695265
20
119.177955
30
0.0
11
89.298545
21
116.118095
31
0.0
0
LINE
8
0
6
CONTINUOUS
10
99.469475
20
142.412095
30
0.0
11
93.210645
21
146.396505
31
0.0
0
LINE
8
0
6
CONTINUOUS
10
83.634845
20
121.780805
30
0.0
11
86.695265
21
119.177955
31
0.0
0
LINE
8
0
6
CONTINUOUS
10
68.534825
20
126.485905
30
0.0
11
72.547995
21
126.261165
31
0.0
0
LINE
8
0
6
CONTINUOUS
10
109.933415
20
131.949945
30
0.0
11
105.082465
21
137.561955
31
0.0
0
LINE
8
0
6
CONTINUOUS
10
93.210645
20
146.396505
30
0.0
11
86.439405
21
149.431715
31
0.0
0
LINE
8
0
6
CONTINUOUS
10
79.299585
20
151.476785
30
0.0
11
71.937645
21
152.356115
31
0.0
0
LINE
8
0
6
CONTINUOUS
10
119.879115
20
104.422895
30
0.0
11
118.999655
21
111.783525
31
0.0
0
LINE
8
0
6
CONTINUOUS
10
-115.018005
20
124.800015
30
0.0
11
-109.561065
21
124.800015
31
0.0
0
LINE
8
0
6
CONTINUOUS
10
86.439405
20
149.431715
30
0.0
11
79.299585
21
151.476785
31
0.0
0
LINE
8
0
6
CONTINUOUS
10
-104.016095
20
124.800005
30
0.0
11
-104.016095
21
126.500005
31
0.0
0
LINE
8
0
6
CONTINUOUS
10
-105.468345
20
124.800005
30
0.0
11
-104.016095
21
124.800005
31
0.0
0
LINE
8
0
6
CONTINUOUS
10
76.467515
20
125.363125
30
0.0
11
80.195855
21
123.860995
31
0.0
0
LINE
8
0
6
CONTINUOUS
10
-109.561065
20
124.800015
30
0.0
11
-105.468345
21
124.800005
31
0.0
0
LINE
8
0
6
CONTINUOUS
10
94.004355
20
101.020645
30
0.0
11
94.018465
21
96.999865
31
0.0
0
LINE
8
0
6
CONTINUOUS
10
-124.567675
20
124.800005
30
0.0
11
-120.474965
21
124.800015
31
0.0
0
LINE
8
0
6
CONTINUOUS
10
-120.474965
20
124.800015
30
0.0
11
-115.018005
21
124.800015
31
0.0
0
LINE
8
0
6
CONTINUOUS
10
64.513315
20
152.500005
30
0.0
11
-129.679275
21
152.500005
31
0.0
0
LINE
8
0
6
CONTINUOUS
10
-129.679275
20
152.500005
30
0.0
11
-129.679275
21
150.784005
31
0.0
0
LINE
8
0
6
CONTINUOUS
10
64.513315
20
126.500005
30
0.0
11
68.534825
21
126.485905
31
0.0
0
LINE
8
0
6
CONTINUOUS
10
71.937645
20
152.356115
30
0.0
11
64.513315
21
152.500005
31
0.0
0
LINE
8
0
6
CONTINUOUS
10
94.018465
20
96.999865
30
0.0
11
94.018475
21
-62.197963
31
0.0
0
LINE
8
0
6
CONTINUOUS
10
-129.679275
20
150.784005
30
0.0
11
-129.679275
21
145.948015
31
0.0
0
LINE
8
0
6
CONTINUOUS
10
-129.679275
20
126.500005
30
0.0
11
-126.019935
21
126.500005
31
0.0
0
LINE
8
0
6
CONTINUOUS
10
-104.016095
20
126.500005
30
0.0
11
64.513315
21
126.500005
31
0.0
0
LINE
8
0
6
CONTINUOUS
10
-129.679275
20
128.216025
30
0.0
11
-129.679275
21
126.500005
31
0.0
0
LINE
8
0
6
CONTINUOUS
10
-129.679275
20
139.500015
30
0.0
11
-129.679275
21
133.052015
31
0.0
0
LINE
8
0
6
CONTINUOUS
10
120.023015
20
-63.174725
30
0.0
11
120.023015
21
96.999865
31
0.0
0
LINE
8
0
6
CONTINUOUS
10
-129.679275
20
145.948015
30
0.0
11
-129.679275
21
139.500015
31
0.0
0
LINE
8
0
6
CONTINUOUS
10
-129.679275
20
133.052015
30
0.0
11
-129.679275
21
128.216025
31
0.0
0
LINE
8
0
6
CONTINUOUS
10
-129.979345
20
139.500015
30
0.0
11
-129.979345
21
145.792035
31
0.0
0
LINE
8
0
6
CONTINUOUS
10
-129.979345
20
145.792035
30
0.0
11
-129.979345
21
150.472015
31
0.0
0
LINE
8
0
6
CONTINUOUS
10
-129.979345
20
128.528025
30
0.0
11
-129.979345
21
133.208035
31
0.0
0
LINE
8
0
6
CONTINUOUS
10
-129.979345
20
133.208035
30
0.0
11
-129.979345
21
139.500015
31
0.0
0
LINE
8
0
6
CONTINUOUS
10
-126.019935
20
126.500005
30
0.0
11
-126.019935
21
124.800005
31
0.0
0
LINE
8
0
6
CONTINUOUS
10
-126.019935
20
124.800005
30
0.0
11
-124.567675
21
124.800005
31
0.0
0
LINE
8
0
6
CONTINUOUS
10
-105.732385
20
124.500015
30
0.0
11
-109.693065
21
124.500035
31
0.0
0
LINE
8
0
6
CONTINUOUS
10
-120.342935
20
124.500035
30
0.0
11
-124.303625
21
124.500015
31
0.0
0
LINE
8
0
6
CONTINUOUS
10
-129.679275
20
128.216025
30
0.0
11
-129.679275
21
133.052015
31
0.0
0
LINE
8
0
6
CONTINUOUS
10
-129.979345
20
133.208035
30
0.0
11
-129.979345
21
128.528025
31
0.0
0
LINE
8
0
6
CONTINUOUS
10
-129.679275
20
145.948015
30
0.0
11
-129.679275
21
150.784005
31
0.0
0
LINE
8
0
6
CONTINUOUS
10
-129.979345
20
150.472015
30
0.0
11
-129.979345
21
145.792035
31
0.0
0
LINE
8
0
6
CONTINUOUS
10
-129.679275
20
139.500015
30
0.0
11
-129.679275
21
145.948015
31
0.0
0
LINE
8
0
6
CONTINUOUS
10
-129.979345
20
145.792035
30
0.0
11
-129.979345
21
139.500015
31
0.0
0
LINE
8
0
6
CONTINUOUS
10
-129.979345
20
152.188005
30
0.0
11
-129.979345
21
150.472015
31
0.0
0
LINE
8
0
6
CONTINUOUS
10
-129.679275
20
152.500005
30
0.0
11
-129.979345
21
152.188005
31
0.0
0
LINE
8
0
6
CONTINUOUS
10
-129.679275
20
150.784005
30
0.0
11
-129.679275
21
152.500005
31
0.0
0
LINE
8
0
6
CONTINUOUS
10
-129.679275
20
126.500005
30
0.0
11
-129.679275
21
128.216025
31
0.0
0
LINE
8
0
6
CONTINUOUS
10
-129.979345
20
126.812005
30
0.0
11
-129.679275
21
126.500005
31
0.0
0
LINE
8
0
6
CONTINUOUS
10
-129.979345
20
128.528025
30
0.0
11
-129.979345
21
126.812005
31
0.0
0
LINE
8
0
6
CONTINUOUS
10
-129.979345
20
139.500015
30
0.0
11
-129.979345
21
133.208035
31
0.0
0
LINE
8
0
6
CONTINUOUS
10
-129.679275
20
133.052015
30
0.0
11
-129.679275
21
139.500015
31
0.0
0
LINE
8
0
6
CONTINUOUS
10
-120.474965
20
124.800015
30
0.0
11
-124.567675
21
124.800005
31
0.0
0
LINE
8
0
6
CONTINUOUS
10
-124.303625
20
124.500015
30
0.0
11
-120.342935
21
124.500035
31
0.0
0
LINE
8
0
6
CONTINUOUS
10
-109.693065
20
124.500035
30
0.0
11
-105.732385
21
124.500015
31
0.0
0
LINE
8
0
6
CONTINUOUS
10
-105.468345
20
124.800005
30
0.0
11
-109.561065
21
124.800015
31
0.0
0
LINE
8
0
6
CONTINUOUS
10
-104.280125
20
124.500035
30
0.0
11
-104.016095
21
124.800005
31
0.0
0
LINE
8
0
6
CONTINUOUS
10
-105.732385
20
124.500015
30
0.0
11
-104.280125
21
124.500035
31
0.0
0
LINE
8
0
6
CONTINUOUS
10
-104.016095
20
124.800005
30
0.0
11
-105.468345
21
124.800005
31
0.0
0
LINE
8
0
6
CONTINUOUS
10
-125.755885
20
124.500035
30
0.0
11
-124.303625
21
124.500015
31
0.0
0
LINE
8
0
6
CONTINUOUS
10
-126.019935
20
124.800005
30
0.0
11
-125.755885
21
124.500035
31
0.0
0
LINE
8
0
6
CONTINUOUS
10
-124.567675
20
124.800005
30
0.0
11
-126.019935
21
124.800005
31
0.0
0
LINE
8
0
6
CONTINUOUS
10
-120.342935
20
124.500035
30
0.0
11
-115.018005
21
124.500015
31
0.0
0
LINE
8
0
6
CONTINUOUS
10
-115.018005
20
124.800015
30
0.0
11
-120.474965
21
124.800015
31
0.0
0
LINE
8
0
6
CONTINUOUS
10
-109.561065
20
124.800015
30
0.0
11
-115.018005
21
124.800015
31
0.0
0
LINE
8
0
6
CONTINUOUS
10
-115.018005
20
124.500015
30
0.0
11
-109.693065
21
124.500035
31
0.0
0
LINE
8
0
6
CONTINUOUS
10
102.446385
20
-1.458225
30
0.0
11
102.379475
21
-2.897035
31
0.0
0
LINE
8
0
6
CONTINUOUS
10
102.379475
20
-2.897035
30
0.0
11
102.292175
21
-4.729875
31
0.0
0
LINE
8
0
6
CONTINUOUS
10
105.093115
20
35.203295
30
0.0
11
104.705805
21
35.203295
31
0.0
0
LINE
8
0
6
CONTINUOUS
10
104.143295
20
34.290435
30
0.0
11
104.102755
21
33.471185
31
0.0
0
LINE
8
0
6
CONTINUOUS
10
102.505045
20
-0.142145
30
0.0
11
102.446385
21
-1.458225
31
0.0
0
LINE
8
0
6
CONTINUOUS
10
102.833245
20
7.467735
30
0.0
11
102.796855
21
6.708795
31
0.0
0
LINE
8
0
6
CONTINUOUS
10
102.764865
20
6.016685
30
0.0
11
102.742615
21
5.506845
31
0.0
0
LINE
8
0
6
CONTINUOUS
10
104.102755
20
33.471185
30
0.0
11
102.833245
21
7.467735
31
0.0
0
LINE
8
0
6
CONTINUOUS
10
102.742615
20
5.506845
30
0.0
11
102.546185
21
0.831975
31
0.0
0
LINE
8
0
6
CONTINUOUS
10
102.292175
20
-4.729875
30
0.0
11
102.037485
21
-6.897955
31
0.0
0
LINE
8
0
6
CONTINUOUS
10
104.705805
20
35.203295
30
0.0
11
104.191155
21
35.173385
31
0.0
0
LINE
8
0
6
CONTINUOUS
10
104.191155
20
35.173385
30
0.0
11
104.173215
21
34.852605
31
0.0
0
LINE
8
0
6
CONTINUOUS
10
104.143295
20
34.290435
30
0.0
11
104.670555
21
34.290315
31
0.0
0
LINE
8
0
6
CONTINUOUS
10
104.173215
20
34.852605
30
0.0
11
104.143295
21
34.290435
31
0.0
0
LINE
8
0
6
CONTINUOUS
10
106.682085
20
35.203295
30
0.0
11
106.255065
21
35.203295
31
0.0
0
LINE
8
0
6
CONTINUOUS
10
106.255065
20
35.203295
30
0.0
11
105.867755
21
35.203295
31
0.0
0
LINE
8
0
6
CONTINUOUS
10
105.867755
20
35.203295
30
0.0
11
105.480435
21
35.203295
31
0.0
0
LINE
8
0
6
CONTINUOUS
10
105.480435
20
35.203295
30
0.0
11
105.093115
21
35.203295
31
0.0
0
LINE
8
0
6
CONTINUOUS
10
102.546185
20
0.831975
30
0.0
11
102.505045
21
-0.142145
31
0.0
0
LINE
8
0
6
CONTINUOUS
10
84.611615
20
-87.226805
30
0.0
11
84.611095
21
-87.371545
31
0.0
0
LINE
8
0
6
CONTINUOUS
10
84.609515
20
-92.436875
30
0.0
11
84.609505
21
-95.162705
31
0.0
0
LINE
8
0
6
CONTINUOUS
10
84.609515
20
-89.836205
30
0.0
11
84.609515
21
-90.703095
31
0.0
0
LINE
8
0
6
CONTINUOUS
10
84.609515
20
-91.569985
30
0.0
11
84.609515
21
-92.436875
31
0.0
0
LINE
8
0
6
CONTINUOUS
10
84.609515
20
-90.703095
30
0.0
11
84.609515
21
-91.569985
31
0.0
0
LINE
8
0
6
CONTINUOUS
10
102.037485
20
-6.897955
30
0.0
11
99.141415
21
-29.813885
31
0.0
0
LINE
8
0
6
CONTINUOUS
10
101.010695
20
-109.275875
30
0.0
11
106.682095
21
-110.163625
31
0.0
0
LINE
8
0
6
CONTINUOUS
10
85.423235
20
-93.093165
30
0.0
11
87.700835
21
-98.547905
31
0.0
0
LINE
8
0
6
CONTINUOUS
10
87.700835
20
-98.547905
30
0.0
11
91.187425
21
-103.254275
31
0.0
0
LINE
8
0
6
CONTINUOUS
10
95.731185
20
-106.887205
30
0.0
11
101.010695
21
-109.275875
31
0.0
0
LINE
8
0
6
CONTINUOUS
10
91.187425
20
-103.254275
30
0.0
11
95.731185
21
-106.887205
31
0.0
0
LINE
8
0
6
CONTINUOUS
10
84.611615
20
-87.226805
30
0.0
11
85.423235
21
-93.093165
31
0.0
0
LINE
8
0
6
CONTINUOUS
10
85.392805
20
-81.369395
30
0.0
11
84.611615
21
-87.226805
31
0.0
0
LINE
8
0
6
CONTINUOUS
10
88.002575
20
-74.736555
30
0.0
11
85.392805
21
-81.369395
31
0.0
0
LINE
8
0
6
CONTINUOUS
10
94.020345
20
-62.193625
30
0.0
11
91.320135
21
-68.457535
31
0.0
0
LINE
8
0
6
CONTINUOUS
10
96.740945
20
-49.157805
30
0.0
11
95.855985
21
-55.581395
31
0.0
0
LINE
8
0
6
CONTINUOUS
10
99.141415
20
-29.813885
30
0.0
11
97.541285
21
-42.708355
31
0.0
0
LINE
8
0
6
CONTINUOUS
10
84.611095
20
-87.371545
30
0.0
11
84.610305
21
-89.179455
31
0.0
0
LINE
8
0
6
CONTINUOUS
10
84.609505
20
-95.162705
30
0.0
11
84.609505
21
-95.345035
31
0.0
0
LINE
8
0
6
CONTINUOUS
10
84.609505
20
-95.345035
30
0.0
11
85.420295
21
-100.335015
31
0.0
0
LINE
8
0
6
CONTINUOUS
10
85.420295
20
-100.335015
30
0.0
11
87.697485
21
-105.020125
31
0.0
0
LINE
8
0
6
CONTINUOUS
10
87.697485
20
-105.020125
30
0.0
11
91.184115
21
-109.062455
31
0.0
0
LINE
8
0
6
CONTINUOUS
10
95.728375
20
-112.182845
30
0.0
11
101.008775
21
-114.234535
31
0.0
0
LINE
8
0
6
CONTINUOUS
10
91.184115
20
-109.062455
30
0.0
11
95.728375
21
-112.182845
31
0.0
0
LINE
8
0
6
CONTINUOUS
10
101.008775
20
-114.234535
30
0.0
11
106.682095
21
-114.997105
31
0.0
0
LINE
8
0
6
CONTINUOUS
10
84.610305
20
-89.179455
30
0.0
11
84.609515
21
-89.836205
31
0.0
0
LINE
8
0
6
CONTINUOUS
10
91.320135
20
-68.457535
30
0.0
11
88.002575
21
-74.736555
31
0.0
0
LINE
8
0
6
CONTINUOUS
10
97.541285
20
-42.708355
30
0.0
11
96.740945
21
-49.157805
31
0.0
0
LINE
8
0
6
CONTINUOUS
10
95.855985
20
-55.581395
30
0.0
11
94.020345
21
-62.193625
31
0.0
0
LINE
8
0
6
CONTINUOUS
10
102.796855
20
6.708795
30
0.0
11
102.764865
21
6.016685
31
0.0
0
LINE
8
0
6
CONTINUOUS
10
110.984705
20
-2.897035
30
0.0
11
110.917795
21
-1.458225
31
0.0
0
LINE
8
0
6
CONTINUOUS
10
111.072005
20
-4.729875
30
0.0
11
110.984705
21
-2.897035
31
0.0
0
LINE
8
0
6
CONTINUOUS
10
108.658375
20
35.203295
30
0.0
11
108.271055
21
35.203295
31
0.0
0
LINE
8
0
6
CONTINUOUS
10
109.261415
20
33.471185
30
0.0
11
109.220875
21
34.290435
31
0.0
0
LINE
8
0
6
CONTINUOUS
10
110.917795
20
-1.458225
30
0.0
11
110.859135
21
-0.142145
31
0.0
0
LINE
8
0
6
CONTINUOUS
10
110.567325
20
6.708795
30
0.0
11
110.530925
21
7.467735
31
0.0
0
LINE
8
0
6
CONTINUOUS
10
110.621565
20
5.506845
30
0.0
11
110.599315
21
6.016685
31
0.0
0
LINE
8
0
6
CONTINUOUS
10
110.530925
20
7.467735
30
0.0
11
109.261415
21
33.471185
31
0.0
0
LINE
8
0
6
CONTINUOUS
10
110.817985
20
0.831975
30
0.0
11
110.621565
21
5.506845
31
0.0
0
LINE
8
0
6
CONTINUOUS
10
111.326695
20
-6.897955
30
0.0
11
111.072005
21
-4.729875
31
0.0
0
LINE
8
0
6
CONTINUOUS
10
109.190965
20
34.852605
30
0.0
11
109.173015
21
35.173385
31
0.0
0
LINE
8
0
6
CONTINUOUS
10
109.173015
20
35.173385
30
0.0
11
108.658375
21
35.203295
31
0.0
0
LINE
8
0
6
CONTINUOUS
10
109.220875
20
34.290435
30
0.0
11
109.190965
21
34.852605
31
0.0
0
LINE
8
0
6
CONTINUOUS
10
108.693615
20
34.290315
30
0.0
11
109.220875
21
34.290435
31
0.0
0
LINE
8
0
6
CONTINUOUS
10
107.109105
20
35.203295
30
0.0
11
106.682085
21
35.203295
31
0.0
0
LINE
8
0
6
CONTINUOUS
10
107.496425
20
35.203295
30
0.0
11
107.109105
21
35.203295
31
0.0
0
LINE
8
0
6
CONTINUOUS
10
107.883735
20
35.203295
30
0.0
11
107.496425
21
35.203295
31
0.0
0
LINE
8
0
6
CONTINUOUS
10
108.271055
20
35.203295
30
0.0
11
107.883735
21
35.203295
31
0.0
0
LINE
8
0
6
CONTINUOUS
10
110.859135
20
-0.142145
30
0.0
11
110.817985
21
0.831975
31
0.0
0
LINE
8
0
6
CONTINUOUS
10
128.753085
20
-87.371545
30
0.0
11
128.752565
21
-87.226805
31
0.0
0
LINE
8
0
6
CONTINUOUS
10
128.754685
20
-95.162705
30
0.0
11
128.754675
21
-92.436875
31
0.0
0
LINE
8
0
6
CONTINUOUS
10
128.754675
20
-90.703095
30
0.0
11
128.754675
21
-89.836205
31
0.0
0
LINE
8
0
6
CONTINUOUS
10
128.754675
20
-92.436875
30
0.0
11
128.754675
21
-91.569975
31
0.0
0
LINE
8
0
6
CONTINUOUS
10
128.754675
20
-91.569975
30
0.0
11
128.754675
21
-90.703095
31
0.0
0
LINE
8
0
6
CONTINUOUS
10
114.222765
20
-29.813885
30
0.0
11
111.326695
21
-6.897955
31
0.0
0
LINE
8
0
6
CONTINUOUS
10
106.682095
20
-110.163625
30
0.0
11
112.353485
21
-109.275875
31
0.0
0
LINE
8
0
6
CONTINUOUS
10
125.663355
20
-98.547905
30
0.0
11
127.940945
21
-93.093165
31
0.0
0
LINE
8
0
6
CONTINUOUS
10
122.176755
20
-103.254275
30
0.0
11
125.663355
21
-98.547905
31
0.0
0
LINE
8
0
6
CONTINUOUS
10
112.353485
20
-109.275875
30
0.0
11
117.632995
21
-106.887205
31
0.0
0
LINE
8
0
6
CONTINUOUS
10
117.632995
20
-106.887205
30
0.0
11
122.176755
21
-103.254275
31
0.0
0
LINE
8
0
6
CONTINUOUS
10
127.940945
20
-93.093165
30
0.0
11
128.752565
21
-87.226805
31
0.0
0
LINE
8
0
6
CONTINUOUS
10
128.752565
20
-87.226805
30
0.0
11
127.971375
21
-81.369395
31
0.0
0
LINE
8
0
6
CONTINUOUS
10
127.971375
20
-81.369395
30
0.0
11
125.361605
21
-74.736555
31
0.0
0
LINE
8
0
6
CONTINUOUS
10
122.044045
20
-68.457535
30
0.0
11
119.343835
21
-62.193625
31
0.0
0
LINE
8
0
6
CONTINUOUS
10
117.508195
20
-55.581395
30
0.0
11
116.623245
21
-49.157805
31
0.0
0
LINE
8
0
6
CONTINUOUS
10
115.822895
20
-42.708355
30
0.0
11
114.222765
21
-29.813885
31
0.0
0
LINE
8
0
6
CONTINUOUS
10
128.753885
20
-89.179455
30
0.0
11
128.753085
21
-87.371545
31
0.0
0
LINE
8
0
6
CONTINUOUS
10
127.943895
20
-100.335015
30
0.0
11
128.754685
21
-95.345035
31
0.0
0
LINE
8
0
6
CONTINUOUS
10
128.754685
20
-95.345035
30
0.0
11
128.754685
21
-95.162705
31
0.0
0
LINE
8
0
6
CONTINUOUS
10
125.666705
20
-105.020125
30
0.0
11
127.943895
21
-100.335015
31
0.0
0
LINE
8
0
6
CONTINUOUS
10
122.180075
20
-109.062455
30
0.0
11
125.666705
21
-105.020125
31
0.0
0
LINE
8
0
6
CONTINUOUS
10
112.355415
20
-114.234535
30
0.0
11
117.635815
21
-112.182845
31
0.0
0
LINE
8
0
6
CONTINUOUS
10
117.635815
20
-112.182845
30
0.0
11
122.180075
21
-109.062455
31
0.0
0
LINE
8
0
6
CONTINUOUS
10
106.682095
20
-114.997105
30
0.0
11
112.355415
21
-114.234535
31
0.0
0
LINE
8
0
6
CONTINUOUS
10
128.754675
20
-89.836205
30
0.0
11
128.753885
21
-89.179455
31
0.0
0
LINE
8
0
6
CONTINUOUS
10
125.361605
20
-74.736555
30
0.0
11
122.044045
21
-68.457535
31
0.0
0
LINE
8
0
6
CONTINUOUS
10
116.623245
20
-49.157805
30
0.0
11
115.822895
21
-42.708355
31
0.0
0
LINE
8
0
6
CONTINUOUS
10
119.343835
20
-62.193625
30
0.0
11
117.508195
21
-55.581395
31
0.0
0
LINE
8
0
6
CONTINUOUS
10
110.599315
20
6.016685
30
0.0
11
110.567325
21
6.708795
31
0.0
0
LINE
8
0
6
CONTINUOUS
10
95.862128
20
-112.311479
30
0.0
11
96.741465
21
-112.959027
31
0.0
0
ENDSEC
0
EOF
