999
Erzeugt mit innoplus bad 
0
SECTION
2
HEADER
9
$ACADVER
1
AC1009
9
$DWGCODEPAGE
3
ISO8859-1
0
ENDSEC
0
SECTION
2
TABLES
0
TABLE
2
LAYER
70
1
0
LAYER
2
0
70
0
62
7
6
CONTINUOUS
0
ENDTAB
0
ENDSEC
0
SECTION
2
ENTITIES
0
LINE
8
0
6
CONTINUOUS
10
-23.811820
20
78.104165
30
0.0
11
-23.258480
21
71.966685
31
0.0
0
LINE
8
0
6
CONTINUOUS
10
-25.189020
20
96.360865
30
0.0
11
-24.866440
21
89.784825
31
0.0
0
LINE
8
0
6
CONTINUOUS
10
-24.866440
20
89.784825
30
0.0
11
-24.337090
21
83.900355
31
0.0
0
LINE
8
0
6
CONTINUOUS
10
-25.462730
20
103.481775
30
0.0
11
-25.189020
21
96.360865
31
0.0
0
LINE
8
0
6
CONTINUOUS
10
-24.337090
20
83.900355
30
0.0
11
-23.811820
21
78.104165
31
0.0
0
LINE
8
0
6
CONTINUOUS
10
-20.026040
20
36.292385
30
0.0
11
-19.586820
21
32.005105
31
0.0
0
LINE
8
0
6
CONTINUOUS
10
-19.586820
20
32.005105
30
0.0
11
-18.721520
21
27.846455
31
0.0
0
LINE
8
0
6
CONTINUOUS
10
-18.721520
20
27.846455
30
0.0
11
-17.155480
21
23.991925
31
0.0
0
LINE
8
0
6
CONTINUOUS
10
-17.197370
20
24.072605
30
0.0
11
-15.363340
21
21.238945
31
0.0
0
LINE
8
0
6
CONTINUOUS
10
-16.858260
20
24.282075
30
0.0
11
-15.190990
21
21.445755
31
0.0
0
LINE
8
0
6
CONTINUOUS
10
-8.098300
20
15.548435
30
0.0
11
-4.196920
21
14.249605
31
0.0
0
LINE
8
0
6
CONTINUOUS
10
-19.621460
20
36.477255
30
0.0
11
-19.301210
21
32.149085
31
0.0
0
LINE
8
0
6
CONTINUOUS
10
-19.301210
20
32.149085
30
0.0
11
-18.513060
21
27.970405
31
0.0
0
LINE
8
0
6
CONTINUOUS
10
-18.513060
20
27.970405
30
0.0
11
-17.197370
21
24.072605
31
0.0
0
LINE
8
0
6
CONTINUOUS
10
-15.363340
20
21.238945
30
0.0
11
-14.842360
21
20.582985
31
0.0
0
LINE
8
0
6
CONTINUOUS
10
-14.842360
20
20.582985
30
0.0
11
-11.799290
21
17.737985
31
0.0
0
LINE
8
0
6
CONTINUOUS
10
-11.799290
20
17.737985
30
0.0
11
-8.098300
21
15.548435
31
0.0
0
LINE
8
0
6
CONTINUOUS
10
-4.196920
20
14.249605
30
0.0
11
0.000000
21
13.778255
31
0.0
0
LINE
8
0
6
CONTINUOUS
10
-25.145200
20
108.550985
30
0.0
11
-25.500000
21
103.704485
31
0.0
0
LINE
8
0
6
CONTINUOUS
10
-4.056630
20
14.792645
30
0.0
11
-7.929320
21
16.077135
31
0.0
0
LINE
8
0
6
CONTINUOUS
10
-8.043990
20
15.699345
30
0.0
11
-4.151580
21
14.380065
31
0.0
0
LINE
8
0
6
CONTINUOUS
10
-11.701110
20
17.947105
30
0.0
11
-8.043990
21
15.699345
31
0.0
0
LINE
8
0
6
CONTINUOUS
10
-15.190990
20
21.445755
30
0.0
11
-14.714480
21
20.763755
31
0.0
0
LINE
8
0
6
CONTINUOUS
10
-14.714480
20
20.763755
30
0.0
11
-11.701110
21
17.947105
31
0.0
0
LINE
8
0
6
CONTINUOUS
10
0.000000
20
14.363345
30
0.0
11
-4.056630
21
14.792645
31
0.0
0
LINE
8
0
6
CONTINUOUS
10
-4.151580
20
14.380065
30
0.0
11
0.000000
21
13.852795
31
0.0
0
LINE
8
0
6
CONTINUOUS
10
-23.258480
20
71.966685
30
0.0
11
-22.677550
21
65.525525
31
0.0
0
LINE
8
0
6
CONTINUOUS
10
-22.677550
20
65.525525
30
0.0
11
-22.180740
21
60.019175
31
0.0
0
LINE
8
0
6
CONTINUOUS
10
-22.180740
20
60.019175
30
0.0
11
-20.026040
21
36.292385
31
0.0
0
LINE
8
0
6
CONTINUOUS
10
-25.462730
20
103.481775
30
0.0
11
-25.038320
21
108.158475
31
0.0
0
LINE
8
0
6
CONTINUOUS
10
-14.556770
20
124.875315
30
0.0
11
-18.501170
21
121.582495
31
0.0
0
LINE
8
0
6
CONTINUOUS
10
-18.501170
20
121.582495
30
0.0
11
-21.670790
21
117.643155
31
0.0
0
LINE
8
0
6
CONTINUOUS
10
0.000000
20
129.358695
30
0.0
11
-5.140960
21
128.841555
31
0.0
0
LINE
8
0
6
CONTINUOUS
10
-25.038320
20
108.158475
30
0.0
11
-23.911800
21
113.202915
31
0.0
0
LINE
8
0
6
CONTINUOUS
10
-23.965490
20
113.255605
30
0.0
11
-25.069440
21
108.200185
31
0.0
0
LINE
8
0
6
CONTINUOUS
10
-21.670790
20
117.643155
30
0.0
11
-23.965490
21
113.255605
31
0.0
0
LINE
8
0
6
CONTINUOUS
10
-10.054340
20
127.324605
30
0.0
11
-14.556770
21
124.875315
31
0.0
0
LINE
8
0
6
CONTINUOUS
10
-5.140960
20
128.841555
30
0.0
11
-10.054340
21
127.324605
31
0.0
0
LINE
8
0
6
CONTINUOUS
10
-23.956870
20
113.254165
30
0.0
11
-25.075920
21
108.230165
31
0.0
0
LINE
8
0
6
CONTINUOUS
10
23.258480
20
71.966685
30
0.0
11
23.811820
21
78.104165
31
0.0
0
LINE
8
0
6
CONTINUOUS
10
24.866440
20
89.784825
30
0.0
11
25.189020
21
96.360865
31
0.0
0
LINE
8
0
6
CONTINUOUS
10
24.337090
20
83.900355
30
0.0
11
24.866440
21
89.784825
31
0.0
0
LINE
8
0
6
CONTINUOUS
10
25.189020
20
96.360865
30
0.0
11
25.462730
21
103.481775
31
0.0
0
LINE
8
0
6
CONTINUOUS
10
23.811820
20
78.104165
30
0.0
11
24.337090
21
83.900355
31
0.0
0
LINE
8
0
6
CONTINUOUS
10
19.586820
20
32.005105
30
0.0
11
20.026040
21
36.292385
31
0.0
0
LINE
8
0
6
CONTINUOUS
10
18.721520
20
27.846455
30
0.0
11
19.586820
21
32.005105
31
0.0
0
LINE
8
0
6
CONTINUOUS
10
17.155480
20
23.991925
30
0.0
11
18.721520
21
27.846455
31
0.0
0
LINE
8
0
6
CONTINUOUS
10
15.363340
20
21.238945
30
0.0
11
17.197370
21
24.072605
31
0.0
0
LINE
8
0
6
CONTINUOUS
10
15.190990
20
21.445755
30
0.0
11
16.858260
21
24.282075
31
0.0
0
LINE
8
0
6
CONTINUOUS
10
4.196920
20
14.249605
30
0.0
11
8.098300
21
15.548435
31
0.0
0
LINE
8
0
6
CONTINUOUS
10
19.301210
20
32.149085
30
0.0
11
19.621460
21
36.477255
31
0.0
0
LINE
8
0
6
CONTINUOUS
10
18.513060
20
27.970405
30
0.0
11
19.301210
21
32.149085
31
0.0
0
LINE
8
0
6
CONTINUOUS
10
17.197370
20
24.072605
30
0.0
11
18.513060
21
27.970405
31
0.0
0
LINE
8
0
6
CONTINUOUS
10
14.842360
20
20.582985
30
0.0
11
15.363340
21
21.238945
31
0.0
0
LINE
8
0
6
CONTINUOUS
10
11.799290
20
17.737985
30
0.0
11
14.842360
21
20.582985
31
0.0
0
LINE
8
0
6
CONTINUOUS
10
8.098300
20
15.548435
30
0.0
11
11.799290
21
17.737985
31
0.0
0
LINE
8
0
6
CONTINUOUS
10
0.000000
20
13.778255
30
0.0
11
4.196920
21
14.249605
31
0.0
0
LINE
8
0
6
CONTINUOUS
10
25.500000
20
103.704485
30
0.0
11
25.145200
21
108.550985
31
0.0
0
LINE
8
0
6
CONTINUOUS
10
4.151580
20
14.380065
30
0.0
11
8.043990
21
15.699345
31
0.0
0
LINE
8
0
6
CONTINUOUS
10
7.929320
20
16.077135
30
0.0
11
4.056630
21
14.792645
31
0.0
0
LINE
8
0
6
CONTINUOUS
10
8.043990
20
15.699345
30
0.0
11
11.701110
21
17.947105
31
0.0
0
LINE
8
0
6
CONTINUOUS
10
14.714480
20
20.763755
30
0.0
11
15.190990
21
21.445755
31
0.0
0
LINE
8
0
6
CONTINUOUS
10
11.701110
20
17.947105
30
0.0
11
14.714480
21
20.763755
31
0.0
0
LINE
8
0
6
CONTINUOUS
10
0.000000
20
13.852795
30
0.0
11
4.151580
21
14.380065
31
0.0
0
LINE
8
0
6
CONTINUOUS
10
4.056630
20
14.792645
30
0.0
11
0.000000
21
14.363345
31
0.0
0
LINE
8
0
6
CONTINUOUS
10
22.677550
20
65.525525
30
0.0
11
23.258480
21
71.966685
31
0.0
0
LINE
8
0
6
CONTINUOUS
10
22.180740
20
60.019175
30
0.0
11
22.677550
21
65.525525
31
0.0
0
LINE
8
0
6
CONTINUOUS
10
20.026040
20
36.292385
30
0.0
11
22.180740
21
60.019175
31
0.0
0
LINE
8
0
6
CONTINUOUS
10
25.462730
20
103.481775
30
0.0
11
25.038320
21
108.158475
31
0.0
0
LINE
8
0
6
CONTINUOUS
10
18.501170
20
121.582495
30
0.0
11
14.556770
21
124.875315
31
0.0
0
LINE
8
0
6
CONTINUOUS
10
21.670790
20
117.643155
30
0.0
11
18.501170
21
121.582495
31
0.0
0
LINE
8
0
6
CONTINUOUS
10
5.140960
20
128.841555
30
0.0
11
0.000000
21
129.358695
31
0.0
0
LINE
8
0
6
CONTINUOUS
10
25.069440
20
108.200185
30
0.0
11
23.965490
21
113.255605
31
0.0
0
LINE
8
0
6
CONTINUOUS
10
23.911800
20
113.202915
30
0.0
11
25.038320
21
108.158475
31
0.0
0
LINE
8
0
6
CONTINUOUS
10
23.965490
20
113.255605
30
0.0
11
21.670790
21
117.643155
31
0.0
0
LINE
8
0
6
CONTINUOUS
10
14.556770
20
124.875315
30
0.0
11
10.054340
21
127.324605
31
0.0
0
LINE
8
0
6
CONTINUOUS
10
10.054340
20
127.324605
30
0.0
11
5.140960
21
128.841555
31
0.0
0
LINE
8
0
6
CONTINUOUS
10
25.075920
20
108.230165
30
0.0
11
23.956870
21
113.254165
31
0.0
0
LINE
8
0
6
CONTINUOUS
10
-16.365730
20
-111.222365
30
0.0
11
-16.365730
21
-112.965665
31
0.0
0
LINE
8
0
6
CONTINUOUS
10
-16.365730
20
-112.965665
30
0.0
11
-15.781230
21
-117.180985
31
0.0
0
LINE
8
0
6
CONTINUOUS
10
-15.781230
20
-117.180985
30
0.0
11
-14.144640
21
-121.162195
31
0.0
0
LINE
8
0
6
CONTINUOUS
10
-14.144640
20
-121.162195
30
0.0
11
-11.572840
21
-124.557885
31
0.0
0
LINE
8
0
6
CONTINUOUS
10
-16.365730
20
-111.113435
30
0.0
11
-16.365730
21
-111.222365
31
0.0
0
LINE
8
0
6
CONTINUOUS
10
-4.208170
20
-128.773195
30
0.0
11
0.000220
21
-129.358695
31
0.0
0
LINE
8
0
6
CONTINUOUS
10
-8.182760
20
-127.133945
30
0.0
11
-4.208170
21
-128.773195
31
0.0
0
LINE
8
0
6
CONTINUOUS
10
-11.572840
20
-124.557885
30
0.0
11
-8.182760
21
-127.133945
31
0.0
0
LINE
8
0
6
CONTINUOUS
10
-16.365730
20
-91.762725
30
0.0
11
-16.365730
21
-109.178355
31
0.0
0
LINE
8
0
6
CONTINUOUS
10
-16.365730
20
-68.665475
30
0.0
11
-16.365730
21
-91.762725
31
0.0
0
LINE
8
0
6
CONTINUOUS
10
-16.365730
20
-43.421425
30
0.0
11
-16.365730
21
-68.665475
31
0.0
0
LINE
8
0
6
CONTINUOUS
10
-16.365730
20
-19.021155
30
0.0
11
-16.365730
21
-43.421425
31
0.0
0
LINE
8
0
6
CONTINUOUS
10
-16.365730
20
10.439385
30
0.0
11
-16.365730
21
-19.021155
31
0.0
0
LINE
8
0
6
CONTINUOUS
10
-16.365730
20
22.820908
30
0.0
11
-16.365730
21
10.439385
31
0.0
0
LINE
8
0
6
CONTINUOUS
10
16.366160
20
10.439385
30
0.0
11
16.366160
21
22.788348
31
0.0
0
LINE
8
0
6
CONTINUOUS
10
16.366160
20
-19.021155
30
0.0
11
16.366160
21
10.439385
31
0.0
0
LINE
8
0
6
CONTINUOUS
10
16.366160
20
-43.421425
30
0.0
11
16.366160
21
-19.021155
31
0.0
0
LINE
8
0
6
CONTINUOUS
10
16.366160
20
-68.665475
30
0.0
11
16.366160
21
-43.421425
31
0.0
0
LINE
8
0
6
CONTINUOUS
10
16.366160
20
-112.965665
30
0.0
11
16.366160
21
-111.222365
31
0.0
0
LINE
8
0
6
CONTINUOUS
10
15.781660
20
-117.180985
30
0.0
11
16.366160
21
-112.965665
31
0.0
0
LINE
8
0
6
CONTINUOUS
10
14.145070
20
-121.162195
30
0.0
11
15.781660
21
-117.180985
31
0.0
0
LINE
8
0
6
CONTINUOUS
10
11.573270
20
-124.557885
30
0.0
11
14.145070
21
-121.162195
31
0.0
0
LINE
8
0
6
CONTINUOUS
10
16.366160
20
-111.222365
30
0.0
11
16.366160
21
-111.113435
31
0.0
0
LINE
8
0
6
CONTINUOUS
10
0.000220
20
-129.358695
30
0.0
11
4.208600
21
-128.773195
31
0.0
0
LINE
8
0
6
CONTINUOUS
10
4.208600
20
-128.773195
30
0.0
11
8.183190
21
-127.133945
31
0.0
0
LINE
8
0
6
CONTINUOUS
10
8.183190
20
-127.133945
30
0.0
11
11.573270
21
-124.557885
31
0.0
0
LINE
8
0
6
CONTINUOUS
10
16.366160
20
-109.178355
30
0.0
11
16.366160
21
-91.762725
31
0.0
0
LINE
8
0
6
CONTINUOUS
10
16.366160
20
-91.762725
30
0.0
11
16.366160
21
-68.665475
31
0.0
0
LINE
8
0
6
CONTINUOUS
10
-16.365730
20
-109.178355
30
0.0
11
-16.365730
21
-111.113435
31
0.0
0
LINE
8
0
6
CONTINUOUS
10
16.366160
20
-111.113435
30
0.0
11
16.366160
21
-109.178355
31
0.0
0
ENDSEC
0
EOF
