999
Erzeugt mit innoplus bad 
0
SECTION
2
HEADER
9
$ACADVER
1
AC1009
9
$DWGCODEPAGE
3
ISO8859-1
0
ENDSEC
0
SECTION
2
TABLES
0
TABLE
2
LAYER
70
1
0
LAYER
2
0
70
0
62
7
6
CONTINUOUS
0
ENDTAB
0
ENDSEC
0
SECTION
2
ENTITIES
0
LINE
8
0
6
CONTINUOUS
10
-25.490370
20
59.345075
30
0.0
11
-25.499040
21
50.856095
31
0.0
0
LINE
8
0
6
CONTINUOUS
10
-18.513060
20
108.371805
30
0.0
11
-19.301210
21
107.235775
31
0.0
0
LINE
8
0
6
CONTINUOUS
10
-19.301210
20
107.235775
30
0.0
11
-19.586820
21
106.466215
31
0.0
0
LINE
8
0
6
CONTINUOUS
10
-17.197370
20
109.207535
30
0.0
11
-18.513060
21
108.371805
31
0.0
0
LINE
8
0
6
CONTINUOUS
10
-15.190990
20
110.173915
30
0.0
11
-16.858260
21
109.465975
31
0.0
0
LINE
8
0
6
CONTINUOUS
10
-17.197370
20
109.207535
30
0.0
11
-15.363340
21
109.822805
31
0.0
0
LINE
8
0
6
CONTINUOUS
10
-16.858260
20
109.465975
30
0.0
11
-17.197370
21
109.207535
31
0.0
0
LINE
8
0
6
CONTINUOUS
10
-25.463460
20
85.698125
30
0.0
11
-25.466420
21
82.796495
31
0.0
0
LINE
8
0
6
CONTINUOUS
10
-22.677550
20
97.214445
30
0.0
11
-23.258480
21
95.388165
31
0.0
0
LINE
8
0
6
CONTINUOUS
10
-22.180740
20
98.783875
30
0.0
11
-22.677550
21
97.214445
31
0.0
0
LINE
8
0
6
CONTINUOUS
10
-14.714480
20
110.352825
30
0.0
11
-15.190990
21
110.173915
31
0.0
0
LINE
8
0
6
CONTINUOUS
10
-15.363340
20
109.822805
30
0.0
11
-14.842360
21
110.005985
31
0.0
0
LINE
8
0
6
CONTINUOUS
10
-11.701110
20
111.145365
30
0.0
11
-14.714480
21
110.352825
31
0.0
0
LINE
8
0
6
CONTINUOUS
10
-14.842360
20
110.005985
30
0.0
11
-11.799290
21
110.805495
31
0.0
0
LINE
8
0
6
CONTINUOUS
10
-11.799290
20
110.805495
30
0.0
11
-8.098300
21
111.369435
31
0.0
0
LINE
8
0
6
CONTINUOUS
10
-4.056630
20
112.161745
30
0.0
11
-7.929320
21
111.797565
31
0.0
0
LINE
8
0
6
CONTINUOUS
10
-8.043990
20
111.676105
30
0.0
11
-4.151580
21
111.959725
31
0.0
0
LINE
8
0
6
CONTINUOUS
10
-7.929320
20
111.797565
30
0.0
11
-11.401670
21
111.204485
31
0.0
0
LINE
8
0
6
CONTINUOUS
10
-11.701110
20
111.145365
30
0.0
11
-8.043990
21
111.676105
31
0.0
0
LINE
8
0
6
CONTINUOUS
10
0.000000
20
112.283555
30
0.0
11
-4.056630
21
112.161745
31
0.0
0
LINE
8
0
6
CONTINUOUS
10
-4.151580
20
111.959725
30
0.0
11
0.000000
21
112.062605
31
0.0
0
LINE
8
0
6
CONTINUOUS
10
-24.866440
20
90.165915
30
0.0
11
-25.189020
21
88.363415
31
0.0
0
LINE
8
0
6
CONTINUOUS
10
-25.462730
20
86.405545
30
0.0
11
-25.463460
21
85.698125
31
0.0
0
LINE
8
0
6
CONTINUOUS
10
-25.189020
20
88.363415
30
0.0
11
-25.462730
21
86.405545
31
0.0
0
LINE
8
0
6
CONTINUOUS
10
-21.249880
20
92.603245
30
0.0
11
-22.114570
21
90.912585
31
0.0
0
LINE
8
0
6
CONTINUOUS
10
-21.249880
20
92.603245
30
0.0
11
-20.754900
21
94.570995
31
0.0
0
LINE
8
0
6
CONTINUOUS
10
-24.337090
20
91.951145
30
0.0
11
-24.866440
21
90.165915
31
0.0
0
LINE
8
0
6
CONTINUOUS
10
-23.811820
20
93.602715
30
0.0
11
-24.337090
21
91.951145
31
0.0
0
LINE
8
0
6
CONTINUOUS
10
-25.470710
20
78.600595
30
0.0
11
-25.474720
21
74.667945
31
0.0
0
LINE
8
0
6
CONTINUOUS
10
-25.466420
20
82.796495
30
0.0
11
-25.470710
21
78.600595
31
0.0
0
LINE
8
0
6
CONTINUOUS
10
-23.258480
20
95.388165
30
0.0
11
-23.811820
21
93.602715
31
0.0
0
LINE
8
0
6
CONTINUOUS
10
-20.026040
20
105.363995
30
0.0
11
-22.180740
21
98.783875
31
0.0
0
LINE
8
0
6
CONTINUOUS
10
-19.074050
20
102.066475
30
0.0
11
-20.754900
21
94.570995
31
0.0
0
LINE
8
0
6
CONTINUOUS
10
-19.586820
20
106.466215
30
0.0
11
-20.026040
21
105.363995
31
0.0
0
LINE
8
0
6
CONTINUOUS
10
-18.721520
20
107.604555
30
0.0
11
-19.586820
21
106.466215
31
0.0
0
LINE
8
0
6
CONTINUOUS
10
-17.155480
20
108.696895
30
0.0
11
-18.721520
21
107.604555
31
0.0
0
LINE
8
0
6
CONTINUOUS
10
-25.474720
20
74.667945
30
0.0
11
-25.478430
21
71.032335
31
0.0
0
LINE
8
0
6
CONTINUOUS
10
-25.478430
20
71.032335
30
0.0
11
-25.483790
21
65.785805
31
0.0
0
LINE
8
0
6
CONTINUOUS
10
-25.483790
20
65.785805
30
0.0
11
-25.490370
21
59.345075
31
0.0
0
LINE
8
0
6
CONTINUOUS
10
-18.024300
20
49.912875
30
0.0
11
-16.365730
21
49.912875
31
0.0
0
LINE
8
0
6
CONTINUOUS
10
-25.500000
20
49.912875
30
0.0
11
-24.426320
21
49.912875
31
0.0
0
LINE
8
0
6
CONTINUOUS
10
-25.499040
20
50.856095
30
0.0
11
-25.500000
21
49.912875
31
0.0
0
LINE
8
0
6
CONTINUOUS
10
-24.426320
20
49.912875
30
0.0
11
-21.704050
21
49.912875
31
0.0
0
LINE
8
0
6
CONTINUOUS
10
-21.704050
20
49.912875
30
0.0
11
-18.024300
21
49.912875
31
0.0
0
LINE
8
0
6
CONTINUOUS
10
25.499040
20
50.856095
30
0.0
11
25.490370
21
59.345075
31
0.0
0
LINE
8
0
6
CONTINUOUS
10
19.586820
20
106.466215
30
0.0
11
19.301210
21
107.235775
31
0.0
0
LINE
8
0
6
CONTINUOUS
10
19.301210
20
107.235775
30
0.0
11
18.513060
21
108.371805
31
0.0
0
LINE
8
0
6
CONTINUOUS
10
18.513060
20
108.371805
30
0.0
11
17.197370
21
109.207535
31
0.0
0
LINE
8
0
6
CONTINUOUS
10
17.197370
20
109.207535
30
0.0
11
16.858260
21
109.465975
31
0.0
0
LINE
8
0
6
CONTINUOUS
10
15.363340
20
109.822805
30
0.0
11
17.197370
21
109.207535
31
0.0
0
LINE
8
0
6
CONTINUOUS
10
16.858260
20
109.465975
30
0.0
11
15.190990
21
110.173915
31
0.0
0
LINE
8
0
6
CONTINUOUS
10
25.466420
20
82.796495
30
0.0
11
25.463460
21
85.698125
31
0.0
0
LINE
8
0
6
CONTINUOUS
10
23.258480
20
95.388165
30
0.0
11
22.677550
21
97.214445
31
0.0
0
LINE
8
0
6
CONTINUOUS
10
22.677550
20
97.214445
30
0.0
11
22.180740
21
98.783875
31
0.0
0
LINE
8
0
6
CONTINUOUS
10
14.842360
20
110.005985
30
0.0
11
15.363340
21
109.822805
31
0.0
0
LINE
8
0
6
CONTINUOUS
10
15.190990
20
110.173915
30
0.0
11
14.714480
21
110.352825
31
0.0
0
LINE
8
0
6
CONTINUOUS
10
11.799290
20
110.805495
30
0.0
11
14.842360
21
110.005985
31
0.0
0
LINE
8
0
6
CONTINUOUS
10
14.714480
20
110.352825
30
0.0
11
11.701110
21
111.145365
31
0.0
0
LINE
8
0
6
CONTINUOUS
10
8.098300
20
111.369435
30
0.0
11
11.799290
21
110.805495
31
0.0
0
LINE
8
0
6
CONTINUOUS
10
4.151580
20
111.959725
30
0.0
11
8.043990
21
111.676105
31
0.0
0
LINE
8
0
6
CONTINUOUS
10
7.929320
20
111.797565
30
0.0
11
4.056630
21
112.161745
31
0.0
0
LINE
8
0
6
CONTINUOUS
10
8.043990
20
111.676105
30
0.0
11
11.701110
21
111.145365
31
0.0
0
LINE
8
0
6
CONTINUOUS
10
11.401670
20
111.204485
30
0.0
11
7.929320
21
111.797565
31
0.0
0
LINE
8
0
6
CONTINUOUS
10
0.000000
20
112.062605
30
0.0
11
4.151580
21
111.959725
31
0.0
0
LINE
8
0
6
CONTINUOUS
10
4.056630
20
112.161745
30
0.0
11
0.000000
21
112.283555
31
0.0
0
LINE
8
0
6
CONTINUOUS
10
25.189020
20
88.363415
30
0.0
11
24.866440
21
90.165915
31
0.0
0
LINE
8
0
6
CONTINUOUS
10
25.462730
20
86.405545
30
0.0
11
25.189020
21
88.363415
31
0.0
0
LINE
8
0
6
CONTINUOUS
10
25.463460
20
85.698125
30
0.0
11
25.462730
21
86.405545
31
0.0
0
LINE
8
0
6
CONTINUOUS
10
22.114570
20
90.912585
30
0.0
11
21.249880
21
92.603245
31
0.0
0
LINE
8
0
6
CONTINUOUS
10
20.754900
20
94.570995
30
0.0
11
21.249880
21
92.603245
31
0.0
0
LINE
8
0
6
CONTINUOUS
10
24.866440
20
90.165915
30
0.0
11
24.337090
21
91.951145
31
0.0
0
LINE
8
0
6
CONTINUOUS
10
24.337090
20
91.951145
30
0.0
11
23.811820
21
93.602715
31
0.0
0
LINE
8
0
6
CONTINUOUS
10
25.474720
20
74.667945
30
0.0
11
25.470710
21
78.600595
31
0.0
0
LINE
8
0
6
CONTINUOUS
10
25.470710
20
78.600595
30
0.0
11
25.466420
21
82.796495
31
0.0
0
LINE
8
0
6
CONTINUOUS
10
23.811820
20
93.602715
30
0.0
11
23.258480
21
95.388165
31
0.0
0
LINE
8
0
6
CONTINUOUS
10
22.180740
20
98.783875
30
0.0
11
20.026040
21
105.363995
31
0.0
0
LINE
8
0
6
CONTINUOUS
10
20.754900
20
94.570995
30
0.0
11
19.074050
21
102.066475
31
0.0
0
LINE
8
0
6
CONTINUOUS
10
20.026040
20
105.363995
30
0.0
11
19.586820
21
106.466215
31
0.0
0
LINE
8
0
6
CONTINUOUS
10
19.586820
20
106.466215
30
0.0
11
18.721520
21
107.604555
31
0.0
0
LINE
8
0
6
CONTINUOUS
10
18.721520
20
107.604555
30
0.0
11
17.155480
21
108.696895
31
0.0
0
LINE
8
0
6
CONTINUOUS
10
25.478430
20
71.032335
30
0.0
11
25.474720
21
74.667945
31
0.0
0
LINE
8
0
6
CONTINUOUS
10
25.483790
20
65.785805
30
0.0
11
25.478430
21
71.032335
31
0.0
0
LINE
8
0
6
CONTINUOUS
10
25.490370
20
59.345075
30
0.0
11
25.483790
21
65.785805
31
0.0
0
LINE
8
0
6
CONTINUOUS
10
16.366160
20
49.912875
30
0.0
11
18.024300
21
49.912875
31
0.0
0
LINE
8
0
6
CONTINUOUS
10
25.500000
20
49.912875
30
0.0
11
25.499040
21
50.856095
31
0.0
0
LINE
8
0
6
CONTINUOUS
10
24.426320
20
49.912875
30
0.0
11
25.500000
21
49.912875
31
0.0
0
LINE
8
0
6
CONTINUOUS
10
21.704050
20
49.912875
30
0.0
11
24.426320
21
49.912875
31
0.0
0
LINE
8
0
6
CONTINUOUS
10
18.024300
20
49.912875
30
0.0
11
21.704050
21
49.912875
31
0.0
0
LINE
8
0
6
CONTINUOUS
10
-25.500000
20
45.116445
30
0.0
11
-25.500000
21
-112.283555
31
0.0
0
LINE
8
0
6
CONTINUOUS
10
-24.582000
20
45.116445
30
0.0
11
-25.500000
21
45.116445
31
0.0
0
LINE
8
0
6
CONTINUOUS
10
-25.500000
20
-112.283555
30
0.0
11
-24.582000
21
-112.283555
31
0.0
0
LINE
8
0
6
CONTINUOUS
10
-22.134000
20
45.116445
30
0.0
11
-24.582000
21
45.116445
31
0.0
0
LINE
8
0
6
CONTINUOUS
10
-24.582000
20
-112.283555
30
0.0
11
-22.134000
21
-112.283555
31
0.0
0
LINE
8
0
6
CONTINUOUS
10
-18.054000
20
45.116445
30
0.0
11
-22.134000
21
45.116445
31
0.0
0
LINE
8
0
6
CONTINUOUS
10
-22.134000
20
-112.283555
30
0.0
11
-18.054000
21
-112.283555
31
0.0
0
LINE
8
0
6
CONTINUOUS
10
-16.365730
20
45.116445
30
0.0
11
-18.054000
21
45.116445
31
0.0
0
LINE
8
0
6
CONTINUOUS
10
-18.054000
20
-112.283555
30
0.0
11
-12.648000
21
-112.283555
31
0.0
0
LINE
8
0
6
CONTINUOUS
10
-12.648000
20
-112.283555
30
0.0
11
-6.528000
21
-112.283555
31
0.0
0
LINE
8
0
6
CONTINUOUS
10
-6.528000
20
-112.283555
30
0.0
11
0.000000
21
-112.283555
31
0.0
0
LINE
8
0
6
CONTINUOUS
10
-24.888000
20
45.716445
30
0.0
11
-25.500000
21
45.116445
31
0.0
0
LINE
8
0
6
CONTINUOUS
10
-23.970000
20
45.716445
30
0.0
11
-24.888000
21
45.716445
31
0.0
0
LINE
8
0
6
CONTINUOUS
10
-25.500000
20
45.116445
30
0.0
11
-24.582000
21
45.116445
31
0.0
0
LINE
8
0
6
CONTINUOUS
10
-21.522000
20
45.716445
30
0.0
11
-23.970000
21
45.716445
31
0.0
0
LINE
8
0
6
CONTINUOUS
10
-24.582000
20
45.116445
30
0.0
11
-22.134000
21
45.116445
31
0.0
0
LINE
8
0
6
CONTINUOUS
10
-17.544000
20
45.716445
30
0.0
11
-21.522000
21
45.716445
31
0.0
0
LINE
8
0
6
CONTINUOUS
10
-22.134000
20
45.116445
30
0.0
11
-18.054000
21
45.116445
31
0.0
0
LINE
8
0
6
CONTINUOUS
10
-16.365730
20
45.716445
30
0.0
11
-17.544000
21
45.716445
31
0.0
0
LINE
8
0
6
CONTINUOUS
10
-18.054000
20
45.116445
30
0.0
11
-16.365730
21
45.116445
31
0.0
0
LINE
8
0
6
CONTINUOUS
10
0.000000
20
-112.283555
30
0.0
11
6.528000
21
-112.283555
31
0.0
0
LINE
8
0
6
CONTINUOUS
10
6.528000
20
-112.283555
30
0.0
11
12.648000
21
-112.283555
31
0.0
0
LINE
8
0
6
CONTINUOUS
10
12.648000
20
-112.283555
30
0.0
11
18.054000
21
-112.283555
31
0.0
0
LINE
8
0
6
CONTINUOUS
10
18.054000
20
45.116445
30
0.0
11
16.366160
21
45.116445
31
0.0
0
LINE
8
0
6
CONTINUOUS
10
18.054000
20
-112.283555
30
0.0
11
22.134000
21
-112.283555
31
0.0
0
LINE
8
0
6
CONTINUOUS
10
22.134000
20
45.116445
30
0.0
11
18.054000
21
45.116445
31
0.0
0
LINE
8
0
6
CONTINUOUS
10
22.134000
20
-112.283555
30
0.0
11
24.582000
21
-112.283555
31
0.0
0
LINE
8
0
6
CONTINUOUS
10
24.582000
20
45.116445
30
0.0
11
22.134000
21
45.116445
31
0.0
0
LINE
8
0
6
CONTINUOUS
10
24.582000
20
-112.283555
30
0.0
11
25.500000
21
-112.283555
31
0.0
0
LINE
8
0
6
CONTINUOUS
10
25.500000
20
-112.283555
30
0.0
11
25.500000
21
45.116445
31
0.0
0
LINE
8
0
6
CONTINUOUS
10
16.366160
20
45.116445
30
0.0
11
18.054000
21
45.116445
31
0.0
0
LINE
8
0
6
CONTINUOUS
10
17.544000
20
45.716445
30
0.0
11
16.366160
21
45.716445
31
0.0
0
LINE
8
0
6
CONTINUOUS
10
18.054000
20
45.116445
30
0.0
11
22.134000
21
45.116445
31
0.0
0
LINE
8
0
6
CONTINUOUS
10
21.522000
20
45.716445
30
0.0
11
17.544000
21
45.716445
31
0.0
0
LINE
8
0
6
CONTINUOUS
10
22.134000
20
45.116445
30
0.0
11
24.582000
21
45.116445
31
0.0
0
LINE
8
0
6
CONTINUOUS
10
23.970000
20
45.716445
30
0.0
11
21.522000
21
45.716445
31
0.0
0
LINE
8
0
6
CONTINUOUS
10
25.500000
20
45.116445
30
0.0
11
24.888000
21
45.716445
31
0.0
0
LINE
8
0
6
CONTINUOUS
10
24.582000
20
45.116445
30
0.0
11
25.500000
21
45.116445
31
0.0
0
LINE
8
0
6
CONTINUOUS
10
24.888000
20
45.716445
30
0.0
11
23.970000
21
45.716445
31
0.0
0
LINE
8
0
6
CONTINUOUS
10
-24.500000
20
49.912875
30
0.0
11
-24.500000
21
45.716445
31
0.0
0
LINE
8
0
6
CONTINUOUS
10
24.500000
20
45.716445
30
0.0
11
24.500000
21
49.912875
31
0.0
0
LINE
8
0
6
CONTINUOUS
10
14.028170
20
43.912125
30
0.0
11
14.028170
21
48.722803
31
0.0
0
LINE
8
0
6
CONTINUOUS
10
13.691490
20
43.315365
30
0.0
11
14.028170
21
43.912125
31
0.0
0
LINE
8
0
6
CONTINUOUS
10
13.186490
20
43.595005
30
0.0
11
13.691490
21
43.315365
31
0.0
0
LINE
8
0
6
CONTINUOUS
10
11.839800
20
43.853725
30
0.0
11
13.186490
21
43.595005
31
0.0
0
LINE
8
0
6
CONTINUOUS
10
9.651440
20
44.079915
30
0.0
11
11.839800
21
43.853725
31
0.0
0
LINE
8
0
6
CONTINUOUS
10
6.789740
20
44.253655
30
0.0
11
9.651440
21
44.079915
31
0.0
0
LINE
8
0
6
CONTINUOUS
10
3.535260
20
44.360565
30
0.0
11
6.789740
21
44.253655
31
0.0
0
LINE
8
0
6
CONTINUOUS
10
0.000220
20
44.400665
30
0.0
11
3.535260
21
44.360565
31
0.0
0
LINE
8
0
6
CONTINUOUS
10
13.691490
20
43.315365
30
0.0
11
13.186490
21
43.595005
31
0.0
0
LINE
8
0
6
CONTINUOUS
10
13.186490
20
43.595005
30
0.0
11
11.839800
21
43.853725
31
0.0
0
LINE
8
0
6
CONTINUOUS
10
11.839800
20
43.853725
30
0.0
11
9.651440
21
44.079915
31
0.0
0
LINE
8
0
6
CONTINUOUS
10
9.651440
20
44.079915
30
0.0
11
6.789740
21
44.253655
31
0.0
0
LINE
8
0
6
CONTINUOUS
10
6.789740
20
44.253655
30
0.0
11
3.535260
21
44.360565
31
0.0
0
LINE
8
0
6
CONTINUOUS
10
3.535260
20
44.360565
30
0.0
11
0.000220
21
44.400665
31
0.0
0
LINE
8
0
6
CONTINUOUS
10
-14.027740
20
48.722803
30
0.0
11
-14.027740
21
43.912125
31
0.0
0
LINE
8
0
6
CONTINUOUS
10
-14.027740
20
43.912125
30
0.0
11
-13.691070
21
43.315365
31
0.0
0
LINE
8
0
6
CONTINUOUS
10
-13.691070
20
43.315365
30
0.0
11
-13.186060
21
43.595005
31
0.0
0
LINE
8
0
6
CONTINUOUS
10
-13.186060
20
43.595005
30
0.0
11
-11.839380
21
43.853725
31
0.0
0
LINE
8
0
6
CONTINUOUS
10
-11.839380
20
43.853725
30
0.0
11
-9.651020
21
44.079915
31
0.0
0
LINE
8
0
6
CONTINUOUS
10
-9.651020
20
44.079915
30
0.0
11
-6.789310
21
44.253655
31
0.0
0
LINE
8
0
6
CONTINUOUS
10
-6.789310
20
44.253655
30
0.0
11
-3.534830
21
44.360565
31
0.0
0
LINE
8
0
6
CONTINUOUS
10
-3.534830
20
44.360565
30
0.0
11
0.000220
21
44.400665
31
0.0
0
LINE
8
0
6
CONTINUOUS
10
-13.186060
20
43.595005
30
0.0
11
-13.691070
21
43.315365
31
0.0
0
LINE
8
0
6
CONTINUOUS
10
-11.839380
20
43.853725
30
0.0
11
-13.186060
21
43.595005
31
0.0
0
LINE
8
0
6
CONTINUOUS
10
-9.651020
20
44.079915
30
0.0
11
-11.839380
21
43.853725
31
0.0
0
LINE
8
0
6
CONTINUOUS
10
-6.789310
20
44.253655
30
0.0
11
-9.651020
21
44.079915
31
0.0
0
LINE
8
0
6
CONTINUOUS
10
-3.534830
20
44.360565
30
0.0
11
-6.789310
21
44.253655
31
0.0
0
LINE
8
0
6
CONTINUOUS
10
0.000220
20
44.400665
30
0.0
11
-3.534830
21
44.360565
31
0.0
0
LINE
8
0
6
CONTINUOUS
10
-13.691070
20
43.315365
30
0.0
11
-13.186060
21
43.034705
31
0.0
0
LINE
8
0
6
CONTINUOUS
10
-13.186060
20
43.034705
30
0.0
11
-11.839380
21
42.776985
31
0.0
0
LINE
8
0
6
CONTINUOUS
10
-11.839380
20
42.776985
30
0.0
11
-9.651020
21
42.549795
31
0.0
0
LINE
8
0
6
CONTINUOUS
10
-9.651020
20
42.549795
30
0.0
11
-6.789310
21
42.377055
31
0.0
0
LINE
8
0
6
CONTINUOUS
10
-6.789310
20
42.377055
30
0.0
11
-3.534830
21
42.270145
31
0.0
0
LINE
8
0
6
CONTINUOUS
10
-3.534830
20
42.270145
30
0.0
11
0.000220
21
42.230055
31
0.0
0
LINE
8
0
6
CONTINUOUS
10
13.186490
20
43.034705
30
0.0
11
13.691490
21
43.315365
31
0.0
0
LINE
8
0
6
CONTINUOUS
10
11.839800
20
42.776985
30
0.0
11
13.186490
21
43.034705
31
0.0
0
LINE
8
0
6
CONTINUOUS
10
9.651440
20
42.549795
30
0.0
11
11.839800
21
42.776985
31
0.0
0
LINE
8
0
6
CONTINUOUS
10
6.789740
20
42.377055
30
0.0
11
9.651440
21
42.549795
31
0.0
0
LINE
8
0
6
CONTINUOUS
10
3.535260
20
42.270145
30
0.0
11
6.789740
21
42.377055
31
0.0
0
LINE
8
0
6
CONTINUOUS
10
0.000220
20
42.230055
30
0.0
11
3.535260
21
42.270145
31
0.0
0
LINE
8
0
6
CONTINUOUS
10
-14.612230
20
48.599525
30
0.0
11
-15.196730
21
48.293835
31
0.0
0
LINE
8
0
6
CONTINUOUS
10
-13.209440
20
48.895395
30
0.0
11
-14.612230
21
48.599525
31
0.0
0
LINE
8
0
6
CONTINUOUS
10
-10.754550
20
49.146235
30
0.0
11
-13.209440
21
48.895395
31
0.0
0
LINE
8
0
6
CONTINUOUS
10
-16.365730
20
49.289135
30
0.0
11
-15.196730
21
48.293835
31
0.0
0
LINE
8
0
6
CONTINUOUS
10
-15.781230
20
49.623225
30
0.0
11
-16.365730
21
49.289135
31
0.0
0
LINE
8
0
6
CONTINUOUS
10
-15.196730
20
48.293835
30
0.0
11
-14.612230
21
48.599525
31
0.0
0
LINE
8
0
6
CONTINUOUS
10
-14.144640
20
49.937745
30
0.0
11
-15.781230
21
49.623225
31
0.0
0
LINE
8
0
6
CONTINUOUS
10
-14.612230
20
48.599525
30
0.0
11
-13.209440
21
48.895395
31
0.0
0
LINE
8
0
6
CONTINUOUS
10
-11.572840
20
50.206185
30
0.0
11
-14.144640
21
49.937745
31
0.0
0
LINE
8
0
6
CONTINUOUS
10
-13.209440
20
48.895395
30
0.0
11
-10.754550
21
49.146235
31
0.0
0
LINE
8
0
6
CONTINUOUS
10
-16.365730
20
65.220875
30
0.0
11
-16.365730
21
49.289135
31
0.0
0
LINE
8
0
6
CONTINUOUS
10
-16.365730
20
49.289135
30
0.0
11
-15.781230
21
49.623225
31
0.0
0
LINE
8
0
6
CONTINUOUS
10
-15.781230
20
49.623225
30
0.0
11
-14.144640
21
49.937745
31
0.0
0
LINE
8
0
6
CONTINUOUS
10
-14.144640
20
49.937745
30
0.0
11
-11.572840
21
50.206185
31
0.0
0
LINE
8
0
6
CONTINUOUS
10
-16.365730
20
66.216165
30
0.0
11
-16.365730
21
65.220875
31
0.0
0
LINE
8
0
6
CONTINUOUS
10
-15.781230
20
67.211475
30
0.0
11
-16.365730
21
66.216165
31
0.0
0
LINE
8
0
6
CONTINUOUS
10
-13.560140
20
68.494835
30
0.0
11
-15.781230
21
67.211475
31
0.0
0
LINE
8
0
6
CONTINUOUS
10
-7.832060
20
69.867765
30
0.0
11
-13.560140
21
68.494835
31
0.0
0
LINE
8
0
6
CONTINUOUS
10
-7.130660
20
70.025515
30
0.0
11
-7.832060
21
69.867765
31
0.0
0
LINE
8
0
6
CONTINUOUS
10
-5.727860
20
70.154835
30
0.0
11
-7.130660
21
70.025515
31
0.0
0
LINE
8
0
6
CONTINUOUS
10
0.000220
20
49.497945
30
0.0
11
-3.857470
21
49.451925
31
0.0
0
LINE
8
0
6
CONTINUOUS
10
-3.857470
20
49.451925
30
0.0
11
-7.598260
21
49.340205
31
0.0
0
LINE
8
0
6
CONTINUOUS
10
-7.598260
20
49.340205
30
0.0
11
-10.754550
21
49.146235
31
0.0
0
LINE
8
0
6
CONTINUOUS
10
0.000220
20
50.586315
30
0.0
11
-4.208170
21
50.540295
31
0.0
0
LINE
8
0
6
CONTINUOUS
10
-3.857470
20
49.451925
30
0.0
11
0.000220
21
49.497945
31
0.0
0
LINE
8
0
6
CONTINUOUS
10
-4.208170
20
50.540295
30
0.0
11
-8.182760
21
50.409965
31
0.0
0
LINE
8
0
6
CONTINUOUS
10
-7.598260
20
49.340205
30
0.0
11
-3.857470
21
49.451925
31
0.0
0
LINE
8
0
6
CONTINUOUS
10
-8.182760
20
50.409965
30
0.0
11
-11.572840
21
50.206185
31
0.0
0
LINE
8
0
6
CONTINUOUS
10
-10.754550
20
49.146235
30
0.0
11
-7.598260
21
49.340205
31
0.0
0
LINE
8
0
6
CONTINUOUS
10
-4.208170
20
50.540295
30
0.0
11
0.000220
21
50.586315
31
0.0
0
LINE
8
0
6
CONTINUOUS
10
-8.182760
20
50.409965
30
0.0
11
-4.208170
21
50.540295
31
0.0
0
LINE
8
0
6
CONTINUOUS
10
-11.572840
20
50.206185
30
0.0
11
-8.182760
21
50.409965
31
0.0
0
LINE
8
0
6
CONTINUOUS
10
-4.091270
20
70.266535
30
0.0
11
-5.727860
21
70.154835
31
0.0
0
LINE
8
0
6
CONTINUOUS
10
0.000220
20
70.384525
30
0.0
11
-0.584280
21
70.374715
31
0.0
0
LINE
8
0
6
CONTINUOUS
10
-1.168780
20
70.356105
30
0.0
11
-4.091270
21
70.266535
31
0.0
0
LINE
8
0
6
CONTINUOUS
10
-15.196730
20
48.293835
30
0.0
11
-14.612230
21
47.988145
31
0.0
0
LINE
8
0
6
CONTINUOUS
10
-14.612230
20
47.988145
30
0.0
11
-14.027740
21
47.864450
31
0.0
0
LINE
8
0
6
CONTINUOUS
10
-16.365730
20
48.843765
30
0.0
11
-16.365730
21
39.504035
31
0.0
0
LINE
8
0
6
CONTINUOUS
10
-16.365730
20
39.504035
30
0.0
11
-16.365730
21
27.616745
31
0.0
0
LINE
8
0
6
CONTINUOUS
10
-16.365730
20
27.616745
30
0.0
11
-16.365730
21
15.316845
31
0.0
0
LINE
8
0
6
CONTINUOUS
10
-16.365730
20
15.316845
30
0.0
11
-16.365730
21
6.564225
31
0.0
0
LINE
8
0
6
CONTINUOUS
10
16.366160
20
6.564225
30
0.0
11
16.366160
21
15.316845
31
0.0
0
LINE
8
0
6
CONTINUOUS
10
16.366160
20
15.316845
30
0.0
11
16.366160
21
27.616745
31
0.0
0
LINE
8
0
6
CONTINUOUS
10
16.366160
20
27.616745
30
0.0
11
16.366160
21
39.504035
31
0.0
0
LINE
8
0
6
CONTINUOUS
10
16.366160
20
39.504035
30
0.0
11
16.366160
21
48.843765
31
0.0
0
LINE
8
0
6
CONTINUOUS
10
16.366160
20
66.216165
30
0.0
11
15.781660
21
67.211475
31
0.0
0
LINE
8
0
6
CONTINUOUS
10
15.197160
20
67.535765
30
0.0
11
13.560560
21
68.494835
31
0.0
0
LINE
8
0
6
CONTINUOUS
10
7.832480
20
69.867765
30
0.0
11
7.131090
21
70.025515
31
0.0
0
LINE
8
0
6
CONTINUOUS
10
13.560560
20
68.494835
30
0.0
11
7.832480
21
69.867765
31
0.0
0
LINE
8
0
6
CONTINUOUS
10
7.131090
20
70.025515
30
0.0
11
5.728290
21
70.154835
31
0.0
0
LINE
8
0
6
CONTINUOUS
10
5.728290
20
70.154835
30
0.0
11
4.091700
21
70.266535
31
0.0
0
LINE
8
0
6
CONTINUOUS
10
0.584710
20
70.374715
30
0.0
11
0.000220
21
70.384525
31
0.0
0
LINE
8
0
6
CONTINUOUS
10
1.169210
20
70.356105
30
0.0
11
0.584710
21
70.374715
31
0.0
0
LINE
8
0
6
CONTINUOUS
10
4.091700
20
70.266535
30
0.0
11
1.169210
21
70.356105
31
0.0
0
LINE
8
0
6
CONTINUOUS
10
15.197160
20
48.293835
30
0.0
11
14.612660
21
48.599525
31
0.0
0
LINE
8
0
6
CONTINUOUS
10
14.612660
20
48.599525
30
0.0
11
13.209870
21
48.895395
31
0.0
0
LINE
8
0
6
CONTINUOUS
10
13.209870
20
48.895395
30
0.0
11
10.754980
21
49.146235
31
0.0
0
LINE
8
0
6
CONTINUOUS
10
16.366160
20
49.289135
30
0.0
11
15.781660
21
49.623225
31
0.0
0
LINE
8
0
6
CONTINUOUS
10
15.197160
20
48.293835
30
0.0
11
16.366160
21
49.289135
31
0.0
0
LINE
8
0
6
CONTINUOUS
10
14.612660
20
48.599525
30
0.0
11
15.197160
21
48.293835
31
0.0
0
LINE
8
0
6
CONTINUOUS
10
15.781660
20
49.623225
30
0.0
11
14.145070
21
49.937745
31
0.0
0
LINE
8
0
6
CONTINUOUS
10
13.209870
20
48.895395
30
0.0
11
14.612660
21
48.599525
31
0.0
0
LINE
8
0
6
CONTINUOUS
10
14.145070
20
49.937745
30
0.0
11
11.573270
21
50.206185
31
0.0
0
LINE
8
0
6
CONTINUOUS
10
10.754980
20
49.146235
30
0.0
11
13.209870
21
48.895395
31
0.0
0
LINE
8
0
6
CONTINUOUS
10
16.366160
20
49.289135
30
0.0
11
16.366160
21
65.220875
31
0.0
0
LINE
8
0
6
CONTINUOUS
10
15.781660
20
49.623225
30
0.0
11
16.366160
21
49.289135
31
0.0
0
LINE
8
0
6
CONTINUOUS
10
14.145070
20
49.937745
30
0.0
11
15.781660
21
49.623225
31
0.0
0
LINE
8
0
6
CONTINUOUS
10
11.573270
20
50.206185
30
0.0
11
14.145070
21
49.937745
31
0.0
0
LINE
8
0
6
CONTINUOUS
10
16.366160
20
65.220875
30
0.0
11
16.366160
21
66.216165
31
0.0
0
LINE
8
0
6
CONTINUOUS
10
3.857900
20
49.451925
30
0.0
11
0.000220
21
49.497945
31
0.0
0
LINE
8
0
6
CONTINUOUS
10
7.598690
20
49.340205
30
0.0
11
3.857900
21
49.451925
31
0.0
0
LINE
8
0
6
CONTINUOUS
10
10.754980
20
49.146235
30
0.0
11
7.598690
21
49.340205
31
0.0
0
LINE
8
0
6
CONTINUOUS
10
4.208600
20
50.540295
30
0.0
11
0.000220
21
50.586315
31
0.0
0
LINE
8
0
6
CONTINUOUS
10
0.000220
20
49.497945
30
0.0
11
3.857900
21
49.451925
31
0.0
0
LINE
8
0
6
CONTINUOUS
10
8.183190
20
50.409965
30
0.0
11
4.208600
21
50.540295
31
0.0
0
LINE
8
0
6
CONTINUOUS
10
3.857900
20
49.451925
30
0.0
11
7.598690
21
49.340205
31
0.0
0
LINE
8
0
6
CONTINUOUS
10
11.573270
20
50.206185
30
0.0
11
8.183190
21
50.409965
31
0.0
0
LINE
8
0
6
CONTINUOUS
10
7.598690
20
49.340205
30
0.0
11
10.754980
21
49.146235
31
0.0
0
LINE
8
0
6
CONTINUOUS
10
0.000220
20
50.586315
30
0.0
11
4.208600
21
50.540295
31
0.0
0
LINE
8
0
6
CONTINUOUS
10
4.208600
20
50.540295
30
0.0
11
8.183190
21
50.409965
31
0.0
0
LINE
8
0
6
CONTINUOUS
10
8.183190
20
50.409965
30
0.0
11
11.573270
21
50.206185
31
0.0
0
LINE
8
0
6
CONTINUOUS
10
14.612660
20
47.988145
30
0.0
11
15.197160
21
48.293835
31
0.0
0
LINE
8
0
6
CONTINUOUS
10
14.028170
20
47.864450
30
0.0
11
14.612660
21
47.988145
31
0.0
0
ENDSEC
0
EOF
