999
Erzeugt mit innoplus bad 
0
SECTION
2
HEADER
9
$ACADVER
1
AC1009
9
$DWGCODEPAGE
3
ISO8859-1
0
ENDSEC
0
SECTION
2
TABLES
0
TABLE
2
LAYER
70
1
0
LAYER
2
0
70
0
62
7
6
CONTINUOUS
0
ENDTAB
0
ENDSEC
0
SECTION
2
ENTITIES
0
LINE
8
0
6
CONTINUOUS
10
-15.871995
20
27.775991
30
0.0
11
-15.683593
21
27.851352
31
0.0
0
LINE
8
0
6
CONTINUOUS
10
15.871995
20
27.775991
30
0.0
11
15.529063
21
27.913164
31
0.0
0
LINE
8
0
6
CONTINUOUS
10
-27.846077
20
-15.696781
30
0.0
11
-27.775991
21
-15.871995
31
0.0
0
LINE
8
0
6
CONTINUOUS
10
-27.775991
20
15.871995
30
0.0
11
-27.967355
21
15.393586
31
0.0
0
LINE
8
0
6
CONTINUOUS
10
-15.683593
20
27.851352
30
0.0
11
-15.871995
21
27.775991
31
0.0
0
LINE
8
0
6
CONTINUOUS
10
27.846046
20
15.696858
30
0.0
11
27.775991
21
15.871995
31
0.0
0
LINE
8
0
6
CONTINUOUS
10
-15.871995
20
-27.775991
30
0.0
11
-15.529114
21
-27.913144
31
0.0
0
LINE
8
0
6
CONTINUOUS
10
27.775991
20
-15.871995
30
0.0
11
27.967135
21
-15.394136
31
0.0
0
LINE
8
0
6
CONTINUOUS
10
-27.967355
20
15.393586
30
0.0
11
-27.775991
21
15.871995
31
0.0
0
LINE
8
0
6
CONTINUOUS
10
27.967135
20
-15.394136
30
0.0
11
27.775991
21
-15.871995
31
0.0
0
LINE
8
0
6
CONTINUOUS
10
-27.775991
20
-15.871995
30
0.0
11
-27.846077
21
-15.696781
31
0.0
0
LINE
8
0
6
CONTINUOUS
10
-15.529114
20
-27.913144
30
0.0
11
-15.871995
21
-27.775991
31
0.0
0
LINE
8
0
6
CONTINUOUS
10
27.775991
20
15.871995
30
0.0
11
27.846046
21
15.696858
31
0.0
0
LINE
8
0
6
CONTINUOUS
10
15.529063
20
27.913164
30
0.0
11
15.871995
21
27.775991
31
0.0
0
LINE
8
0
6
CONTINUOUS
10
-20.329554
20
24.462842
30
0.0
11
-24.840452
21
20.186994
31
0.0
0
LINE
8
0
6
CONTINUOUS
10
-15.038495
20
28.321851
30
0.0
11
-20.329554
21
24.462842
31
0.0
0
LINE
8
0
6
CONTINUOUS
10
-9.468547
20
30.586020
30
0.0
11
-15.038495
21
28.321851
31
0.0
0
LINE
8
0
6
CONTINUOUS
10
-3.320089
20
31.915560
30
0.0
11
-9.468547
21
30.586020
31
0.0
0
LINE
8
0
6
CONTINUOUS
10
2.968189
20
31.937440
30
0.0
11
-3.320089
21
31.915560
31
0.0
0
LINE
8
0
6
CONTINUOUS
10
9.144687
20
30.757120
30
0.0
11
2.968189
21
31.937440
31
0.0
0
LINE
8
0
6
CONTINUOUS
10
14.946985
20
28.309091
30
0.0
11
9.144687
21
30.757120
31
0.0
0
LINE
8
0
6
CONTINUOUS
10
19.909404
20
24.933672
30
0.0
11
14.946985
21
28.309091
31
0.0
0
LINE
8
0
6
CONTINUOUS
10
24.628012
20
20.519624
30
0.0
11
19.909404
21
24.933672
31
0.0
0
LINE
8
0
6
CONTINUOUS
10
-24.840452
20
20.186994
30
0.0
11
-28.272341
21
14.926055
31
0.0
0
LINE
8
0
6
CONTINUOUS
10
28.135131
20
15.263615
30
0.0
11
24.628012
21
20.519624
31
0.0
0
LINE
8
0
6
CONTINUOUS
10
-28.272341
20
14.926055
30
0.0
11
-30.666640
21
9.141037
31
0.0
0
LINE
8
0
6
CONTINUOUS
10
30.538720
20
9.460327
30
0.0
11
28.135131
21
15.263615
31
0.0
0
LINE
8
0
6
CONTINUOUS
10
-30.666640
20
9.141037
30
0.0
11
-31.921110
21
2.966669
31
0.0
0
LINE
8
0
6
CONTINUOUS
10
31.825960
20
3.333159
30
0.0
11
30.538720
21
9.460327
31
0.0
0
LINE
8
0
6
CONTINUOUS
10
-31.921110
20
2.966669
30
0.0
11
-31.825960
21
-3.333109
31
0.0
0
LINE
8
0
6
CONTINUOUS
10
31.921110
20
-2.966669
30
0.0
11
31.825960
21
3.333159
31
0.0
0
LINE
8
0
6
CONTINUOUS
10
-31.825960
20
-3.333109
30
0.0
11
-30.538750
21
-9.460287
31
0.0
0
LINE
8
0
6
CONTINUOUS
10
30.666650
20
-9.141007
30
0.0
11
31.921110
21
-2.966669
31
0.0
0
LINE
8
0
6
CONTINUOUS
10
-30.538750
20
-9.460287
30
0.0
11
-28.135141
21
-15.263565
31
0.0
0
LINE
8
0
6
CONTINUOUS
10
28.272341
20
-14.926025
30
0.0
11
30.666650
21
-9.141007
31
0.0
0
LINE
8
0
6
CONTINUOUS
10
-28.135141
20
-15.263565
30
0.0
11
-24.628022
21
-20.519624
31
0.0
0
LINE
8
0
6
CONTINUOUS
10
24.851312
20
-20.173034
30
0.0
11
28.272341
21
-14.926025
31
0.0
0
LINE
8
0
6
CONTINUOUS
10
-24.628022
20
-20.519624
30
0.0
11
-19.909424
21
-24.933652
31
0.0
0
LINE
8
0
6
CONTINUOUS
10
-19.909424
20
-24.933652
30
0.0
11
-14.947025
21
-28.309081
31
0.0
0
LINE
8
0
6
CONTINUOUS
10
-14.947025
20
-28.309081
30
0.0
11
-9.144727
21
-30.757110
31
0.0
0
LINE
8
0
6
CONTINUOUS
10
-9.144727
20
-30.757110
30
0.0
11
-2.968189
21
-31.937440
31
0.0
0
LINE
8
0
6
CONTINUOUS
10
-2.968189
20
-31.937440
30
0.0
11
3.320099
21
-31.915560
31
0.0
0
LINE
8
0
6
CONTINUOUS
10
3.320099
20
-31.915560
30
0.0
11
9.435037
21
-30.596430
31
0.0
0
LINE
8
0
6
CONTINUOUS
10
9.435037
20
-30.596430
30
0.0
11
15.293055
21
-28.233081
31
0.0
0
LINE
8
0
6
CONTINUOUS
10
20.409454
20
-24.712812
30
0.0
11
24.851312
21
-20.173034
31
0.0
0
LINE
8
0
6
CONTINUOUS
10
15.293055
20
-28.233081
30
0.0
11
20.409454
21
-24.712812
31
0.0
0
ENDSEC
0
EOF
