999
Erzeugt mit innoplus bad 
0
SECTION
2
HEADER
9
$ACADVER
1
AC1009
9
$DWGCODEPAGE
3
ISO8859-1
0
ENDSEC
0
SECTION
2
TABLES
0
TABLE
2
LAYER
70
1
0
LAYER
2
0
70
0
62
7
6
CONTINUOUS
0
ENDTAB
0
ENDSEC
0
SECTION
2
ENTITIES
0
LINE
8
0
6
CONTINUOUS
10
29.666961
20
39.676711
30
0.0
11
26.712572
21
39.676711
31
0.0
0
LINE
8
0
6
CONTINUOUS
10
30.774860
20
39.676711
30
0.0
11
29.666961
21
39.676711
31
0.0
0
LINE
8
0
6
CONTINUOUS
10
7.878358
20
39.676711
30
0.0
11
0.000000
21
39.676711
31
0.0
0
LINE
8
0
6
CONTINUOUS
10
21.788593
20
39.676711
30
0.0
11
15.264325
21
39.676711
31
0.0
0
LINE
8
0
6
CONTINUOUS
10
26.712572
20
39.676711
30
0.0
11
21.788593
21
39.676711
31
0.0
0
LINE
8
0
6
CONTINUOUS
10
15.264325
20
39.676711
30
0.0
11
7.878358
21
39.676711
31
0.0
0
LINE
8
0
6
CONTINUOUS
10
0.000000
20
39.676711
30
0.0
11
-7.878368
21
39.676711
31
0.0
0
LINE
8
0
6
CONTINUOUS
10
-7.878368
20
39.676711
30
0.0
11
-15.264325
21
39.676711
31
0.0
0
LINE
8
0
6
CONTINUOUS
10
-15.264325
20
39.676711
30
0.0
11
-21.788593
21
39.676711
31
0.0
0
LINE
8
0
6
CONTINUOUS
10
-21.788593
20
39.676711
30
0.0
11
-26.712572
21
39.676711
31
0.0
0
LINE
8
0
6
CONTINUOUS
10
-26.712572
20
39.676711
30
0.0
11
-29.666961
21
39.676711
31
0.0
0
LINE
8
0
6
CONTINUOUS
10
-30.774860
20
39.676711
30
0.0
11
-21.455973
21
38.478388
31
0.0
0
LINE
8
0
6
CONTINUOUS
10
-29.666961
20
39.676711
30
0.0
11
-30.774860
21
39.676711
31
0.0
0
LINE
8
0
6
CONTINUOUS
10
30.774860
20
39.676711
30
0.0
11
21.455973
21
38.478388
31
0.0
0
LINE
8
0
6
CONTINUOUS
10
27.775991
20
41.005108
30
0.0
11
30.847990
21
41.005108
31
0.0
0
LINE
8
0
6
CONTINUOUS
10
22.655993
20
41.005108
30
0.0
11
27.775991
21
41.005108
31
0.0
0
LINE
8
0
6
CONTINUOUS
10
-22.655993
20
41.005108
30
0.0
11
-15.871995
21
41.005108
31
0.0
0
LINE
8
0
6
CONTINUOUS
10
-27.775991
20
41.005108
30
0.0
11
-22.655993
21
41.005108
31
0.0
0
LINE
8
0
6
CONTINUOUS
10
8.191997
20
41.005108
30
0.0
11
15.871995
21
41.005108
31
0.0
0
LINE
8
0
6
CONTINUOUS
10
0.000000
20
41.005108
30
0.0
11
8.191997
21
41.005108
31
0.0
0
LINE
8
0
6
CONTINUOUS
10
-32.000000
20
41.005108
30
0.0
11
-30.847990
21
41.005108
31
0.0
0
LINE
8
0
6
CONTINUOUS
10
30.847990
20
41.005108
30
0.0
11
32.000000
21
41.005108
31
0.0
0
LINE
8
0
6
CONTINUOUS
10
-15.871995
20
41.005108
30
0.0
11
-8.191997
21
41.005108
31
0.0
0
LINE
8
0
6
CONTINUOUS
10
-8.191997
20
41.005108
30
0.0
11
0.000000
21
41.005108
31
0.0
0
LINE
8
0
6
CONTINUOUS
10
-30.847990
20
41.005108
30
0.0
11
-27.775991
21
41.005108
31
0.0
0
LINE
8
0
6
CONTINUOUS
10
15.871995
20
41.005108
30
0.0
11
22.655993
21
41.005108
31
0.0
0
LINE
8
0
6
CONTINUOUS
10
-21.788593
20
39.676711
30
0.0
11
-15.264325
21
39.676711
31
0.0
0
LINE
8
0
6
CONTINUOUS
10
-15.871995
20
41.005108
30
0.0
11
-22.655993
21
41.005108
31
0.0
0
LINE
8
0
6
CONTINUOUS
10
-26.712572
20
39.676711
30
0.0
11
-21.788593
21
39.676711
31
0.0
0
LINE
8
0
6
CONTINUOUS
10
-22.655993
20
41.005108
30
0.0
11
-27.775991
21
41.005108
31
0.0
0
LINE
8
0
6
CONTINUOUS
10
-7.878368
20
39.676711
30
0.0
11
0.000000
21
39.676711
31
0.0
0
LINE
8
0
6
CONTINUOUS
10
0.000000
20
41.005108
30
0.0
11
-8.191997
21
41.005108
31
0.0
0
LINE
8
0
6
CONTINUOUS
10
-15.264325
20
39.676711
30
0.0
11
-7.878368
21
39.676711
31
0.0
0
LINE
8
0
6
CONTINUOUS
10
-8.191997
20
41.005108
30
0.0
11
-15.871995
21
41.005108
31
0.0
0
LINE
8
0
6
CONTINUOUS
10
-29.666961
20
39.676711
30
0.0
11
-26.712572
21
39.676711
31
0.0
0
LINE
8
0
6
CONTINUOUS
10
-27.775991
20
41.005108
30
0.0
11
-30.847990
21
41.005108
31
0.0
0
LINE
8
0
6
CONTINUOUS
10
-30.774860
20
39.676711
30
0.0
11
-29.666961
21
39.676711
31
0.0
0
LINE
8
0
6
CONTINUOUS
10
-32.000000
20
41.005108
30
0.0
11
-30.774860
21
39.676711
31
0.0
0
LINE
8
0
6
CONTINUOUS
10
-30.847990
20
41.005108
30
0.0
11
-32.000000
21
41.005108
31
0.0
0
LINE
8
0
6
CONTINUOUS
10
8.191997
20
41.005108
30
0.0
11
0.000000
21
41.005108
31
0.0
0
LINE
8
0
6
CONTINUOUS
10
0.000000
20
39.676711
30
0.0
11
7.878358
21
39.676711
31
0.0
0
LINE
8
0
6
CONTINUOUS
10
15.871995
20
41.005108
30
0.0
11
8.191997
21
41.005108
31
0.0
0
LINE
8
0
6
CONTINUOUS
10
7.878358
20
39.676711
30
0.0
11
15.264325
21
39.676711
31
0.0
0
LINE
8
0
6
CONTINUOUS
10
22.655993
20
41.005108
30
0.0
11
15.871995
21
41.005108
31
0.0
0
LINE
8
0
6
CONTINUOUS
10
15.264325
20
39.676711
30
0.0
11
21.788593
21
39.676711
31
0.0
0
LINE
8
0
6
CONTINUOUS
10
27.775991
20
41.005108
30
0.0
11
22.655993
21
41.005108
31
0.0
0
LINE
8
0
6
CONTINUOUS
10
21.788593
20
39.676711
30
0.0
11
26.712572
21
39.676711
31
0.0
0
LINE
8
0
6
CONTINUOUS
10
30.847990
20
41.005108
30
0.0
11
27.775991
21
41.005108
31
0.0
0
LINE
8
0
6
CONTINUOUS
10
26.712572
20
39.676711
30
0.0
11
29.666961
21
39.676711
31
0.0
0
LINE
8
0
6
CONTINUOUS
10
32.000000
20
41.005108
30
0.0
11
30.847990
21
41.005108
31
0.0
0
LINE
8
0
6
CONTINUOUS
10
30.774860
20
39.676711
30
0.0
11
32.000000
21
41.005108
31
0.0
0
LINE
8
0
6
CONTINUOUS
10
29.666961
20
39.676711
30
0.0
11
30.774860
21
39.676711
31
0.0
0
LINE
8
0
6
CONTINUOUS
10
28.321851
20
52.170261
30
0.0
11
20.186994
21
52.103200
31
0.0
0
LINE
8
0
6
CONTINUOUS
10
31.937440
20
52.156870
30
0.0
11
26.738562
21
53.406560
31
0.0
0
LINE
8
0
6
CONTINUOUS
10
30.757120
20
52.144965
30
0.0
11
31.937440
21
52.156870
31
0.0
0
LINE
8
0
6
CONTINUOUS
10
28.309091
20
52.165419
30
0.0
11
30.757120
21
52.144965
31
0.0
0
LINE
8
0
6
CONTINUOUS
10
24.933672
20
52.191302
30
0.0
11
28.309091
21
52.165419
31
0.0
0
LINE
8
0
6
CONTINUOUS
10
20.519624
20
52.103200
30
0.0
11
24.933672
21
52.191302
31
0.0
0
LINE
8
0
6
CONTINUOUS
10
26.738562
20
53.406560
30
0.0
11
20.117014
21
54.410066
31
0.0
0
LINE
8
0
6
CONTINUOUS
10
15.263615
20
52.103200
30
0.0
11
20.519624
21
52.103200
31
0.0
0
LINE
8
0
6
CONTINUOUS
10
20.117014
20
54.410066
30
0.0
11
12.456826
21
55.120931
31
0.0
0
LINE
8
0
6
CONTINUOUS
10
9.460327
20
52.103200
30
0.0
11
15.263615
21
52.103200
31
0.0
0
LINE
8
0
6
CONTINUOUS
10
12.456826
20
55.120931
30
0.0
11
4.243729
21
55.498336
31
0.0
0
LINE
8
0
6
CONTINUOUS
10
3.333159
20
52.119739
30
0.0
11
9.460327
21
52.103200
31
0.0
0
LINE
8
0
6
CONTINUOUS
10
4.243729
20
55.498336
30
0.0
11
-4.186609
21
55.500000
31
0.0
0
LINE
8
0
6
CONTINUOUS
10
-2.966669
20
52.129363
30
0.0
11
3.333159
21
52.119739
31
0.0
0
LINE
8
0
6
CONTINUOUS
10
-4.243739
20
55.498336
30
0.0
11
-12.456826
21
55.120941
31
0.0
0
LINE
8
0
6
CONTINUOUS
10
-9.141007
20
52.119739
30
0.0
11
-2.966669
21
52.129363
31
0.0
0
LINE
8
0
6
CONTINUOUS
10
-12.456826
20
55.120941
30
0.0
11
-20.117014
21
54.410066
31
0.0
0
LINE
8
0
6
CONTINUOUS
10
-14.926025
20
52.103200
30
0.0
11
-9.141007
21
52.119739
31
0.0
0
LINE
8
0
6
CONTINUOUS
10
-20.117014
20
54.410066
30
0.0
11
-26.738572
21
53.406560
31
0.0
0
LINE
8
0
6
CONTINUOUS
10
-20.173034
20
52.103200
30
0.0
11
-14.926025
21
52.103200
31
0.0
0
LINE
8
0
6
CONTINUOUS
10
-26.738572
20
53.406560
30
0.0
11
-31.937440
21
52.156870
31
0.0
0
LINE
8
0
6
CONTINUOUS
10
-31.915560
20
52.144965
30
0.0
11
-30.596430
21
52.155575
31
0.0
0
LINE
8
0
6
CONTINUOUS
10
-30.596430
20
52.155575
30
0.0
11
-28.233081
21
52.123514
31
0.0
0
LINE
8
0
6
CONTINUOUS
10
-24.712812
20
52.104764
30
0.0
11
-20.173034
21
52.103200
31
0.0
0
LINE
8
0
6
CONTINUOUS
10
-28.233081
20
52.123514
30
0.0
11
-24.712812
21
52.104764
31
0.0
0
LINE
8
0
6
CONTINUOUS
10
-20.444444
20
30.405053
30
0.0
11
-20.444444
21
27.036607
31
0.0
0
LINE
8
0
6
CONTINUOUS
10
19.829764
20
27.036607
30
0.0
11
19.829754
21
30.405053
31
0.0
0
LINE
8
0
6
CONTINUOUS
10
-20.444444
20
14.536751
30
0.0
11
-20.444444
21
11.168296
31
0.0
0
LINE
8
0
6
CONTINUOUS
10
19.829754
20
11.168296
30
0.0
11
19.829764
21
14.536751
31
0.0
0
LINE
8
0
6
CONTINUOUS
10
-18.928554
20
14.801905
30
0.0
11
-19.555984
21
14.801905
31
0.0
0
LINE
8
0
6
CONTINUOUS
10
-17.044505
20
14.802383
30
0.0
11
-18.928554
21
14.801905
31
0.0
0
LINE
8
0
6
CONTINUOUS
10
18.266484
20
14.801905
30
0.0
11
16.387085
21
14.802233
31
0.0
0
LINE
8
0
6
CONTINUOUS
10
18.988684
20
14.801905
30
0.0
11
18.266484
21
14.801905
31
0.0
0
LINE
8
0
6
CONTINUOUS
10
-19.708444
20
14.801905
30
0.0
11
-19.555984
21
14.801905
31
0.0
0
LINE
8
0
6
CONTINUOUS
10
-17.745774
20
14.801905
30
0.0
11
-19.708444
21
14.801905
31
0.0
0
LINE
8
0
6
CONTINUOUS
10
-18.928554
20
14.801905
30
0.0
11
-18.776104
21
14.801905
31
0.0
0
LINE
8
0
6
CONTINUOUS
10
18.988684
20
14.801905
30
0.0
11
19.093764
21
14.801905
31
0.0
0
LINE
8
0
6
CONTINUOUS
10
18.266484
20
14.801905
30
0.0
11
16.387085
21
14.802233
31
0.0
0
LINE
8
0
6
CONTINUOUS
10
-20.444444
20
26.771444
30
0.0
11
-19.708444
21
26.771444
31
0.0
0
LINE
8
0
6
CONTINUOUS
10
-20.444444
20
27.036607
30
0.0
11
-20.444444
21
26.771444
31
0.0
0
LINE
8
0
6
CONTINUOUS
10
-19.708444
20
26.771444
30
0.0
11
-17.745774
21
26.771444
31
0.0
0
LINE
8
0
6
CONTINUOUS
10
-15.368875
20
25.477718
30
0.0
11
-15.089345
21
24.131557
31
0.0
0
LINE
8
0
6
CONTINUOUS
10
-17.745774
20
26.771444
30
0.0
11
-16.877535
21
26.654021
31
0.0
0
LINE
8
0
6
CONTINUOUS
10
-16.041105
20
26.388648
30
0.0
11
-15.368875
21
25.477718
31
0.0
0
LINE
8
0
6
CONTINUOUS
10
-16.877535
20
26.654021
30
0.0
11
-16.041105
21
26.388648
31
0.0
0
LINE
8
0
6
CONTINUOUS
10
-15.089345
20
24.131557
30
0.0
11
-15.089345
21
20.786674
31
0.0
0
LINE
8
0
6
CONTINUOUS
10
19.829764
20
26.771444
30
0.0
11
19.829764
21
27.036607
31
0.0
0
LINE
8
0
6
CONTINUOUS
10
19.093764
20
26.771444
30
0.0
11
19.829764
21
26.771444
31
0.0
0
LINE
8
0
6
CONTINUOUS
10
17.131095
20
26.771444
30
0.0
11
19.093764
21
26.771444
31
0.0
0
LINE
8
0
6
CONTINUOUS
10
14.474665
20
24.131557
30
0.0
11
14.754195
21
25.477718
31
0.0
0
LINE
8
0
6
CONTINUOUS
10
16.262845
20
26.654021
30
0.0
11
17.131095
21
26.771444
31
0.0
0
LINE
8
0
6
CONTINUOUS
10
14.754195
20
25.477718
30
0.0
11
15.426425
21
26.388648
31
0.0
0
LINE
8
0
6
CONTINUOUS
10
15.426425
20
26.388648
30
0.0
11
16.262845
21
26.654021
31
0.0
0
LINE
8
0
6
CONTINUOUS
10
14.474665
20
20.786674
30
0.0
11
14.474665
21
24.131557
31
0.0
0
LINE
8
0
6
CONTINUOUS
10
-20.444444
20
14.801905
30
0.0
11
-20.444444
21
14.536751
31
0.0
0
LINE
8
0
6
CONTINUOUS
10
-19.708444
20
14.801905
30
0.0
11
-20.444444
21
14.801905
31
0.0
0
LINE
8
0
6
CONTINUOUS
10
-17.745774
20
14.801905
30
0.0
11
-19.708444
21
14.801905
31
0.0
0
LINE
8
0
6
CONTINUOUS
10
-15.089345
20
17.441801
30
0.0
11
-15.368875
21
16.095630
31
0.0
0
LINE
8
0
6
CONTINUOUS
10
-16.877535
20
14.919328
30
0.0
11
-17.745774
21
14.801905
31
0.0
0
LINE
8
0
6
CONTINUOUS
10
-15.368875
20
16.095630
30
0.0
11
-16.041105
21
15.184700
31
0.0
0
LINE
8
0
6
CONTINUOUS
10
-16.041105
20
15.184700
30
0.0
11
-16.877535
21
14.919328
31
0.0
0
LINE
8
0
6
CONTINUOUS
10
-15.089345
20
20.786674
30
0.0
11
-15.089345
21
17.441801
31
0.0
0
LINE
8
0
6
CONTINUOUS
10
19.829764
20
14.801905
30
0.0
11
19.093764
21
14.801905
31
0.0
0
LINE
8
0
6
CONTINUOUS
10
19.829764
20
14.536751
30
0.0
11
19.829764
21
14.801905
31
0.0
0
LINE
8
0
6
CONTINUOUS
10
19.093764
20
14.801905
30
0.0
11
17.131095
21
14.801905
31
0.0
0
LINE
8
0
6
CONTINUOUS
10
14.754195
20
16.095630
30
0.0
11
14.474665
21
17.441801
31
0.0
0
LINE
8
0
6
CONTINUOUS
10
17.131095
20
14.801905
30
0.0
11
16.262845
21
14.919328
31
0.0
0
LINE
8
0
6
CONTINUOUS
10
15.426425
20
15.184700
30
0.0
11
14.754195
21
16.095630
31
0.0
0
LINE
8
0
6
CONTINUOUS
10
16.262845
20
14.919328
30
0.0
11
15.426425
21
15.184700
31
0.0
0
LINE
8
0
6
CONTINUOUS
10
14.474665
20
17.441801
30
0.0
11
14.474665
21
20.786674
31
0.0
0
LINE
8
0
6
CONTINUOUS
10
-18.776104
20
14.801905
30
0.0
11
-19.479624
21
14.801905
31
0.0
0
LINE
8
0
6
CONTINUOUS
10
-16.907005
20
14.801905
30
0.0
11
-18.776104
21
14.801905
31
0.0
0
LINE
8
0
6
CONTINUOUS
10
18.864944
20
14.801905
30
0.0
11
18.161414
21
14.801905
31
0.0
0
LINE
8
0
6
CONTINUOUS
10
21.455973
20
36.096613
30
0.0
11
21.455973
21
38.478388
31
0.0
0
LINE
8
0
6
CONTINUOUS
10
-21.455973
20
38.478388
30
0.0
11
-21.455973
21
36.096613
31
0.0
0
LINE
8
0
6
CONTINUOUS
10
-20.444444
20
-40.427298
30
0.0
11
-20.444444
21
-53.728801
31
0.0
0
LINE
8
0
6
CONTINUOUS
10
20.444444
20
-53.728801
30
0.0
11
20.444444
21
-40.427298
31
0.0
0
LINE
8
0
6
CONTINUOUS
10
0.000000
20
-16.256781
30
0.0
11
6.483858
21
-16.256781
31
0.0
0
LINE
8
0
6
CONTINUOUS
10
6.483858
20
-16.256781
30
0.0
11
12.562476
21
-16.256781
31
0.0
0
LINE
8
0
6
CONTINUOUS
10
12.562476
20
-16.256781
30
0.0
11
17.931924
21
-16.256781
31
0.0
0
LINE
8
0
6
CONTINUOUS
10
17.931924
20
-16.256781
30
0.0
11
21.984333
21
-16.256781
31
0.0
0
LINE
8
0
6
CONTINUOUS
10
21.984333
20
-16.256781
30
0.0
11
24.415782
21
-16.256781
31
0.0
0
LINE
8
0
6
CONTINUOUS
10
25.327572
20
-16.256781
30
0.0
11
31.357200
21
-13.344030
31
0.0
0
LINE
8
0
6
CONTINUOUS
10
24.415782
20
-16.256781
30
0.0
11
25.327572
21
-16.256781
31
0.0
0
LINE
8
0
6
CONTINUOUS
10
-6.483858
20
-16.256781
30
0.0
11
0.000000
21
-16.256781
31
0.0
0
LINE
8
0
6
CONTINUOUS
10
-12.562476
20
-16.256781
30
0.0
11
-6.483858
21
-16.256781
31
0.0
0
LINE
8
0
6
CONTINUOUS
10
-17.931924
20
-16.256781
30
0.0
11
-12.562476
21
-16.256781
31
0.0
0
LINE
8
0
6
CONTINUOUS
10
-21.984333
20
-16.256781
30
0.0
11
-17.931924
21
-16.256781
31
0.0
0
LINE
8
0
6
CONTINUOUS
10
-24.415782
20
-16.256781
30
0.0
11
-21.984333
21
-16.256781
31
0.0
0
LINE
8
0
6
CONTINUOUS
10
-25.327572
20
-16.256781
30
0.0
11
-24.415782
21
-16.256781
31
0.0
0
LINE
8
0
6
CONTINUOUS
10
-31.357210
20
-13.344030
30
0.0
11
-25.327572
21
-16.256781
31
0.0
0
LINE
8
0
6
CONTINUOUS
10
15.111105
20
46.805773
30
0.0
11
15.111105
21
52.103200
31
0.0
0
LINE
8
0
6
CONTINUOUS
10
-3.868439
20
52.119330
30
0.0
11
-7.495108
21
52.119330
31
0.0
0
LINE
8
0
6
CONTINUOUS
10
-15.111105
20
52.119330
30
0.0
11
-15.111105
21
46.806291
31
0.0
0
LINE
8
0
6
CONTINUOUS
10
-0.950470
20
-40.427298
30
0.0
11
0.950460
21
-40.427298
31
0.0
0
LINE
8
0
6
CONTINUOUS
10
-16.896705
20
-55.499990
30
0.0
11
-18.820884
21
-55.499990
31
0.0
0
LINE
8
0
6
CONTINUOUS
10
-29.702141
20
36.096613
30
0.0
11
-30.811350
21
36.096613
31
0.0
0
LINE
8
0
6
CONTINUOUS
10
-30.811350
20
30.405063
30
0.0
11
-29.702141
21
30.405063
31
0.0
0
LINE
8
0
6
CONTINUOUS
10
-30.811350
20
36.096613
30
0.0
11
-30.811350
21
30.405063
31
0.0
0
LINE
8
0
6
CONTINUOUS
10
7.887698
20
36.096613
30
0.0
11
0.000000
21
36.096613
31
0.0
0
LINE
8
0
6
CONTINUOUS
10
0.000000
20
30.405063
30
0.0
11
7.887698
21
30.405063
31
0.0
0
LINE
8
0
6
CONTINUOUS
10
-26.744252
20
36.096613
30
0.0
11
-29.702141
21
36.096613
31
0.0
0
LINE
8
0
6
CONTINUOUS
10
-29.702141
20
30.405063
30
0.0
11
-26.744252
21
30.405063
31
0.0
0
LINE
8
0
6
CONTINUOUS
10
-7.887708
20
36.096613
30
0.0
11
-15.282425
21
36.096613
31
0.0
0
LINE
8
0
6
CONTINUOUS
10
-15.282425
20
30.405063
30
0.0
11
-7.887708
21
30.405063
31
0.0
0
LINE
8
0
6
CONTINUOUS
10
30.811350
20
36.096613
30
0.0
11
29.702141
21
36.096613
31
0.0
0
LINE
8
0
6
CONTINUOUS
10
30.811350
20
30.405063
30
0.0
11
30.811350
21
36.096613
31
0.0
0
LINE
8
0
6
CONTINUOUS
10
29.702141
20
30.405063
30
0.0
11
30.811350
21
30.405063
31
0.0
0
LINE
8
0
6
CONTINUOUS
10
21.814433
20
30.405063
30
0.0
11
26.744252
21
30.405063
31
0.0
0
LINE
8
0
6
CONTINUOUS
10
26.744252
20
36.096613
30
0.0
11
21.814433
21
36.096613
31
0.0
0
LINE
8
0
6
CONTINUOUS
10
7.887698
20
30.405063
30
0.0
11
15.282425
21
30.405063
31
0.0
0
LINE
8
0
6
CONTINUOUS
10
15.282425
20
36.096613
30
0.0
11
7.887698
21
36.096613
31
0.0
0
LINE
8
0
6
CONTINUOUS
10
0.000000
20
36.096613
30
0.0
11
-7.887708
21
36.096613
31
0.0
0
LINE
8
0
6
CONTINUOUS
10
-7.887708
20
30.405063
30
0.0
11
0.000000
21
30.405063
31
0.0
0
LINE
8
0
6
CONTINUOUS
10
15.282425
20
30.405063
30
0.0
11
21.814433
21
30.405063
31
0.0
0
LINE
8
0
6
CONTINUOUS
10
21.814433
20
36.096613
30
0.0
11
15.282425
21
36.096613
31
0.0
0
LINE
8
0
6
CONTINUOUS
10
-15.282425
20
36.096613
30
0.0
11
-21.814433
21
36.096613
31
0.0
0
LINE
8
0
6
CONTINUOUS
10
-21.814433
20
30.405063
30
0.0
11
-15.282425
21
30.405063
31
0.0
0
LINE
8
0
6
CONTINUOUS
10
26.744252
20
30.405063
30
0.0
11
29.702141
21
30.405063
31
0.0
0
LINE
8
0
6
CONTINUOUS
10
29.702141
20
36.096613
30
0.0
11
26.744252
21
36.096613
31
0.0
0
LINE
8
0
6
CONTINUOUS
10
-21.814433
20
36.096613
30
0.0
11
-26.744252
21
36.096613
31
0.0
0
LINE
8
0
6
CONTINUOUS
10
-26.744252
20
30.405063
30
0.0
11
-21.814433
21
30.405063
31
0.0
0
LINE
8
0
6
CONTINUOUS
10
0.000000
20
41.993181
30
0.0
11
3.868439
21
41.993181
31
0.0
0
LINE
8
0
6
CONTINUOUS
10
3.868439
20
41.993181
30
0.0
11
7.495108
21
41.993181
31
0.0
0
LINE
8
0
6
CONTINUOUS
10
7.495108
20
41.993181
30
0.0
11
10.698667
21
41.993181
31
0.0
0
LINE
8
0
6
CONTINUOUS
10
10.698667
20
41.993181
30
0.0
11
13.116446
21
41.993181
31
0.0
0
LINE
8
0
6
CONTINUOUS
10
13.116446
20
41.993181
30
0.0
11
14.567105
21
41.993181
31
0.0
0
LINE
8
0
6
CONTINUOUS
10
15.111105
20
41.993181
30
0.0
11
15.111105
21
45.034584
31
0.0
0
LINE
8
0
6
CONTINUOUS
10
14.567105
20
41.993181
30
0.0
11
15.111105
21
41.993181
31
0.0
0
LINE
8
0
6
CONTINUOUS
10
-3.868439
20
41.993181
30
0.0
11
0.000000
21
41.993181
31
0.0
0
LINE
8
0
6
CONTINUOUS
10
-7.495108
20
41.993181
30
0.0
11
-3.868439
21
41.993181
31
0.0
0
LINE
8
0
6
CONTINUOUS
10
-10.698667
20
41.993181
30
0.0
11
-7.495108
21
41.993181
31
0.0
0
LINE
8
0
6
CONTINUOUS
10
-13.116446
20
41.993181
30
0.0
11
-10.698667
21
41.993181
31
0.0
0
LINE
8
0
6
CONTINUOUS
10
-14.567105
20
41.993181
30
0.0
11
-13.116446
21
41.993181
31
0.0
0
LINE
8
0
6
CONTINUOUS
10
-15.111105
20
41.993181
30
0.0
11
-14.567105
21
41.993181
31
0.0
0
LINE
8
0
6
CONTINUOUS
10
-15.111105
20
45.034584
30
0.0
11
-15.111105
21
41.993181
31
0.0
0
LINE
8
0
6
CONTINUOUS
10
11.489216
20
41.005108
30
0.0
11
11.489216
21
41.993181
31
0.0
0
LINE
8
0
6
CONTINUOUS
10
-11.489216
20
41.993181
30
0.0
11
-11.489216
21
41.005108
31
0.0
0
LINE
8
0
6
CONTINUOUS
10
21.528653
20
-40.427298
30
0.0
11
21.528653
21
-16.256781
31
0.0
0
LINE
8
0
6
CONTINUOUS
10
20.578194
20
-40.427298
30
0.0
11
21.528653
21
-40.427298
31
0.0
0
LINE
8
0
6
CONTINUOUS
10
-20.102284
20
-40.427298
30
0.0
11
-1.426390
21
-40.427298
31
0.0
0
LINE
8
0
6
CONTINUOUS
10
-21.528663
20
-16.256781
30
0.0
11
-21.528663
21
-40.427298
31
0.0
0
LINE
8
0
6
CONTINUOUS
10
-21.528663
20
-40.427298
30
0.0
11
-20.578204
21
-40.427298
31
0.0
0
LINE
8
0
6
CONTINUOUS
10
1.426380
20
-40.427298
30
0.0
11
20.102274
21
-40.427298
31
0.0
0
LINE
8
0
6
CONTINUOUS
10
-0.950470
20
-40.427298
30
0.0
11
-0.950470
21
-16.256781
31
0.0
0
LINE
8
0
6
CONTINUOUS
10
-1.426390
20
-40.427298
30
0.0
11
-0.950470
21
-40.427298
31
0.0
0
LINE
8
0
6
CONTINUOUS
10
0.950460
20
-40.427298
30
0.0
11
1.426380
21
-40.427298
31
0.0
0
LINE
8
0
6
CONTINUOUS
10
0.950460
20
-16.256781
30
0.0
11
0.950460
21
-40.427298
31
0.0
0
LINE
8
0
6
CONTINUOUS
10
20.578194
20
-40.427298
30
0.0
11
20.578194
21
-16.256781
31
0.0
0
LINE
8
0
6
CONTINUOUS
10
20.102274
20
-40.427298
30
0.0
11
20.578194
21
-40.427298
31
0.0
0
LINE
8
0
6
CONTINUOUS
10
-20.578204
20
-40.427298
30
0.0
11
-20.102284
21
-40.427298
31
0.0
0
LINE
8
0
6
CONTINUOUS
10
-20.578204
20
-16.256781
30
0.0
11
-20.578204
21
-40.427298
31
0.0
0
LINE
8
0
6
CONTINUOUS
10
5.051018
20
-55.499990
30
0.0
11
9.741157
21
-55.499990
31
0.0
0
LINE
8
0
6
CONTINUOUS
10
-20.143824
20
-55.159387
30
0.0
11
-19.542484
21
-55.499990
31
0.0
0
LINE
8
0
6
CONTINUOUS
10
-19.542484
20
-55.499990
30
0.0
11
-18.820884
21
-55.499990
31
0.0
0
LINE
8
0
6
CONTINUOUS
10
-18.820884
20
-55.499990
30
0.0
11
-16.896705
21
-55.499990
31
0.0
0
LINE
8
0
6
CONTINUOUS
10
-16.896705
20
-55.499990
30
0.0
11
-13.830046
21
-55.499990
31
0.0
0
LINE
8
0
6
CONTINUOUS
10
19.542484
20
-55.499990
30
0.0
11
20.143814
21
-55.159387
31
0.0
0
LINE
8
0
6
CONTINUOUS
10
18.820884
20
-55.499990
30
0.0
11
19.542484
21
-55.499990
31
0.0
0
LINE
8
0
6
CONTINUOUS
10
16.896705
20
-55.499990
30
0.0
11
18.820884
21
-55.499990
31
0.0
0
LINE
8
0
6
CONTINUOUS
10
13.830036
20
-55.499990
30
0.0
11
16.896705
21
-55.499990
31
0.0
0
LINE
8
0
6
CONTINUOUS
10
0.000000
20
-55.499990
30
0.0
11
5.051018
21
-55.499990
31
0.0
0
LINE
8
0
6
CONTINUOUS
10
9.741157
20
-55.499990
30
0.0
11
13.830036
21
-55.499990
31
0.0
0
LINE
8
0
6
CONTINUOUS
10
-5.051018
20
-55.499990
30
0.0
11
0.000000
21
-55.499990
31
0.0
0
LINE
8
0
6
CONTINUOUS
10
-9.741157
20
-55.499990
30
0.0
11
-5.051018
21
-55.499990
31
0.0
0
LINE
8
0
6
CONTINUOUS
10
-13.830046
20
-55.499990
30
0.0
11
-9.741157
21
-55.499990
31
0.0
0
LINE
8
0
6
CONTINUOUS
10
19.829754
20
-7.679379
30
0.0
11
19.829754
21
11.168296
31
0.0
0
LINE
8
0
6
CONTINUOUS
10
-20.444444
20
11.168296
30
0.0
11
-20.444444
21
-7.675573
31
0.0
0
LINE
8
0
6
CONTINUOUS
10
-14.251016
20
-55.159387
30
0.0
11
-10.041867
21
-55.159387
31
0.0
0
LINE
8
0
6
CONTINUOUS
10
-10.041867
20
-55.159387
30
0.0
11
-5.171198
21
-55.159387
31
0.0
0
LINE
8
0
6
CONTINUOUS
10
-5.171198
20
-55.159387
30
0.0
11
0.000000
21
-55.159387
31
0.0
0
LINE
8
0
6
CONTINUOUS
10
20.444444
20
-54.478152
30
0.0
11
20.444444
21
-53.728801
31
0.0
0
LINE
8
0
6
CONTINUOUS
10
20.143814
20
-55.159387
30
0.0
11
20.444444
21
-54.478152
31
0.0
0
LINE
8
0
6
CONTINUOUS
10
19.422224
20
-55.159387
30
0.0
11
20.143814
21
-55.159387
31
0.0
0
LINE
8
0
6
CONTINUOUS
10
20.444444
20
-54.478152
30
0.0
11
19.722844
21
-54.478152
31
0.0
0
LINE
8
0
6
CONTINUOUS
10
-17.437865
20
-55.159387
30
0.0
11
-14.251016
21
-55.159387
31
0.0
0
LINE
8
0
6
CONTINUOUS
10
-20.444444
20
-53.728801
30
0.0
11
-20.444444
21
-54.478152
31
0.0
0
LINE
8
0
6
CONTINUOUS
10
-17.678394
20
-54.478152
30
0.0
11
-19.722844
21
-54.478152
31
0.0
0
LINE
8
0
6
CONTINUOUS
10
-19.422214
20
-55.159387
30
0.0
11
-17.437865
21
-55.159387
31
0.0
0
LINE
8
0
6
CONTINUOUS
10
-20.444444
20
-54.478152
30
0.0
11
-20.143824
21
-55.159387
31
0.0
0
LINE
8
0
6
CONTINUOUS
10
-19.722844
20
-54.478152
30
0.0
11
-20.444444
21
-54.478152
31
0.0
0
LINE
8
0
6
CONTINUOUS
10
-20.143824
20
-55.159387
30
0.0
11
-19.422214
21
-55.159387
31
0.0
0
LINE
8
0
6
CONTINUOUS
10
10.041867
20
-55.159387
30
0.0
11
14.250926
21
-55.159387
31
0.0
0
LINE
8
0
6
CONTINUOUS
10
10.162127
20
-54.478152
30
0.0
11
5.231378
21
-54.478152
31
0.0
0
LINE
8
0
6
CONTINUOUS
10
5.171198
20
-55.159387
30
0.0
11
10.041867
21
-55.159387
31
0.0
0
LINE
8
0
6
CONTINUOUS
10
5.231378
20
-54.478152
30
0.0
11
0.000000
21
-54.478152
31
0.0
0
LINE
8
0
6
CONTINUOUS
10
0.000000
20
-55.159387
30
0.0
11
5.171198
21
-55.159387
31
0.0
0
LINE
8
0
6
CONTINUOUS
10
14.250926
20
-55.159387
30
0.0
11
17.437865
21
-55.159387
31
0.0
0
LINE
8
0
6
CONTINUOUS
10
17.437865
20
-55.159387
30
0.0
11
19.422224
21
-55.159387
31
0.0
0
LINE
8
0
6
CONTINUOUS
10
-5.231378
20
-54.478152
30
0.0
11
0.000000
21
-54.478152
31
0.0
0
LINE
8
0
6
CONTINUOUS
10
15.764755
20
46.806291
30
0.0
11
12.858806
21
46.806291
31
0.0
0
LINE
8
0
6
CONTINUOUS
10
12.858806
20
45.035211
30
0.0
11
15.764755
21
45.035211
31
0.0
0
LINE
8
0
6
CONTINUOUS
10
17.508315
20
46.806291
30
0.0
11
15.764755
21
46.806291
31
0.0
0
LINE
8
0
6
CONTINUOUS
10
15.764755
20
45.035211
30
0.0
11
17.508315
21
45.035211
31
0.0
0
LINE
8
0
6
CONTINUOUS
10
4.649509
20
46.806291
30
0.0
11
0.000000
21
46.806291
31
0.0
0
LINE
8
0
6
CONTINUOUS
10
0.000000
20
45.035211
30
0.0
11
4.649509
21
45.035211
31
0.0
0
LINE
8
0
6
CONTINUOUS
10
9.008427
20
46.806291
30
0.0
11
4.649509
21
46.806291
31
0.0
0
LINE
8
0
6
CONTINUOUS
10
4.649509
20
45.035211
30
0.0
11
9.008427
21
45.035211
31
0.0
0
LINE
8
0
6
CONTINUOUS
10
12.858806
20
46.806291
30
0.0
11
9.008427
21
46.806291
31
0.0
0
LINE
8
0
6
CONTINUOUS
10
9.008427
20
45.035211
30
0.0
11
12.858806
21
45.035211
31
0.0
0
LINE
8
0
6
CONTINUOUS
10
18.162154
20
46.806291
30
0.0
11
17.508315
21
46.806291
31
0.0
0
LINE
8
0
6
CONTINUOUS
10
18.162154
20
45.035211
30
0.0
11
18.162154
21
46.806291
31
0.0
0
LINE
8
0
6
CONTINUOUS
10
17.508315
20
45.035211
30
0.0
11
18.162154
21
45.035211
31
0.0
0
LINE
8
0
6
CONTINUOUS
10
-4.649509
20
45.035211
30
0.0
11
0.000000
21
45.035211
31
0.0
0
LINE
8
0
6
CONTINUOUS
10
0.000000
20
46.806291
30
0.0
11
-4.649509
21
46.806291
31
0.0
0
LINE
8
0
6
CONTINUOUS
10
-9.008427
20
45.035211
30
0.0
11
-4.649509
21
45.035211
31
0.0
0
LINE
8
0
6
CONTINUOUS
10
-4.649509
20
46.806291
30
0.0
11
-9.008427
21
46.806291
31
0.0
0
LINE
8
0
6
CONTINUOUS
10
-12.858806
20
45.035211
30
0.0
11
-9.008427
21
45.035211
31
0.0
0
LINE
8
0
6
CONTINUOUS
10
-9.008427
20
46.806291
30
0.0
11
-12.858806
21
46.806291
31
0.0
0
LINE
8
0
6
CONTINUOUS
10
-15.764755
20
45.035211
30
0.0
11
-12.858806
21
45.035211
31
0.0
0
LINE
8
0
6
CONTINUOUS
10
-12.858806
20
46.806291
30
0.0
11
-15.764755
21
46.806291
31
0.0
0
LINE
8
0
6
CONTINUOUS
10
-17.508315
20
45.035211
30
0.0
11
-15.764755
21
45.035211
31
0.0
0
LINE
8
0
6
CONTINUOUS
10
-15.764755
20
46.806291
30
0.0
11
-17.508315
21
46.806291
31
0.0
0
LINE
8
0
6
CONTINUOUS
10
-18.162154
20
45.035211
30
0.0
11
-17.508315
21
45.035211
31
0.0
0
LINE
8
0
6
CONTINUOUS
10
-18.162154
20
46.806291
30
0.0
11
-18.162154
21
45.035211
31
0.0
0
LINE
8
0
6
CONTINUOUS
10
-17.508315
20
46.806291
30
0.0
11
-18.162154
21
46.806291
31
0.0
0
LINE
8
0
6
CONTINUOUS
10
8.191997
20
-7.675573
30
0.0
11
0.000000
21
-7.675573
31
0.0
0
LINE
8
0
6
CONTINUOUS
10
0.000000
20
-13.339895
30
0.0
11
8.191997
21
-13.339895
31
0.0
0
LINE
8
0
6
CONTINUOUS
10
15.871995
20
-7.675573
30
0.0
11
8.191997
21
-7.675573
31
0.0
0
LINE
8
0
6
CONTINUOUS
10
8.191997
20
-13.339895
30
0.0
11
15.871995
21
-13.339895
31
0.0
0
LINE
8
0
6
CONTINUOUS
10
22.655993
20
-7.675573
30
0.0
11
15.871995
21
-7.675573
31
0.0
0
LINE
8
0
6
CONTINUOUS
10
15.871995
20
-13.339895
30
0.0
11
22.655993
21
-13.339895
31
0.0
0
LINE
8
0
6
CONTINUOUS
10
27.775991
20
-7.675573
30
0.0
11
22.655993
21
-7.675573
31
0.0
0
LINE
8
0
6
CONTINUOUS
10
22.655993
20
-13.339895
30
0.0
11
27.775991
21
-13.339895
31
0.0
0
LINE
8
0
6
CONTINUOUS
10
30.847990
20
-7.675573
30
0.0
11
27.775991
21
-7.675573
31
0.0
0
LINE
8
0
6
CONTINUOUS
10
27.775991
20
-13.339895
30
0.0
11
30.847990
21
-13.339895
31
0.0
0
LINE
8
0
6
CONTINUOUS
10
31.999990
20
-7.675573
30
0.0
11
30.847990
21
-7.675573
31
0.0
0
LINE
8
0
6
CONTINUOUS
10
31.999990
20
-13.339895
30
0.0
11
31.999990
21
-7.675573
31
0.0
0
LINE
8
0
6
CONTINUOUS
10
30.847990
20
-13.339895
30
0.0
11
31.999990
21
-13.339895
31
0.0
0
LINE
8
0
6
CONTINUOUS
10
-8.191997
20
-13.339895
30
0.0
11
0.000000
21
-13.339895
31
0.0
0
LINE
8
0
6
CONTINUOUS
10
0.000000
20
-7.675573
30
0.0
11
-8.191997
21
-7.675573
31
0.0
0
LINE
8
0
6
CONTINUOUS
10
-15.871995
20
-13.339895
30
0.0
11
-8.191997
21
-13.339895
31
0.0
0
LINE
8
0
6
CONTINUOUS
10
-8.191997
20
-7.675573
30
0.0
11
-15.871995
21
-7.675573
31
0.0
0
LINE
8
0
6
CONTINUOUS
10
-22.655993
20
-13.339895
30
0.0
11
-15.871995
21
-13.339895
31
0.0
0
LINE
8
0
6
CONTINUOUS
10
-15.871995
20
-7.675573
30
0.0
11
-22.655993
21
-7.675573
31
0.0
0
LINE
8
0
6
CONTINUOUS
10
-27.775991
20
-13.339895
30
0.0
11
-22.655993
21
-13.339895
31
0.0
0
LINE
8
0
6
CONTINUOUS
10
-22.655993
20
-7.675573
30
0.0
11
-27.775991
21
-7.675573
31
0.0
0
LINE
8
0
6
CONTINUOUS
10
-30.847990
20
-13.339895
30
0.0
11
-27.775991
21
-13.339895
31
0.0
0
LINE
8
0
6
CONTINUOUS
10
-27.775991
20
-7.675573
30
0.0
11
-30.847990
21
-7.675573
31
0.0
0
LINE
8
0
6
CONTINUOUS
10
-31.999990
20
-13.339895
30
0.0
11
-30.847990
21
-13.339895
31
0.0
0
LINE
8
0
6
CONTINUOUS
10
-31.999990
20
-7.675573
30
0.0
11
-31.999990
21
-13.339895
31
0.0
0
LINE
8
0
6
CONTINUOUS
10
-30.847990
20
-7.675573
30
0.0
11
-31.999990
21
-7.675573
31
0.0
0
LINE
8
0
6
CONTINUOUS
10
-20.683563
20
38.478388
30
0.0
11
-18.623784
21
38.478388
31
0.0
0
LINE
8
0
6
CONTINUOUS
10
-18.623784
20
38.478388
30
0.0
11
-15.190835
21
38.478389
31
0.0
0
LINE
8
0
6
CONTINUOUS
10
-15.190835
20
38.478389
30
0.0
11
-10.642167
21
38.478388
31
0.0
0
LINE
8
0
6
CONTINUOUS
10
-10.642166
20
38.478388
30
0.0
11
-5.492731
21
38.478388
31
0.0
0
LINE
8
0
6
CONTINUOUS
10
-5.492728
20
38.478388
30
0.0
11
0.000000
21
38.478388
31
0.0
0
LINE
8
0
6
CONTINUOUS
10
5.492730
20
38.478388
30
0.0
11
10.642157
21
38.478388
31
0.0
0
LINE
8
0
6
CONTINUOUS
10
18.623784
20
38.478388
30
0.0
11
15.190835
21
38.478389
31
0.0
0
LINE
8
0
6
CONTINUOUS
10
10.642157
20
38.478388
30
0.0
11
15.190835
21
38.478389
31
0.0
0
LINE
8
0
6
CONTINUOUS
10
0.000000
20
38.478388
30
0.0
11
5.492728
21
38.478389
31
0.0
0
LINE
8
0
6
CONTINUOUS
10
20.683563
20
38.478388
30
0.0
11
18.623784
21
38.478388
31
0.0
0
ENDSEC
0
EOF
