999
Erzeugt mit innoplus bad 
0
SECTION
2
HEADER
9
$ACADVER
1
AC1009
9
$DWGCODEPAGE
3
ISO8859-1
0
ENDSEC
0
SECTION
2
TABLES
0
TABLE
2
LAYER
70
1
0
LAYER
2
0
70
0
62
7
6
CONTINUOUS
0
ENDTAB
0
ENDSEC
0
SECTION
2
ENTITIES
0
LINE
8
0
6
CONTINUOUS
10
-35.694935
20
-3.947710
30
0.0
11
-35.694935
21
0.000000
31
0.0
0
LINE
8
0
6
CONTINUOUS
10
-35.694935
20
-7.743720
30
0.0
11
-35.694935
21
-3.947710
31
0.0
0
LINE
8
0
6
CONTINUOUS
10
-35.694935
20
-11.242140
30
0.0
11
-35.694935
21
-7.743720
31
0.0
0
LINE
8
0
6
CONTINUOUS
10
-35.694935
20
-14.308530
30
0.0
11
-35.694935
21
-11.242140
31
0.0
0
LINE
8
0
6
CONTINUOUS
10
-35.694935
20
-16.825050
30
0.0
11
-35.694935
21
-14.308530
31
0.0
0
LINE
8
0
6
CONTINUOUS
10
-35.694935
20
-18.695000
30
0.0
11
-35.694935
21
-16.825050
31
0.0
0
LINE
8
0
6
CONTINUOUS
10
-35.694935
20
-19.846510
30
0.0
11
-35.694935
21
-18.695000
31
0.0
0
LINE
8
0
6
CONTINUOUS
10
-35.694935
20
-20.235320
30
0.0
11
-35.694935
21
-19.846510
31
0.0
0
LINE
8
0
6
CONTINUOUS
10
-36.409475
20
-20.235320
30
0.0
11
-35.694935
21
-20.235320
31
0.0
0
LINE
8
0
6
CONTINUOUS
10
-35.694935
20
0.000000
30
0.0
11
-35.694935
21
3.947720
31
0.0
0
LINE
8
0
6
CONTINUOUS
10
-35.694935
20
3.947720
30
0.0
11
-35.694935
21
7.743730
31
0.0
0
LINE
8
0
6
CONTINUOUS
10
-35.694935
20
7.743730
30
0.0
11
-35.694935
21
11.242150
31
0.0
0
LINE
8
0
6
CONTINUOUS
10
-35.694935
20
11.242150
30
0.0
11
-35.694935
21
14.308540
31
0.0
0
LINE
8
0
6
CONTINUOUS
10
-35.694935
20
14.308540
30
0.0
11
-35.694935
21
16.825060
31
0.0
0
LINE
8
0
6
CONTINUOUS
10
-35.694935
20
16.825060
30
0.0
11
-35.694935
21
18.695000
31
0.0
0
LINE
8
0
6
CONTINUOUS
10
-35.694935
20
18.695000
30
0.0
11
-35.694935
21
19.846510
31
0.0
0
LINE
8
0
6
CONTINUOUS
10
-35.694935
20
20.235320
30
0.0
11
-36.409475
21
20.235320
31
0.0
0
LINE
8
0
6
CONTINUOUS
10
-35.694935
20
19.846510
30
0.0
11
-35.694935
21
20.235320
31
0.0
0
LINE
8
0
6
CONTINUOUS
10
50.694355
20
8.673170
30
0.0
11
50.694355
21
11.334100
31
0.0
0
LINE
8
0
6
CONTINUOUS
10
-50.694565
20
0.000000
30
0.0
11
-50.694565
21
-3.947710
31
0.0
0
LINE
8
0
6
CONTINUOUS
10
-50.694565
20
-3.947710
30
0.0
11
-50.694565
21
-7.743720
31
0.0
0
LINE
8
0
6
CONTINUOUS
10
-50.694565
20
-7.743720
30
0.0
11
-50.694565
21
-11.242140
31
0.0
0
LINE
8
0
6
CONTINUOUS
10
-50.694565
20
-11.242140
30
0.0
11
-50.694565
21
-14.308530
31
0.0
0
LINE
8
0
6
CONTINUOUS
10
-50.694565
20
-14.308530
30
0.0
11
-50.694565
21
-16.825050
31
0.0
0
LINE
8
0
6
CONTINUOUS
10
-50.694565
20
-16.825050
30
0.0
11
-50.694565
21
-18.695000
31
0.0
0
LINE
8
0
6
CONTINUOUS
10
-50.694565
20
-18.695000
30
0.0
11
-50.694565
21
-19.846510
31
0.0
0
LINE
8
0
6
CONTINUOUS
10
-50.694565
20
-20.235320
30
0.0
11
-50.303315
21
-20.235320
31
0.0
0
LINE
8
0
6
CONTINUOUS
10
-50.694565
20
-19.846510
30
0.0
11
-50.694565
21
-20.235320
31
0.0
0
LINE
8
0
6
CONTINUOUS
10
-50.694565
20
3.947720
30
0.0
11
-50.694565
21
0.000000
31
0.0
0
LINE
8
0
6
CONTINUOUS
10
-50.694565
20
7.743730
30
0.0
11
-50.694565
21
3.947720
31
0.0
0
LINE
8
0
6
CONTINUOUS
10
-50.694565
20
11.242150
30
0.0
11
-50.694565
21
7.743730
31
0.0
0
LINE
8
0
6
CONTINUOUS
10
-50.694565
20
14.308540
30
0.0
11
-50.694565
21
11.242150
31
0.0
0
LINE
8
0
6
CONTINUOUS
10
-50.694565
20
16.825060
30
0.0
11
-50.694565
21
14.308540
31
0.0
0
LINE
8
0
6
CONTINUOUS
10
-50.694565
20
18.695000
30
0.0
11
-50.694565
21
16.825060
31
0.0
0
LINE
8
0
6
CONTINUOUS
10
-50.694565
20
19.846510
30
0.0
11
-50.694565
21
18.695000
31
0.0
0
LINE
8
0
6
CONTINUOUS
10
-50.694565
20
20.235320
30
0.0
11
-50.694565
21
19.846510
31
0.0
0
LINE
8
0
6
CONTINUOUS
10
-50.303325
20
20.235320
30
0.0
11
-50.694565
21
20.235320
31
0.0
0
LINE
8
0
6
CONTINUOUS
10
-50.303315
20
-20.235320
30
0.0
11
-36.409475
21
-20.235320
31
0.0
0
LINE
8
0
6
CONTINUOUS
10
-36.409475
20
20.235320
30
0.0
11
-50.303325
21
20.235320
31
0.0
0
LINE
8
0
6
CONTINUOUS
10
50.694355
20
11.334100
30
0.0
11
50.694355
21
11.775800
31
0.0
0
LINE
8
0
6
CONTINUOUS
10
24.908115
20
3.072780
30
0.0
11
24.420765
21
3.072780
31
0.0
0
LINE
8
0
6
CONTINUOUS
10
24.420765
20
-3.069250
30
0.0
11
24.908115
21
-3.069250
31
0.0
0
LINE
8
0
6
CONTINUOUS
10
-35.619475
20
3.072780
30
0.0
11
-35.694935
21
3.072780
31
0.0
0
LINE
8
0
6
CONTINUOUS
10
-35.395405
20
3.072780
30
0.0
11
-35.619475
21
3.072780
31
0.0
0
LINE
8
0
6
CONTINUOUS
10
-35.029525
20
3.072780
30
0.0
11
-35.395405
21
3.072780
31
0.0
0
LINE
8
0
6
CONTINUOUS
10
-34.532965
20
3.072780
30
0.0
11
-35.029525
21
3.072780
31
0.0
0
LINE
8
0
6
CONTINUOUS
10
-33.920795
20
3.072780
30
0.0
11
-34.532965
21
3.072780
31
0.0
0
LINE
8
0
6
CONTINUOUS
10
-33.211615
20
3.072780
30
0.0
11
-33.920795
21
3.072780
31
0.0
0
LINE
8
0
6
CONTINUOUS
10
-32.426995
20
3.072780
30
0.0
11
-33.211615
21
3.072780
31
0.0
0
LINE
8
0
6
CONTINUOUS
10
-31.590755
20
3.072780
30
0.0
11
-32.426995
21
3.072780
31
0.0
0
LINE
8
0
6
CONTINUOUS
10
-30.728315
20
3.072780
30
0.0
11
-31.590755
21
3.072780
31
0.0
0
LINE
8
0
6
CONTINUOUS
10
-31.590755
20
-3.069250
30
0.0
11
-30.728315
21
-3.069250
31
0.0
0
LINE
8
0
6
CONTINUOUS
10
-32.426995
20
-3.069250
30
0.0
11
-31.590755
21
-3.069250
31
0.0
0
LINE
8
0
6
CONTINUOUS
10
-33.211625
20
-3.069250
30
0.0
11
-32.426995
21
-3.069250
31
0.0
0
LINE
8
0
6
CONTINUOUS
10
-33.920795
20
-3.069250
30
0.0
11
-33.211625
21
-3.069250
31
0.0
0
LINE
8
0
6
CONTINUOUS
10
-34.532965
20
-3.069250
30
0.0
11
-33.920795
21
-3.069250
31
0.0
0
LINE
8
0
6
CONTINUOUS
10
-35.029525
20
-3.069250
30
0.0
11
-34.532965
21
-3.069250
31
0.0
0
LINE
8
0
6
CONTINUOUS
10
-35.395405
20
-3.069250
30
0.0
11
-35.029525
21
-3.069250
31
0.0
0
LINE
8
0
6
CONTINUOUS
10
-35.619475
20
-3.069250
30
0.0
11
-35.395405
21
-3.069250
31
0.0
0
LINE
8
0
6
CONTINUOUS
10
-35.694935
20
-3.069250
30
0.0
11
-35.619475
21
-3.069250
31
0.0
0
LINE
8
0
6
CONTINUOUS
10
-30.728315
20
-3.069250
30
0.0
11
24.420765
21
-3.069250
31
0.0
0
LINE
8
0
6
CONTINUOUS
10
43.418135
20
15.440760
30
0.0
11
40.347125
21
15.743230
31
0.0
0
LINE
8
0
6
CONTINUOUS
10
46.371125
20
14.544980
30
0.0
11
43.418135
21
15.440760
31
0.0
0
LINE
8
0
6
CONTINUOUS
10
49.092625
20
13.090310
30
0.0
11
46.371125
21
14.544980
31
0.0
0
LINE
8
0
6
CONTINUOUS
10
49.626535
20
-12.648640
30
0.0
11
50.429045
21
-11.990040
31
0.0
0
LINE
8
0
6
CONTINUOUS
10
46.371125
20
-14.541480
30
0.0
11
49.092625
21
-13.086810
31
0.0
0
LINE
8
0
6
CONTINUOUS
10
43.418135
20
-15.437260
30
0.0
11
46.371125
21
-14.541480
31
0.0
0
LINE
8
0
6
CONTINUOUS
10
40.347115
20
-15.739730
30
0.0
11
43.418135
21
-15.437260
31
0.0
0
LINE
8
0
6
CONTINUOUS
10
37.276105
20
-15.437260
30
0.0
11
40.347115
21
-15.739730
31
0.0
0
LINE
8
0
6
CONTINUOUS
10
34.323115
20
-14.541480
30
0.0
11
37.276105
21
-15.437260
31
0.0
0
LINE
8
0
6
CONTINUOUS
10
31.601625
20
-13.086810
30
0.0
11
34.323115
21
-14.541480
31
0.0
0
LINE
8
0
6
CONTINUOUS
10
29.216215
20
-11.129150
30
0.0
11
31.601625
21
-13.086810
31
0.0
0
LINE
8
0
6
CONTINUOUS
10
27.258555
20
-8.743740
30
0.0
11
29.216215
21
-11.129150
31
0.0
0
LINE
8
0
6
CONTINUOUS
10
25.803885
20
-6.022240
30
0.0
11
27.258555
21
-8.743740
31
0.0
0
LINE
8
0
6
CONTINUOUS
10
24.908115
20
-3.069250
30
0.0
11
25.803885
21
-6.022240
31
0.0
0
LINE
8
0
6
CONTINUOUS
10
30.453155
20
-4.096460
30
0.0
11
29.843735
21
-2.087490
31
0.0
0
LINE
8
0
6
CONTINUOUS
10
24.605645
20
0.001770
30
0.0
11
24.908115
21
-3.069250
31
0.0
0
LINE
8
0
6
CONTINUOUS
10
24.908115
20
3.072780
30
0.0
11
24.605645
21
0.001770
31
0.0
0
LINE
8
0
6
CONTINUOUS
10
25.803905
20
6.025770
30
0.0
11
24.908115
21
3.072780
31
0.0
0
LINE
8
0
6
CONTINUOUS
10
29.843745
20
2.091010
30
0.0
11
30.453165
21
4.099980
31
0.0
0
LINE
8
0
6
CONTINUOUS
10
27.258575
20
8.747260
30
0.0
11
25.803905
21
6.025770
31
0.0
0
LINE
8
0
6
CONTINUOUS
10
29.216235
20
11.132670
30
0.0
11
27.258575
21
8.747260
31
0.0
0
LINE
8
0
6
CONTINUOUS
10
31.601645
20
13.090320
30
0.0
11
29.216235
21
11.132670
31
0.0
0
LINE
8
0
6
CONTINUOUS
10
34.323145
20
14.544990
30
0.0
11
31.601645
21
13.090320
31
0.0
0
LINE
8
0
6
CONTINUOUS
10
37.276135
20
15.440770
30
0.0
11
34.323145
21
14.544990
31
0.0
0
LINE
8
0
6
CONTINUOUS
10
40.347125
20
15.743230
30
0.0
11
37.276135
21
15.440770
31
0.0
0
LINE
8
0
6
CONTINUOUS
10
40.347125
20
10.710910
30
0.0
11
42.436375
21
10.505130
31
0.0
0
LINE
8
0
6
CONTINUOUS
10
42.436375
20
10.505130
30
0.0
11
44.445345
21
9.895720
31
0.0
0
LINE
8
0
6
CONTINUOUS
10
44.445345
20
9.895720
30
0.0
11
46.296815
21
8.906090
31
0.0
0
LINE
8
0
6
CONTINUOUS
10
46.296815
20
8.906090
30
0.0
11
47.119505
21
8.230920
31
0.0
0
LINE
8
0
6
CONTINUOUS
10
46.296815
20
-8.902590
30
0.0
11
44.445345
21
-9.892220
31
0.0
0
LINE
8
0
6
CONTINUOUS
10
44.445345
20
-9.892220
30
0.0
11
42.436375
21
-10.501630
31
0.0
0
LINE
8
0
6
CONTINUOUS
10
42.436375
20
-10.501630
30
0.0
11
40.347125
21
-10.707400
31
0.0
0
LINE
8
0
6
CONTINUOUS
10
40.347125
20
-10.707400
30
0.0
11
38.257865
21
-10.501630
31
0.0
0
LINE
8
0
6
CONTINUOUS
10
38.257865
20
-10.501630
30
0.0
11
36.248905
21
-9.892220
31
0.0
0
LINE
8
0
6
CONTINUOUS
10
36.248905
20
-9.892220
30
0.0
11
34.397435
21
-8.902580
31
0.0
0
LINE
8
0
6
CONTINUOUS
10
34.397435
20
-8.902580
30
0.0
11
32.774605
21
-7.570760
31
0.0
0
LINE
8
0
6
CONTINUOUS
10
32.774605
20
-7.570760
30
0.0
11
31.442785
21
-5.947930
31
0.0
0
LINE
8
0
6
CONTINUOUS
10
31.442785
20
-5.947930
30
0.0
11
30.453155
21
-4.096460
31
0.0
0
LINE
8
0
6
CONTINUOUS
10
29.843735
20
-2.087490
30
0.0
11
29.637965
21
0.001760
31
0.0
0
LINE
8
0
6
CONTINUOUS
10
29.637965
20
0.001760
30
0.0
11
29.843745
21
2.091010
31
0.0
0
LINE
8
0
6
CONTINUOUS
10
30.453165
20
4.099980
30
0.0
11
31.442795
21
5.951450
31
0.0
0
LINE
8
0
6
CONTINUOUS
10
31.442795
20
5.951450
30
0.0
11
32.774615
21
7.574280
31
0.0
0
LINE
8
0
6
CONTINUOUS
10
32.774615
20
7.574280
30
0.0
11
34.397445
21
8.906100
31
0.0
0
LINE
8
0
6
CONTINUOUS
10
34.397445
20
8.906100
30
0.0
11
36.248925
21
9.895720
31
0.0
0
LINE
8
0
6
CONTINUOUS
10
36.248925
20
9.895720
30
0.0
11
38.257895
21
10.505140
31
0.0
0
LINE
8
0
6
CONTINUOUS
10
38.257895
20
10.505140
30
0.0
11
40.347125
21
10.710910
31
0.0
0
LINE
8
0
6
CONTINUOUS
10
50.694355
20
-8.227970
30
0.0
11
50.351135
21
-8.227920
31
0.0
0
LINE
8
0
6
CONTINUOUS
10
50.694355
20
-8.669670
30
0.0
11
50.694355
21
-8.227970
31
0.0
0
LINE
8
0
6
CONTINUOUS
10
49.092625
20
-13.086810
30
0.0
11
49.626535
21
-12.648640
31
0.0
0
LINE
8
0
6
CONTINUOUS
10
47.119505
20
-8.227420
30
0.0
11
46.296815
21
-8.902590
31
0.0
0
LINE
8
0
6
CONTINUOUS
10
47.119505
20
8.230920
30
0.0
11
50.389045
21
8.231420
31
0.0
0
LINE
8
0
6
CONTINUOUS
10
50.458345
20
11.969490
30
0.0
11
50.694355
21
11.775800
31
0.0
0
LINE
8
0
6
CONTINUOUS
10
49.626535
20
12.652140
30
0.0
11
49.092625
21
13.090310
31
0.0
0
LINE
8
0
6
CONTINUOUS
10
50.694355
20
8.231470
30
0.0
11
50.694355
21
8.673170
31
0.0
0
LINE
8
0
6
CONTINUOUS
10
50.389045
20
8.231420
30
0.0
11
50.694355
21
8.231470
31
0.0
0
LINE
8
0
6
CONTINUOUS
10
49.626535
20
12.652140
30
0.0
11
50.458345
21
11.969490
31
0.0
0
LINE
8
0
6
CONTINUOUS
10
50.694355
20
-11.772300
30
0.0
11
50.694355
21
-11.330600
31
0.0
0
LINE
8
0
6
CONTINUOUS
10
50.429045
20
-11.990040
30
0.0
11
50.694355
21
-11.772300
31
0.0
0
LINE
8
0
6
CONTINUOUS
10
50.351135
20
-8.227920
30
0.0
11
47.119505
21
-8.227420
31
0.0
0
LINE
8
0
6
CONTINUOUS
10
50.694355
20
-11.330600
30
0.0
11
50.694355
21
-8.669670
31
0.0
0
LINE
8
0
6
CONTINUOUS
10
24.420765
20
3.072780
30
0.0
11
-30.728315
21
3.072780
31
0.0
0
ENDSEC
0
EOF
