999
Erzeugt mit innoplus bad 
0
SECTION
2
HEADER
9
$ACADVER
1
AC1009
9
$DWGCODEPAGE
3
ISO8859-1
0
ENDSEC
0
SECTION
2
TABLES
0
TABLE
2
LAYER
70
1
0
LAYER
2
0
70
0
62
7
6
CONTINUOUS
0
ENDTAB
0
ENDSEC
0
SECTION
2
ENTITIES
0
LINE
8
0
6
CONTINUOUS
10
-8.100000
20
10.174000
30
0.0
11
-7.000000
21
10.174000
31
0.0
0
LINE
8
0
6
CONTINUOUS
10
-10.000000
20
10.174000
30
0.0
11
-8.100000
21
10.174000
31
0.0
0
LINE
8
0
6
CONTINUOUS
10
-11.100000
20
10.174000
30
0.0
11
-10.000000
21
10.174000
31
0.0
0
LINE
8
0
6
CONTINUOUS
10
-11.500000
20
10.174000
30
0.0
11
-11.100000
21
10.174000
31
0.0
0
LINE
8
0
6
CONTINUOUS
10
7.000000
20
10.174000
30
0.0
11
8.100000
21
10.174000
31
0.0
0
LINE
8
0
6
CONTINUOUS
10
8.100000
20
10.174000
30
0.0
11
10.000000
21
10.174000
31
0.0
0
LINE
8
0
6
CONTINUOUS
10
10.000000
20
10.174000
30
0.0
11
11.100000
21
10.174000
31
0.0
0
LINE
8
0
6
CONTINUOUS
10
11.100000
20
10.174000
30
0.0
11
11.500000
21
10.174000
31
0.0
0
LINE
8
0
6
CONTINUOUS
10
3.000000
20
10.174000
30
0.0
11
0.000000
21
10.174000
31
0.0
0
LINE
8
0
6
CONTINUOUS
10
5.700000
20
10.174000
30
0.0
11
3.000000
21
10.174000
31
0.0
0
LINE
8
0
6
CONTINUOUS
10
8.100000
20
10.174000
30
0.0
11
5.700000
21
10.174000
31
0.0
0
LINE
8
0
6
CONTINUOUS
10
10.000000
20
10.174000
30
0.0
11
8.100000
21
10.174000
31
0.0
0
LINE
8
0
6
CONTINUOUS
10
11.100000
20
10.174000
30
0.0
11
10.000000
21
10.174000
31
0.0
0
LINE
8
0
6
CONTINUOUS
10
11.500000
20
10.174000
30
0.0
11
11.100000
21
10.174000
31
0.0
0
LINE
8
0
6
CONTINUOUS
10
0.000000
20
10.174000
30
0.0
11
-3.000000
21
10.174000
31
0.0
0
LINE
8
0
6
CONTINUOUS
10
-3.000000
20
10.174000
30
0.0
11
-5.700000
21
10.174000
31
0.0
0
LINE
8
0
6
CONTINUOUS
10
-5.700000
20
10.174000
30
0.0
11
-8.100000
21
10.174000
31
0.0
0
LINE
8
0
6
CONTINUOUS
10
-8.100000
20
10.174000
30
0.0
11
-10.000000
21
10.174000
31
0.0
0
LINE
8
0
6
CONTINUOUS
10
-10.000000
20
10.174000
30
0.0
11
-11.100000
21
10.174000
31
0.0
0
LINE
8
0
6
CONTINUOUS
10
-11.100000
20
10.174000
30
0.0
11
-11.500000
21
10.174000
31
0.0
0
LINE
8
0
6
CONTINUOUS
10
8.100000
20
10.174000
30
0.0
11
7.000000
21
10.174000
31
0.0
0
LINE
8
0
6
CONTINUOUS
10
10.000000
20
10.174000
30
0.0
11
8.100000
21
10.174000
31
0.0
0
LINE
8
0
6
CONTINUOUS
10
11.100000
20
10.174000
30
0.0
11
10.000000
21
10.174000
31
0.0
0
LINE
8
0
6
CONTINUOUS
10
11.500000
20
10.174000
30
0.0
11
11.100000
21
10.174000
31
0.0
0
LINE
8
0
6
CONTINUOUS
10
-7.000000
20
10.174000
30
0.0
11
-8.100000
21
10.174000
31
0.0
0
LINE
8
0
6
CONTINUOUS
10
-8.100000
20
10.174000
30
0.0
11
-10.000000
21
10.174000
31
0.0
0
LINE
8
0
6
CONTINUOUS
10
-10.000000
20
10.174000
30
0.0
11
-11.100000
21
10.174000
31
0.0
0
LINE
8
0
6
CONTINUOUS
10
-11.100000
20
10.174000
30
0.0
11
-11.500000
21
10.174000
31
0.0
0
LINE
8
0
6
CONTINUOUS
10
0.000000
20
-19.826000
30
0.0
11
2.700000
21
-19.826000
31
0.0
0
LINE
8
0
6
CONTINUOUS
10
2.700000
20
-19.826000
30
0.0
11
5.200000
21
-19.826000
31
0.0
0
LINE
8
0
6
CONTINUOUS
10
5.200000
20
-19.826000
30
0.0
11
7.400000
21
-19.826000
31
0.0
0
LINE
8
0
6
CONTINUOUS
10
7.400000
20
-19.826000
30
0.0
11
9.100000
21
-19.826000
31
0.0
0
LINE
8
0
6
CONTINUOUS
10
10.100000
20
-19.826000
30
0.0
11
10.500000
21
-19.826000
31
0.0
0
LINE
8
0
6
CONTINUOUS
10
0.000000
20
10.174000
30
0.0
11
3.000000
21
10.174000
31
0.0
0
LINE
8
0
6
CONTINUOUS
10
2.700000
20
-19.826000
30
0.0
11
0.000000
21
-19.826000
31
0.0
0
LINE
8
0
6
CONTINUOUS
10
3.000000
20
10.174000
30
0.0
11
5.700000
21
10.174000
31
0.0
0
LINE
8
0
6
CONTINUOUS
10
5.200000
20
-19.826000
30
0.0
11
2.700000
21
-19.826000
31
0.0
0
LINE
8
0
6
CONTINUOUS
10
5.700000
20
10.174000
30
0.0
11
8.100000
21
10.174000
31
0.0
0
LINE
8
0
6
CONTINUOUS
10
7.400000
20
-19.826000
30
0.0
11
5.200000
21
-19.826000
31
0.0
0
LINE
8
0
6
CONTINUOUS
10
8.100000
20
10.174000
30
0.0
11
10.000000
21
10.174000
31
0.0
0
LINE
8
0
6
CONTINUOUS
10
9.100000
20
-19.826000
30
0.0
11
7.400000
21
-19.826000
31
0.0
0
LINE
8
0
6
CONTINUOUS
10
10.000000
20
10.174000
30
0.0
11
11.100000
21
10.174000
31
0.0
0
LINE
8
0
6
CONTINUOUS
10
10.100000
20
-19.826000
30
0.0
11
9.100000
21
-19.826000
31
0.0
0
LINE
8
0
6
CONTINUOUS
10
11.100000
20
10.174000
30
0.0
11
11.500000
21
10.174000
31
0.0
0
LINE
8
0
6
CONTINUOUS
10
10.500000
20
-19.826000
30
0.0
11
10.100000
21
-19.826000
31
0.0
0
LINE
8
0
6
CONTINUOUS
10
11.500000
20
10.174000
30
0.0
11
10.500000
21
-19.826000
31
0.0
0
LINE
8
0
6
CONTINUOUS
10
0.028000
20
-75.564200
30
0.0
11
1.791000
21
-74.214800
31
0.0
0
LINE
8
0
6
CONTINUOUS
10
1.791000
20
-74.214800
30
0.0
11
3.629000
21
-73.015400
31
0.0
0
LINE
8
0
6
CONTINUOUS
10
3.629000
20
-73.015400
30
0.0
11
5.430000
21
-71.816000
31
0.0
0
LINE
8
0
6
CONTINUOUS
10
5.430000
20
-71.816000
30
0.0
11
6.518000
21
-70.766500
31
0.0
0
LINE
8
0
6
CONTINUOUS
10
6.518000
20
-70.766500
30
0.0
11
7.231000
21
-70.054300
31
0.0
0
LINE
8
0
6
CONTINUOUS
10
7.231000
20
-70.054300
30
0.0
11
7.500000
21
-69.826000
31
0.0
0
LINE
8
0
6
CONTINUOUS
10
7.500000
20
-69.826000
30
0.0
11
7.500000
21
-19.826000
31
0.0
0
LINE
8
0
6
CONTINUOUS
10
-1.923000
20
-77.550800
30
0.0
11
0.028000
21
-75.564200
31
0.0
0
LINE
8
0
6
CONTINUOUS
10
-3.723000
20
-78.675300
30
0.0
11
-1.923000
21
-77.550800
31
0.0
0
LINE
8
0
6
CONTINUOUS
10
-5.224000
20
-79.349900
30
0.0
11
-3.723000
21
-78.675300
31
0.0
0
LINE
8
0
6
CONTINUOUS
10
-6.462000
20
-79.724800
30
0.0
11
-5.224000
21
-79.349900
31
0.0
0
LINE
8
0
6
CONTINUOUS
10
-7.137000
20
-79.799700
30
0.0
11
-6.462000
21
-79.724800
31
0.0
0
LINE
8
0
6
CONTINUOUS
10
-7.500000
20
-79.826000
30
0.0
11
-7.137000
21
-79.799700
31
0.0
0
LINE
8
0
6
CONTINUOUS
10
-7.500000
20
-19.826000
30
0.0
11
-7.500000
21
-79.826000
31
0.0
0
LINE
8
0
6
CONTINUOUS
10
-2.700000
20
-19.826000
30
0.0
11
0.000000
21
-19.826000
31
0.0
0
LINE
8
0
6
CONTINUOUS
10
-5.200000
20
-19.826000
30
0.0
11
-2.700000
21
-19.826000
31
0.0
0
LINE
8
0
6
CONTINUOUS
10
-7.400000
20
-19.826000
30
0.0
11
-5.200000
21
-19.826000
31
0.0
0
LINE
8
0
6
CONTINUOUS
10
-9.100000
20
-19.826000
30
0.0
11
-7.400000
21
-19.826000
31
0.0
0
LINE
8
0
6
CONTINUOUS
10
-10.100000
20
-19.826000
30
0.0
11
-9.100000
21
-19.826000
31
0.0
0
LINE
8
0
6
CONTINUOUS
10
-10.500000
20
-19.826000
30
0.0
11
-10.100000
21
-19.826000
31
0.0
0
LINE
8
0
6
CONTINUOUS
10
-3.000000
20
10.174000
30
0.0
11
0.000000
21
10.174000
31
0.0
0
LINE
8
0
6
CONTINUOUS
10
0.000000
20
-19.826000
30
0.0
11
-2.700000
21
-19.826000
31
0.0
0
LINE
8
0
6
CONTINUOUS
10
-5.700000
20
10.174000
30
0.0
11
-3.000000
21
10.174000
31
0.0
0
LINE
8
0
6
CONTINUOUS
10
-2.700000
20
-19.826000
30
0.0
11
-5.200000
21
-19.826000
31
0.0
0
LINE
8
0
6
CONTINUOUS
10
-8.100000
20
10.174000
30
0.0
11
-5.700000
21
10.174000
31
0.0
0
LINE
8
0
6
CONTINUOUS
10
-5.200000
20
-19.826000
30
0.0
11
-7.400000
21
-19.826000
31
0.0
0
LINE
8
0
6
CONTINUOUS
10
-10.000000
20
10.174000
30
0.0
11
-8.100000
21
10.174000
31
0.0
0
LINE
8
0
6
CONTINUOUS
10
-7.400000
20
-19.826000
30
0.0
11
-9.100000
21
-19.826000
31
0.0
0
LINE
8
0
6
CONTINUOUS
10
-11.100000
20
10.174000
30
0.0
11
-10.000000
21
10.174000
31
0.0
0
LINE
8
0
6
CONTINUOUS
10
-9.100000
20
-19.826000
30
0.0
11
-10.100000
21
-19.826000
31
0.0
0
LINE
8
0
6
CONTINUOUS
10
-11.500000
20
10.174000
30
0.0
11
-11.100000
21
10.174000
31
0.0
0
LINE
8
0
6
CONTINUOUS
10
-10.500000
20
-19.826000
30
0.0
11
-11.500000
21
10.174000
31
0.0
0
LINE
8
0
6
CONTINUOUS
10
-10.100000
20
-19.826000
30
0.0
11
-10.500000
21
-19.826000
31
0.0
0
LINE
8
0
6
CONTINUOUS
10
7.000000
20
16.019483
30
0.0
11
7.000000
21
10.174000
31
0.0
0
LINE
8
0
6
CONTINUOUS
10
-7.000000
20
10.174000
30
0.0
11
-7.000000
21
16.019483
31
0.0
0
LINE
8
0
6
CONTINUOUS
10
26.547300
20
76.880000
30
0.0
11
27.287200
21
76.361000
31
0.0
0
LINE
8
0
6
CONTINUOUS
10
25.842100
20
77.281000
30
0.0
11
26.547300
21
76.880000
31
0.0
0
LINE
8
0
6
CONTINUOUS
10
24.832600
20
77.669000
30
0.0
11
25.842100
21
77.281000
31
0.0
0
LINE
8
0
6
CONTINUOUS
10
0.000000
20
79.702000
30
0.0
11
2.717500
21
79.645000
31
0.0
0
LINE
8
0
6
CONTINUOUS
10
27.092400
20
76.182000
30
0.0
11
27.747100
21
75.573000
31
0.0
0
LINE
8
0
6
CONTINUOUS
10
27.287200
20
76.361000
30
0.0
11
26.547300
21
76.880000
31
0.0
0
LINE
8
0
6
CONTINUOUS
10
26.323300
20
76.667000
30
0.0
11
27.092400
21
76.182000
31
0.0
0
LINE
8
0
6
CONTINUOUS
10
26.547300
20
76.880000
30
0.0
11
25.842100
21
77.281000
31
0.0
0
LINE
8
0
6
CONTINUOUS
10
25.637900
20
77.068000
30
0.0
11
26.323300
21
76.667000
31
0.0
0
LINE
8
0
6
CONTINUOUS
10
25.842100
20
77.281000
30
0.0
11
24.832600
21
77.669000
31
0.0
0
LINE
8
0
6
CONTINUOUS
10
24.651500
20
77.436000
30
0.0
11
25.637900
21
77.068000
31
0.0
0
LINE
8
0
6
CONTINUOUS
10
23.531400
20
77.704000
30
0.0
11
24.651500
21
77.436000
31
0.0
0
LINE
8
0
6
CONTINUOUS
10
22.128900
20
77.941000
30
0.0
11
23.531400
21
77.704000
31
0.0
0
LINE
8
0
6
CONTINUOUS
10
19.599200
20
78.284000
30
0.0
11
22.128900
21
77.941000
31
0.0
0
LINE
8
0
6
CONTINUOUS
10
16.442700
20
78.641000
30
0.0
11
19.599200
21
78.284000
31
0.0
0
LINE
8
0
6
CONTINUOUS
10
11.831400
20
78.975000
30
0.0
11
16.442700
21
78.641000
31
0.0
0
LINE
8
0
6
CONTINUOUS
10
6.694400
20
79.241000
30
0.0
11
11.831400
21
78.975000
31
0.0
0
LINE
8
0
6
CONTINUOUS
10
2.682800
20
79.379000
30
0.0
11
6.694400
21
79.241000
31
0.0
0
LINE
8
0
6
CONTINUOUS
10
2.717500
20
79.645000
30
0.0
11
0.000000
21
79.702000
31
0.0
0
LINE
8
0
6
CONTINUOUS
10
0.000000
20
79.413000
30
0.0
11
2.682800
21
79.379000
31
0.0
0
LINE
8
0
6
CONTINUOUS
10
27.397800
20
76.465000
30
0.0
11
28.056800
21
75.883000
31
0.0
0
LINE
8
0
6
CONTINUOUS
10
26.637200
20
76.970000
30
0.0
11
27.397800
21
76.465000
31
0.0
0
LINE
8
0
6
CONTINUOUS
10
25.925000
20
77.378000
30
0.0
11
26.637200
21
76.970000
31
0.0
0
LINE
8
0
6
CONTINUOUS
10
25.925100
20
77.378000
30
0.0
11
24.929400
21
77.780000
31
0.0
0
LINE
8
0
6
CONTINUOUS
10
24.929400
20
77.780000
30
0.0
11
23.774700
21
78.063000
31
0.0
0
LINE
8
0
6
CONTINUOUS
10
22.372300
20
78.322000
30
0.0
11
23.774700
21
78.063000
31
0.0
0
LINE
8
0
6
CONTINUOUS
10
19.779400
20
78.631000
30
0.0
11
22.372300
21
78.322000
31
0.0
0
LINE
8
0
6
CONTINUOUS
10
19.779400
20
78.631000
30
0.0
11
16.609900
21
79.009000
31
0.0
0
LINE
8
0
6
CONTINUOUS
10
16.609900
20
79.009000
30
0.0
11
19.779400
21
78.631000
31
0.0
0
LINE
8
0
6
CONTINUOUS
10
12.016100
20
79.356000
30
0.0
11
16.609900
21
79.009000
31
0.0
0
LINE
8
0
6
CONTINUOUS
10
12.016100
20
79.356000
30
0.0
11
6.775200
21
79.645000
31
0.0
0
LINE
8
0
6
CONTINUOUS
10
6.775200
20
79.645000
30
0.0
11
12.016100
21
79.356000
31
0.0
0
LINE
8
0
6
CONTINUOUS
10
2.729000
20
79.784000
30
0.0
11
6.775200
21
79.645000
31
0.0
0
LINE
8
0
6
CONTINUOUS
10
0.000000
20
79.826000
30
0.0
11
2.729000
21
79.784000
31
0.0
0
LINE
8
0
6
CONTINUOUS
10
24.929400
20
77.780000
30
0.0
11
25.925100
21
77.378000
31
0.0
0
LINE
8
0
6
CONTINUOUS
10
16.609900
20
79.009000
30
0.0
11
19.779400
21
78.631000
31
0.0
0
LINE
8
0
6
CONTINUOUS
10
6.775200
20
79.645000
30
0.0
11
12.016100
21
79.356000
31
0.0
0
LINE
8
0
6
CONTINUOUS
10
27.747100
20
75.573000
30
0.0
11
27.092400
21
76.182000
31
0.0
0
LINE
8
0
6
CONTINUOUS
10
27.092400
20
76.182000
30
0.0
11
26.323300
21
76.667000
31
0.0
0
LINE
8
0
6
CONTINUOUS
10
26.323300
20
76.667000
30
0.0
11
25.637900
21
77.068000
31
0.0
0
LINE
8
0
6
CONTINUOUS
10
25.637900
20
77.068000
30
0.0
11
24.651500
21
77.436000
31
0.0
0
LINE
8
0
6
CONTINUOUS
10
24.651500
20
77.436000
30
0.0
11
23.531400
21
77.704000
31
0.0
0
LINE
8
0
6
CONTINUOUS
10
23.531400
20
77.704000
30
0.0
11
22.128900
21
77.941000
31
0.0
0
LINE
8
0
6
CONTINUOUS
10
22.128900
20
77.941000
30
0.0
11
19.599200
21
78.284000
31
0.0
0
LINE
8
0
6
CONTINUOUS
10
19.599200
20
78.284000
30
0.0
11
16.442700
21
78.641000
31
0.0
0
LINE
8
0
6
CONTINUOUS
10
16.442700
20
78.641000
30
0.0
11
11.831400
21
78.975000
31
0.0
0
LINE
8
0
6
CONTINUOUS
10
11.831400
20
78.975000
30
0.0
11
6.694400
21
79.241000
31
0.0
0
LINE
8
0
6
CONTINUOUS
10
6.694400
20
79.241000
30
0.0
11
2.682800
21
79.379000
31
0.0
0
LINE
8
0
6
CONTINUOUS
10
2.682800
20
79.379000
30
0.0
11
0.000000
21
79.413000
31
0.0
0
LINE
8
0
6
CONTINUOUS
10
28.355800
20
74.918000
30
0.0
11
27.747100
21
75.573000
31
0.0
0
LINE
8
0
6
CONTINUOUS
10
28.840900
20
74.149000
30
0.0
11
28.355800
21
74.918000
31
0.0
0
LINE
8
0
6
CONTINUOUS
10
29.242400
20
73.464000
30
0.0
11
28.840900
21
74.149000
31
0.0
0
LINE
8
0
6
CONTINUOUS
10
29.610400
20
72.478000
30
0.0
11
29.242400
21
73.464000
31
0.0
0
LINE
8
0
6
CONTINUOUS
10
29.878000
20
71.357000
30
0.0
11
29.610400
21
72.478000
31
0.0
0
LINE
8
0
6
CONTINUOUS
10
30.115400
20
69.955000
30
0.0
11
29.878000
21
71.357000
31
0.0
0
LINE
8
0
6
CONTINUOUS
10
30.457900
20
67.425000
30
0.0
11
30.115400
21
69.955000
31
0.0
0
LINE
8
0
6
CONTINUOUS
10
30.814800
20
64.269000
30
0.0
11
30.457900
21
67.425000
31
0.0
0
LINE
8
0
6
CONTINUOUS
10
31.149000
20
59.657000
30
0.0
11
30.814800
21
64.269000
31
0.0
0
LINE
8
0
6
CONTINUOUS
10
31.414700
20
54.520000
30
0.0
11
31.149000
21
59.657000
31
0.0
0
LINE
8
0
6
CONTINUOUS
10
31.553300
20
50.509000
30
0.0
11
31.414700
21
54.520000
31
0.0
0
LINE
8
0
6
CONTINUOUS
10
31.587100
20
47.826000
30
0.0
11
31.553300
21
50.509000
31
0.0
0
LINE
8
0
6
CONTINUOUS
10
31.957500
20
50.555000
30
0.0
11
32.000000
21
47.826000
31
0.0
0
LINE
8
0
6
CONTINUOUS
10
27.747100
20
75.573000
30
0.0
11
28.355800
21
74.918000
31
0.0
0
LINE
8
0
6
CONTINUOUS
10
28.355800
20
74.918000
30
0.0
11
28.840900
21
74.149000
31
0.0
0
LINE
8
0
6
CONTINUOUS
10
29.054100
20
74.373000
30
0.0
11
28.535300
21
75.113000
31
0.0
0
LINE
8
0
6
CONTINUOUS
10
28.840900
20
74.149000
30
0.0
11
29.242400
21
73.464000
31
0.0
0
LINE
8
0
6
CONTINUOUS
10
29.455400
20
73.668000
30
0.0
11
29.054100
21
74.373000
31
0.0
0
LINE
8
0
6
CONTINUOUS
10
29.242400
20
73.464000
30
0.0
11
29.610400
21
72.478000
31
0.0
0
LINE
8
0
6
CONTINUOUS
10
29.842800
20
72.659000
30
0.0
11
29.455400
21
73.668000
31
0.0
0
LINE
8
0
6
CONTINUOUS
10
29.610400
20
72.478000
30
0.0
11
29.878000
21
71.357000
31
0.0
0
LINE
8
0
6
CONTINUOUS
10
29.878000
20
71.357000
30
0.0
11
30.115400
21
69.955000
31
0.0
0
LINE
8
0
6
CONTINUOUS
10
30.115400
20
69.955000
30
0.0
11
30.457900
21
67.425000
31
0.0
0
LINE
8
0
6
CONTINUOUS
10
30.457900
20
67.425000
30
0.0
11
30.814800
21
64.269000
31
0.0
0
LINE
8
0
6
CONTINUOUS
10
30.814800
20
64.269000
30
0.0
11
31.149000
21
59.657000
31
0.0
0
LINE
8
0
6
CONTINUOUS
10
31.149000
20
59.657000
30
0.0
11
31.414700
21
54.520000
31
0.0
0
LINE
8
0
6
CONTINUOUS
10
31.414700
20
54.520000
30
0.0
11
31.553300
21
50.509000
31
0.0
0
LINE
8
0
6
CONTINUOUS
10
31.553300
20
50.509000
30
0.0
11
31.587100
21
47.826000
31
0.0
0
LINE
8
0
6
CONTINUOUS
10
31.876100
20
47.826000
30
0.0
11
31.818900
21
50.543000
31
0.0
0
LINE
8
0
6
CONTINUOUS
10
28.535300
20
75.113000
30
0.0
11
29.054100
21
74.373000
31
0.0
0
LINE
8
0
6
CONTINUOUS
10
29.054100
20
74.373000
30
0.0
11
29.455400
21
73.668000
31
0.0
0
LINE
8
0
6
CONTINUOUS
10
29.455400
20
73.668000
30
0.0
11
29.842800
21
72.659000
31
0.0
0
LINE
8
0
6
CONTINUOUS
10
31.818900
20
50.543000
30
0.0
11
31.876100
21
47.826000
31
0.0
0
LINE
8
0
6
CONTINUOUS
10
28.056800
20
75.883000
30
0.0
11
28.639000
21
75.224000
31
0.0
0
LINE
8
0
6
CONTINUOUS
10
28.639000
20
75.224000
30
0.0
11
29.144000
21
74.463000
31
0.0
0
LINE
8
0
6
CONTINUOUS
10
29.144000
20
74.463000
30
0.0
11
29.552200
21
73.751000
31
0.0
0
LINE
8
0
6
CONTINUOUS
10
30.237100
20
71.601000
30
0.0
11
30.496000
21
70.198000
31
0.0
0
LINE
8
0
6
CONTINUOUS
10
30.496000
20
70.198000
30
0.0
11
30.804900
21
67.605000
31
0.0
0
LINE
8
0
6
CONTINUOUS
10
30.804900
20
67.605000
30
0.0
11
31.182800
21
64.436000
31
0.0
0
LINE
8
0
6
CONTINUOUS
10
31.182800
20
64.436000
30
0.0
11
31.530200
21
59.842000
31
0.0
0
LINE
8
0
6
CONTINUOUS
10
31.530200
20
59.842000
30
0.0
11
31.818900
21
54.601000
31
0.0
0
LINE
8
0
6
CONTINUOUS
10
31.818900
20
54.601000
30
0.0
11
31.957500
21
50.555000
31
0.0
0
LINE
8
0
6
CONTINUOUS
10
31.957500
20
50.555000
30
0.0
11
32.000000
21
47.826000
31
0.0
0
LINE
8
0
6
CONTINUOUS
10
32.000000
20
47.826000
30
0.0
11
31.957500
21
50.555000
31
0.0
0
LINE
8
0
6
CONTINUOUS
10
-29.552210
20
73.751000
30
0.0
11
-29.953460
21
72.755000
31
0.0
0
LINE
8
0
6
CONTINUOUS
10
-30.804850
20
67.605000
30
0.0
11
-31.182805
21
64.436000
31
0.0
0
LINE
8
0
6
CONTINUOUS
10
-31.530159
20
59.842000
30
0.0
11
-31.818919
21
54.601000
31
0.0
0
LINE
8
0
6
CONTINUOUS
10
-28.056770
20
75.883000
30
0.0
11
-28.639010
21
75.224000
31
0.0
0
LINE
8
0
6
CONTINUOUS
10
-28.639010
20
75.224000
30
0.0
11
-29.144030
21
74.463000
31
0.0
0
LINE
8
0
6
CONTINUOUS
10
-29.054110
20
74.373000
30
0.0
11
-28.535260
21
75.113000
31
0.0
0
LINE
8
0
6
CONTINUOUS
10
-29.144030
20
74.463000
30
0.0
11
-29.552230
21
73.751000
31
0.0
0
LINE
8
0
6
CONTINUOUS
10
-29.455360
20
73.668000
30
0.0
11
-29.054110
21
74.373000
31
0.0
0
LINE
8
0
6
CONTINUOUS
10
-29.552230
20
73.751000
30
0.0
11
-29.953440
21
72.755000
31
0.0
0
LINE
8
0
6
CONTINUOUS
10
-29.842770
20
72.659000
30
0.0
11
-29.455360
21
73.668000
31
0.0
0
LINE
8
0
6
CONTINUOUS
10
-29.953440
20
72.755000
30
0.0
11
-30.237110
21
71.601000
31
0.0
0
LINE
8
0
6
CONTINUOUS
10
-30.237110
20
71.601000
30
0.0
11
-30.495960
21
70.198000
31
0.0
0
LINE
8
0
6
CONTINUOUS
10
-30.495960
20
70.198000
30
0.0
11
-30.804850
21
67.605000
31
0.0
0
LINE
8
0
6
CONTINUOUS
10
-30.804850
20
67.605000
30
0.0
11
-31.182823
21
64.436000
31
0.0
0
LINE
8
0
6
CONTINUOUS
10
-31.182823
20
64.436000
30
0.0
11
-31.530159
21
59.842000
31
0.0
0
LINE
8
0
6
CONTINUOUS
10
-31.530159
20
59.842000
30
0.0
11
-31.818919
21
54.601000
31
0.0
0
LINE
8
0
6
CONTINUOUS
10
-31.818919
20
54.601000
30
0.0
11
-31.957524
21
50.555000
31
0.0
0
LINE
8
0
6
CONTINUOUS
10
-31.957524
20
50.555000
30
0.0
11
-32.000000
21
47.826000
31
0.0
0
LINE
8
0
6
CONTINUOUS
10
-31.876129
20
47.826000
30
0.0
11
-31.818919
21
50.543000
31
0.0
0
LINE
8
0
6
CONTINUOUS
10
-28.355810
20
74.918000
30
0.0
11
-27.747100
21
75.573000
31
0.0
0
LINE
8
0
6
CONTINUOUS
10
-28.535260
20
75.113000
30
0.0
11
-29.054110
21
74.373000
31
0.0
0
LINE
8
0
6
CONTINUOUS
10
-28.840910
20
74.149000
30
0.0
11
-28.355810
21
74.918000
31
0.0
0
LINE
8
0
6
CONTINUOUS
10
-29.054110
20
74.373000
30
0.0
11
-29.455360
21
73.668000
31
0.0
0
LINE
8
0
6
CONTINUOUS
10
-29.242380
20
73.464000
30
0.0
11
-28.840910
21
74.149000
31
0.0
0
LINE
8
0
6
CONTINUOUS
10
-29.455360
20
73.668000
30
0.0
11
-29.842770
21
72.659000
31
0.0
0
LINE
8
0
6
CONTINUOUS
10
-29.610390
20
72.478000
30
0.0
11
-29.242380
21
73.464000
31
0.0
0
LINE
8
0
6
CONTINUOUS
10
-29.878040
20
71.357000
30
0.0
11
-29.610390
21
72.478000
31
0.0
0
LINE
8
0
6
CONTINUOUS
10
-30.115360
20
69.955000
30
0.0
11
-29.878040
21
71.357000
31
0.0
0
LINE
8
0
6
CONTINUOUS
10
-30.457910
20
67.425000
30
0.0
11
-30.115360
21
69.955000
31
0.0
0
LINE
8
0
6
CONTINUOUS
10
-30.814790
20
64.269000
30
0.0
11
-30.457910
21
67.425000
31
0.0
0
LINE
8
0
6
CONTINUOUS
10
-31.148997
20
59.657000
30
0.0
11
-30.814790
21
64.269000
31
0.0
0
LINE
8
0
6
CONTINUOUS
10
-31.414655
20
54.520000
30
0.0
11
-31.148997
21
59.657000
31
0.0
0
LINE
8
0
6
CONTINUOUS
10
-31.553260
20
50.509000
30
0.0
11
-31.414655
21
54.520000
31
0.0
0
LINE
8
0
6
CONTINUOUS
10
-31.818919
20
50.543000
30
0.0
11
-31.876129
21
47.826000
31
0.0
0
LINE
8
0
6
CONTINUOUS
10
-31.587097
20
47.826000
30
0.0
11
-31.553260
21
50.509000
31
0.0
0
LINE
8
0
6
CONTINUOUS
10
-29.953460
20
72.755000
30
0.0
11
-29.552210
21
73.751000
31
0.0
0
LINE
8
0
6
CONTINUOUS
10
-31.182805
20
64.436000
30
0.0
11
-30.804850
21
67.605000
31
0.0
0
LINE
8
0
6
CONTINUOUS
10
-31.818919
20
54.601000
30
0.0
11
-31.530159
21
59.842000
31
0.0
0
LINE
8
0
6
CONTINUOUS
10
-27.747100
20
75.573000
30
0.0
11
-28.355810
21
74.918000
31
0.0
0
LINE
8
0
6
CONTINUOUS
10
-28.355810
20
74.918000
30
0.0
11
-28.840910
21
74.149000
31
0.0
0
LINE
8
0
6
CONTINUOUS
10
-28.840910
20
74.149000
30
0.0
11
-29.242380
21
73.464000
31
0.0
0
LINE
8
0
6
CONTINUOUS
10
-29.242380
20
73.464000
30
0.0
11
-29.610390
21
72.478000
31
0.0
0
LINE
8
0
6
CONTINUOUS
10
-29.610390
20
72.478000
30
0.0
11
-29.878040
21
71.357000
31
0.0
0
LINE
8
0
6
CONTINUOUS
10
-29.878040
20
71.357000
30
0.0
11
-30.115360
21
69.955000
31
0.0
0
LINE
8
0
6
CONTINUOUS
10
-30.115360
20
69.955000
30
0.0
11
-30.457910
21
67.425000
31
0.0
0
LINE
8
0
6
CONTINUOUS
10
-30.457910
20
67.425000
30
0.0
11
-30.814790
21
64.269000
31
0.0
0
LINE
8
0
6
CONTINUOUS
10
-30.814790
20
64.269000
30
0.0
11
-31.148997
21
59.657000
31
0.0
0
LINE
8
0
6
CONTINUOUS
10
-31.148997
20
59.657000
30
0.0
11
-31.414655
21
54.520000
31
0.0
0
LINE
8
0
6
CONTINUOUS
10
-31.414655
20
54.520000
30
0.0
11
-31.553260
21
50.509000
31
0.0
0
LINE
8
0
6
CONTINUOUS
10
-31.553260
20
50.509000
30
0.0
11
-31.587097
21
47.826000
31
0.0
0
LINE
8
0
6
CONTINUOUS
10
-27.092400
20
76.182000
30
0.0
11
-27.747100
21
75.573000
31
0.0
0
LINE
8
0
6
CONTINUOUS
10
-26.323350
20
76.667000
30
0.0
11
-27.092400
21
76.182000
31
0.0
0
LINE
8
0
6
CONTINUOUS
10
-25.637890
20
77.068000
30
0.0
11
-26.323350
21
76.667000
31
0.0
0
LINE
8
0
6
CONTINUOUS
10
-24.651500
20
77.436000
30
0.0
11
-25.637890
21
77.068000
31
0.0
0
LINE
8
0
6
CONTINUOUS
10
-23.531360
20
77.704000
30
0.0
11
-24.651500
21
77.436000
31
0.0
0
LINE
8
0
6
CONTINUOUS
10
-22.128860
20
77.941000
30
0.0
11
-23.531360
21
77.704000
31
0.0
0
LINE
8
0
6
CONTINUOUS
10
-19.599200
20
78.284000
30
0.0
11
-22.128860
21
77.941000
31
0.0
0
LINE
8
0
6
CONTINUOUS
10
-16.442700
20
78.641000
30
0.0
11
-19.599200
21
78.284000
31
0.0
0
LINE
8
0
6
CONTINUOUS
10
-11.831400
20
78.975000
30
0.0
11
-16.442700
21
78.641000
31
0.0
0
LINE
8
0
6
CONTINUOUS
10
-6.694400
20
79.241000
30
0.0
11
-11.831400
21
78.975000
31
0.0
0
LINE
8
0
6
CONTINUOUS
10
-2.682800
20
79.379000
30
0.0
11
-6.694400
21
79.241000
31
0.0
0
LINE
8
0
6
CONTINUOUS
10
0.000000
20
79.413000
30
0.0
11
-2.682800
21
79.379000
31
0.0
0
LINE
8
0
6
CONTINUOUS
10
-2.729000
20
79.784000
30
0.0
11
0.000000
21
79.826000
31
0.0
0
LINE
8
0
6
CONTINUOUS
10
-27.747100
20
75.573000
30
0.0
11
-27.092400
21
76.182000
31
0.0
0
LINE
8
0
6
CONTINUOUS
10
-27.092400
20
76.182000
30
0.0
11
-26.323350
21
76.667000
31
0.0
0
LINE
8
0
6
CONTINUOUS
10
-26.547330
20
76.880000
30
0.0
11
-27.287150
21
76.361000
31
0.0
0
LINE
8
0
6
CONTINUOUS
10
-26.323350
20
76.667000
30
0.0
11
-25.637890
21
77.068000
31
0.0
0
LINE
8
0
6
CONTINUOUS
10
-25.842080
20
77.281000
30
0.0
11
-26.547330
21
76.880000
31
0.0
0
LINE
8
0
6
CONTINUOUS
10
-25.637890
20
77.068000
30
0.0
11
-24.651500
21
77.436000
31
0.0
0
LINE
8
0
6
CONTINUOUS
10
-24.832610
20
77.669000
30
0.0
11
-25.842080
21
77.281000
31
0.0
0
LINE
8
0
6
CONTINUOUS
10
-24.651500
20
77.436000
30
0.0
11
-23.531360
21
77.704000
31
0.0
0
LINE
8
0
6
CONTINUOUS
10
-23.531360
20
77.704000
30
0.0
11
-22.128860
21
77.941000
31
0.0
0
LINE
8
0
6
CONTINUOUS
10
-22.128860
20
77.941000
30
0.0
11
-19.599200
21
78.284000
31
0.0
0
LINE
8
0
6
CONTINUOUS
10
-19.599200
20
78.284000
30
0.0
11
-16.442700
21
78.641000
31
0.0
0
LINE
8
0
6
CONTINUOUS
10
-16.442700
20
78.641000
30
0.0
11
-11.831400
21
78.975000
31
0.0
0
LINE
8
0
6
CONTINUOUS
10
-11.831400
20
78.975000
30
0.0
11
-6.694400
21
79.241000
31
0.0
0
LINE
8
0
6
CONTINUOUS
10
-6.694400
20
79.241000
30
0.0
11
-2.682800
21
79.379000
31
0.0
0
LINE
8
0
6
CONTINUOUS
10
-2.682800
20
79.379000
30
0.0
11
0.000000
21
79.413000
31
0.0
0
LINE
8
0
6
CONTINUOUS
10
0.000000
20
79.702000
30
0.0
11
-2.717500
21
79.645000
31
0.0
0
LINE
8
0
6
CONTINUOUS
10
-27.287150
20
76.361000
30
0.0
11
-26.547330
21
76.880000
31
0.0
0
LINE
8
0
6
CONTINUOUS
10
-26.547330
20
76.880000
30
0.0
11
-25.842080
21
77.281000
31
0.0
0
LINE
8
0
6
CONTINUOUS
10
-25.842080
20
77.281000
30
0.0
11
-24.832610
21
77.669000
31
0.0
0
LINE
8
0
6
CONTINUOUS
10
-2.717500
20
79.645000
30
0.0
11
0.000000
21
79.702000
31
0.0
0
LINE
8
0
6
CONTINUOUS
10
-28.056770
20
75.883000
30
0.0
11
-27.397780
21
76.465000
31
0.0
0
LINE
8
0
6
CONTINUOUS
10
-27.397780
20
76.465000
30
0.0
11
-26.637210
21
76.970000
31
0.0
0
LINE
8
0
6
CONTINUOUS
10
-26.637210
20
76.970000
30
0.0
11
-25.925040
21
77.378000
31
0.0
0
LINE
8
0
6
CONTINUOUS
10
-23.774720
20
78.063000
30
0.0
11
-22.372340
21
78.322000
31
0.0
0
LINE
8
0
6
CONTINUOUS
10
-22.372340
20
78.322000
30
0.0
11
-19.779400
21
78.631000
31
0.0
0
LINE
8
0
6
CONTINUOUS
10
-19.779400
20
78.631000
30
0.0
11
-16.609900
21
79.009000
31
0.0
0
LINE
8
0
6
CONTINUOUS
10
-16.609900
20
79.009000
30
0.0
11
-12.016100
21
79.356000
31
0.0
0
LINE
8
0
6
CONTINUOUS
10
-12.016100
20
79.356000
30
0.0
11
-6.775200
21
79.645000
31
0.0
0
LINE
8
0
6
CONTINUOUS
10
-6.775200
20
79.645000
30
0.0
11
-2.729000
21
79.784000
31
0.0
0
LINE
8
0
6
CONTINUOUS
10
-2.729000
20
79.784000
30
0.0
11
0.000000
21
79.826000
31
0.0
0
LINE
8
0
6
CONTINUOUS
10
0.000000
20
79.826000
30
0.0
11
-2.729000
21
79.784000
31
0.0
0
LINE
8
0
6
CONTINUOUS
10
29.552200
20
21.901000
30
0.0
11
29.953500
21
22.897000
31
0.0
0
LINE
8
0
6
CONTINUOUS
10
30.804900
20
28.047000
30
0.0
11
31.182800
21
31.216000
31
0.0
0
LINE
8
0
6
CONTINUOUS
10
31.530200
20
35.810000
30
0.0
11
31.818900
21
41.051000
31
0.0
0
LINE
8
0
6
CONTINUOUS
10
28.056800
20
19.769200
30
0.0
11
28.639000
21
20.428200
31
0.0
0
LINE
8
0
6
CONTINUOUS
10
28.639000
20
20.428200
30
0.0
11
29.144000
21
21.189000
31
0.0
0
LINE
8
0
6
CONTINUOUS
10
29.054100
20
21.279000
30
0.0
11
28.535300
21
20.538900
31
0.0
0
LINE
8
0
6
CONTINUOUS
10
29.144000
20
21.189000
30
0.0
11
29.552200
21
21.901000
31
0.0
0
LINE
8
0
6
CONTINUOUS
10
29.455400
20
21.984000
30
0.0
11
29.054100
21
21.279000
31
0.0
0
LINE
8
0
6
CONTINUOUS
10
29.842800
20
22.993000
30
0.0
11
29.455400
21
21.984000
31
0.0
0
LINE
8
0
6
CONTINUOUS
10
30.237100
20
24.051000
30
0.0
11
30.496000
21
25.454000
31
0.0
0
LINE
8
0
6
CONTINUOUS
10
30.496000
20
25.454000
30
0.0
11
30.804900
21
28.047000
31
0.0
0
LINE
8
0
6
CONTINUOUS
10
30.804900
20
28.047000
30
0.0
11
31.182800
21
31.216000
31
0.0
0
LINE
8
0
6
CONTINUOUS
10
31.182800
20
31.216000
30
0.0
11
31.530200
21
35.810000
31
0.0
0
LINE
8
0
6
CONTINUOUS
10
31.530200
20
35.810000
30
0.0
11
31.818900
21
41.051000
31
0.0
0
LINE
8
0
6
CONTINUOUS
10
31.818900
20
41.051000
30
0.0
11
31.957500
21
45.097000
31
0.0
0
LINE
8
0
6
CONTINUOUS
10
31.957500
20
45.097000
30
0.0
11
32.000000
21
47.826000
31
0.0
0
LINE
8
0
6
CONTINUOUS
10
31.876100
20
47.826000
30
0.0
11
31.818900
21
45.109000
31
0.0
0
LINE
8
0
6
CONTINUOUS
10
28.355800
20
20.733600
30
0.0
11
27.747100
21
20.078900
31
0.0
0
LINE
8
0
6
CONTINUOUS
10
28.535300
20
20.538900
30
0.0
11
29.054100
21
21.279000
31
0.0
0
LINE
8
0
6
CONTINUOUS
10
28.840900
20
21.503000
30
0.0
11
28.355800
21
20.733600
31
0.0
0
LINE
8
0
6
CONTINUOUS
10
29.054100
20
21.279000
30
0.0
11
29.455400
21
21.984000
31
0.0
0
LINE
8
0
6
CONTINUOUS
10
29.242400
20
22.188000
30
0.0
11
28.840900
21
21.503000
31
0.0
0
LINE
8
0
6
CONTINUOUS
10
29.455400
20
21.984000
30
0.0
11
29.842800
21
22.993000
31
0.0
0
LINE
8
0
6
CONTINUOUS
10
29.610400
20
23.175000
30
0.0
11
29.242400
21
22.188000
31
0.0
0
LINE
8
0
6
CONTINUOUS
10
29.878000
20
24.295000
30
0.0
11
29.610400
21
23.175000
31
0.0
0
LINE
8
0
6
CONTINUOUS
10
30.115400
20
25.697000
30
0.0
11
29.878000
21
24.295000
31
0.0
0
LINE
8
0
6
CONTINUOUS
10
30.457900
20
28.227000
30
0.0
11
30.115400
21
25.697000
31
0.0
0
LINE
8
0
6
CONTINUOUS
10
30.814800
20
31.383000
30
0.0
11
30.457900
21
28.227000
31
0.0
0
LINE
8
0
6
CONTINUOUS
10
31.149000
20
35.995000
30
0.0
11
30.814800
21
31.383000
31
0.0
0
LINE
8
0
6
CONTINUOUS
10
31.414700
20
41.132000
30
0.0
11
31.149000
21
35.995000
31
0.0
0
LINE
8
0
6
CONTINUOUS
10
31.553300
20
45.143000
30
0.0
11
31.414700
21
41.132000
31
0.0
0
LINE
8
0
6
CONTINUOUS
10
31.818900
20
45.109000
30
0.0
11
31.876100
21
47.826000
31
0.0
0
LINE
8
0
6
CONTINUOUS
10
31.587100
20
47.826000
30
0.0
11
31.553300
21
45.143000
31
0.0
0
LINE
8
0
6
CONTINUOUS
10
29.953500
20
22.897000
30
0.0
11
29.552200
21
21.901000
31
0.0
0
LINE
8
0
6
CONTINUOUS
10
31.182800
20
31.216000
30
0.0
11
30.804900
21
28.047000
31
0.0
0
LINE
8
0
6
CONTINUOUS
10
31.818900
20
41.051000
30
0.0
11
31.530200
21
35.810000
31
0.0
0
LINE
8
0
6
CONTINUOUS
10
27.747100
20
20.078900
30
0.0
11
28.355800
21
20.733600
31
0.0
0
LINE
8
0
6
CONTINUOUS
10
28.355800
20
20.733600
30
0.0
11
28.840900
21
21.503000
31
0.0
0
LINE
8
0
6
CONTINUOUS
10
28.840900
20
21.503000
30
0.0
11
29.242400
21
22.188000
31
0.0
0
LINE
8
0
6
CONTINUOUS
10
29.242400
20
22.188000
30
0.0
11
29.610400
21
23.175000
31
0.0
0
LINE
8
0
6
CONTINUOUS
10
29.610400
20
23.175000
30
0.0
11
29.878000
21
24.295000
31
0.0
0
LINE
8
0
6
CONTINUOUS
10
29.878000
20
24.295000
30
0.0
11
30.115400
21
25.697000
31
0.0
0
LINE
8
0
6
CONTINUOUS
10
30.115400
20
25.697000
30
0.0
11
30.457900
21
28.227000
31
0.0
0
LINE
8
0
6
CONTINUOUS
10
30.457900
20
28.227000
30
0.0
11
30.814800
21
31.383000
31
0.0
0
LINE
8
0
6
CONTINUOUS
10
30.814800
20
31.383000
30
0.0
11
31.149000
21
35.995000
31
0.0
0
LINE
8
0
6
CONTINUOUS
10
31.149000
20
35.995000
30
0.0
11
31.414700
21
41.132000
31
0.0
0
LINE
8
0
6
CONTINUOUS
10
31.414700
20
41.132000
30
0.0
11
31.553300
21
45.143000
31
0.0
0
LINE
8
0
6
CONTINUOUS
10
31.553300
20
45.143000
30
0.0
11
31.587100
21
47.826000
31
0.0
0
LINE
8
0
6
CONTINUOUS
10
27.092400
20
19.470200
30
0.0
11
27.747100
21
20.078900
31
0.0
0
LINE
8
0
6
CONTINUOUS
10
26.323300
20
18.985100
30
0.0
11
27.092400
21
19.470200
31
0.0
0
LINE
8
0
6
CONTINUOUS
10
25.637900
20
18.583600
30
0.0
11
26.323300
21
18.985100
31
0.0
0
LINE
8
0
6
CONTINUOUS
10
24.651500
20
18.215600
30
0.0
11
25.637900
21
18.583600
31
0.0
0
LINE
8
0
6
CONTINUOUS
10
23.531400
20
17.948000
30
0.0
11
24.651500
21
18.215600
31
0.0
0
LINE
8
0
6
CONTINUOUS
10
22.128900
20
17.710600
30
0.0
11
23.531400
21
17.948000
31
0.0
0
LINE
8
0
6
CONTINUOUS
10
19.599200
20
17.368100
30
0.0
11
22.128900
21
17.710600
31
0.0
0
LINE
8
0
6
CONTINUOUS
10
16.442700
20
17.011200
30
0.0
11
19.599200
21
17.368100
31
0.0
0
LINE
8
0
6
CONTINUOUS
10
11.831400
20
16.677000
30
0.0
11
16.442700
21
17.011200
31
0.0
0
LINE
8
0
6
CONTINUOUS
10
6.694400
20
16.411300
30
0.0
11
11.831400
21
16.677000
31
0.0
0
LINE
8
0
6
CONTINUOUS
10
2.682800
20
16.272700
30
0.0
11
6.694400
21
16.411300
31
0.0
0
LINE
8
0
6
CONTINUOUS
10
0.000000
20
16.238900
30
0.0
11
2.682800
21
16.272700
31
0.0
0
LINE
8
0
6
CONTINUOUS
10
27.747100
20
20.078900
30
0.0
11
27.092400
21
19.470200
31
0.0
0
LINE
8
0
6
CONTINUOUS
10
27.092400
20
19.470200
30
0.0
11
26.323300
21
18.985100
31
0.0
0
LINE
8
0
6
CONTINUOUS
10
26.547300
20
18.771900
30
0.0
11
27.287200
21
19.290700
31
0.0
0
LINE
8
0
6
CONTINUOUS
10
26.323300
20
18.985100
30
0.0
11
25.637900
21
18.583600
31
0.0
0
LINE
8
0
6
CONTINUOUS
10
25.842100
20
18.370600
30
0.0
11
26.547300
21
18.771900
31
0.0
0
LINE
8
0
6
CONTINUOUS
10
25.637900
20
18.583600
30
0.0
11
24.651500
21
18.215600
31
0.0
0
LINE
8
0
6
CONTINUOUS
10
24.832600
20
17.983200
30
0.0
11
25.842100
21
18.370600
31
0.0
0
LINE
8
0
6
CONTINUOUS
10
24.651500
20
18.215600
30
0.0
11
23.531400
21
17.948000
31
0.0
0
LINE
8
0
6
CONTINUOUS
10
23.531400
20
17.948000
30
0.0
11
22.128900
21
17.710600
31
0.0
0
LINE
8
0
6
CONTINUOUS
10
22.128900
20
17.710600
30
0.0
11
19.599200
21
17.368100
31
0.0
0
LINE
8
0
6
CONTINUOUS
10
19.599200
20
17.368100
30
0.0
11
16.442700
21
17.011200
31
0.0
0
LINE
8
0
6
CONTINUOUS
10
16.442700
20
17.011200
30
0.0
11
11.831400
21
16.677000
31
0.0
0
LINE
8
0
6
CONTINUOUS
10
11.831400
20
16.677000
30
0.0
11
6.694400
21
16.411300
31
0.0
0
LINE
8
0
6
CONTINUOUS
10
6.694400
20
16.411300
30
0.0
11
2.682800
21
16.272700
31
0.0
0
LINE
8
0
6
CONTINUOUS
10
2.682800
20
16.272700
30
0.0
11
0.000000
21
16.238900
31
0.0
0
LINE
8
0
6
CONTINUOUS
10
0.000000
20
15.949900
30
0.0
11
2.717500
21
16.007100
31
0.0
0
LINE
8
0
6
CONTINUOUS
10
27.287200
20
19.290700
30
0.0
11
26.547300
21
18.771900
31
0.0
0
LINE
8
0
6
CONTINUOUS
10
26.547300
20
18.771900
30
0.0
11
25.842100
21
18.370600
31
0.0
0
LINE
8
0
6
CONTINUOUS
10
25.842100
20
18.370600
30
0.0
11
24.832600
21
17.983200
31
0.0
0
LINE
8
0
6
CONTINUOUS
10
2.717500
20
16.007100
30
0.0
11
0.000000
21
15.949900
31
0.0
0
LINE
8
0
6
CONTINUOUS
10
28.056800
20
19.769200
30
0.0
11
27.397800
21
19.187000
31
0.0
0
LINE
8
0
6
CONTINUOUS
10
23.774700
20
17.588900
30
0.0
11
22.372300
21
17.330000
31
0.0
0
LINE
8
0
6
CONTINUOUS
10
22.372300
20
17.330000
30
0.0
11
19.779400
21
17.021200
31
0.0
0
LINE
8
0
6
CONTINUOUS
10
19.779400
20
17.021200
30
0.0
11
16.609900
21
16.643200
31
0.0
0
LINE
8
0
6
CONTINUOUS
10
16.609900
20
16.643200
30
0.0
11
12.016100
21
16.295800
31
0.0
0
LINE
8
0
6
CONTINUOUS
10
12.016100
20
16.295800
30
0.0
11
6.775200
21
16.007100
31
0.0
0
LINE
8
0
6
CONTINUOUS
10
6.775200
20
16.007100
30
0.0
11
2.729000
21
15.868500
31
0.0
0
LINE
8
0
6
CONTINUOUS
10
2.729000
20
15.868500
30
0.0
11
0.000000
21
15.826000
31
0.0
0
LINE
8
0
6
CONTINUOUS
10
-25.925050
20
18.273800
30
0.0
11
-24.929410
21
17.872500
31
0.0
0
LINE
8
0
6
CONTINUOUS
10
-19.779400
20
17.021200
30
0.0
11
-16.609900
21
16.643200
31
0.0
0
LINE
8
0
6
CONTINUOUS
10
-28.056770
20
19.769200
30
0.0
11
-27.397780
21
19.187000
31
0.0
0
LINE
8
0
6
CONTINUOUS
10
-26.547330
20
18.771900
30
0.0
11
-27.287150
21
19.290700
31
0.0
0
LINE
8
0
6
CONTINUOUS
10
-25.842080
20
18.370600
30
0.0
11
-26.547330
21
18.771900
31
0.0
0
LINE
8
0
6
CONTINUOUS
10
-24.832610
20
17.983200
30
0.0
11
-25.842080
21
18.370600
31
0.0
0
LINE
8
0
6
CONTINUOUS
10
-23.774720
20
17.588900
30
0.0
11
-22.372340
21
17.330000
31
0.0
0
LINE
8
0
6
CONTINUOUS
10
-22.372340
20
17.330000
30
0.0
11
-19.779400
21
17.021200
31
0.0
0
LINE
8
0
6
CONTINUOUS
10
-19.779400
20
17.021200
30
0.0
11
-16.609900
21
16.643200
31
0.0
0
LINE
8
0
6
CONTINUOUS
10
-16.609900
20
16.643200
30
0.0
11
-12.016100
21
16.295800
31
0.0
0
LINE
8
0
6
CONTINUOUS
10
-12.016100
20
16.295800
30
0.0
11
-6.775200
21
16.007100
31
0.0
0
LINE
8
0
6
CONTINUOUS
10
-6.775200
20
16.007100
30
0.0
11
-2.729000
21
15.868500
31
0.0
0
LINE
8
0
6
CONTINUOUS
10
-2.729000
20
15.868500
30
0.0
11
0.000000
21
15.826000
31
0.0
0
LINE
8
0
6
CONTINUOUS
10
0.000000
20
15.949900
30
0.0
11
-2.717500
21
16.007100
31
0.0
0
LINE
8
0
6
CONTINUOUS
10
-27.092400
20
19.470200
30
0.0
11
-27.747100
21
20.078900
31
0.0
0
LINE
8
0
6
CONTINUOUS
10
-27.287150
20
19.290700
30
0.0
11
-26.547330
21
18.771900
31
0.0
0
LINE
8
0
6
CONTINUOUS
10
-26.323350
20
18.985100
30
0.0
11
-27.092400
21
19.470200
31
0.0
0
LINE
8
0
6
CONTINUOUS
10
-26.547330
20
18.771900
30
0.0
11
-25.842080
21
18.370600
31
0.0
0
LINE
8
0
6
CONTINUOUS
10
-25.637890
20
18.583600
30
0.0
11
-26.323350
21
18.985100
31
0.0
0
LINE
8
0
6
CONTINUOUS
10
-25.842080
20
18.370600
30
0.0
11
-24.832610
21
17.983200
31
0.0
0
LINE
8
0
6
CONTINUOUS
10
-24.651500
20
18.215600
30
0.0
11
-25.637890
21
18.583600
31
0.0
0
LINE
8
0
6
CONTINUOUS
10
-23.531360
20
17.948000
30
0.0
11
-24.651500
21
18.215600
31
0.0
0
LINE
8
0
6
CONTINUOUS
10
-22.128860
20
17.710600
30
0.0
11
-23.531360
21
17.948000
31
0.0
0
LINE
8
0
6
CONTINUOUS
10
-19.599200
20
17.368100
30
0.0
11
-22.128860
21
17.710600
31
0.0
0
LINE
8
0
6
CONTINUOUS
10
-16.442700
20
17.011200
30
0.0
11
-19.599200
21
17.368100
31
0.0
0
LINE
8
0
6
CONTINUOUS
10
-11.831400
20
16.677000
30
0.0
11
-16.442700
21
17.011200
31
0.0
0
LINE
8
0
6
CONTINUOUS
10
-6.694400
20
16.411300
30
0.0
11
-11.831400
21
16.677000
31
0.0
0
LINE
8
0
6
CONTINUOUS
10
-2.682800
20
16.272700
30
0.0
11
-6.694400
21
16.411300
31
0.0
0
LINE
8
0
6
CONTINUOUS
10
-2.717500
20
16.007100
30
0.0
11
0.000000
21
15.949900
31
0.0
0
LINE
8
0
6
CONTINUOUS
10
0.000000
20
16.238900
30
0.0
11
-2.682800
21
16.272700
31
0.0
0
LINE
8
0
6
CONTINUOUS
10
-24.929410
20
17.872500
30
0.0
11
-25.925050
21
18.273800
31
0.0
0
LINE
8
0
6
CONTINUOUS
10
-16.609900
20
16.643200
30
0.0
11
-19.779400
21
17.021200
31
0.0
0
LINE
8
0
6
CONTINUOUS
10
-27.747100
20
20.078900
30
0.0
11
-27.092400
21
19.470200
31
0.0
0
LINE
8
0
6
CONTINUOUS
10
-27.092400
20
19.470200
30
0.0
11
-26.323350
21
18.985100
31
0.0
0
LINE
8
0
6
CONTINUOUS
10
-26.323350
20
18.985100
30
0.0
11
-25.637890
21
18.583600
31
0.0
0
LINE
8
0
6
CONTINUOUS
10
-25.637890
20
18.583600
30
0.0
11
-24.651500
21
18.215600
31
0.0
0
LINE
8
0
6
CONTINUOUS
10
-24.651500
20
18.215600
30
0.0
11
-23.531360
21
17.948000
31
0.0
0
LINE
8
0
6
CONTINUOUS
10
-23.531360
20
17.948000
30
0.0
11
-22.128860
21
17.710600
31
0.0
0
LINE
8
0
6
CONTINUOUS
10
-22.128860
20
17.710600
30
0.0
11
-19.599200
21
17.368100
31
0.0
0
LINE
8
0
6
CONTINUOUS
10
-19.599200
20
17.368100
30
0.0
11
-16.442700
21
17.011200
31
0.0
0
LINE
8
0
6
CONTINUOUS
10
-16.442700
20
17.011200
30
0.0
11
-11.831400
21
16.677000
31
0.0
0
LINE
8
0
6
CONTINUOUS
10
-11.831400
20
16.677000
30
0.0
11
-6.694400
21
16.411300
31
0.0
0
LINE
8
0
6
CONTINUOUS
10
-6.694400
20
16.411300
30
0.0
11
-2.682800
21
16.272700
31
0.0
0
LINE
8
0
6
CONTINUOUS
10
-2.682800
20
16.272700
30
0.0
11
0.000000
21
16.238900
31
0.0
0
LINE
8
0
6
CONTINUOUS
10
-28.355810
20
20.733600
30
0.0
11
-27.747100
21
20.078900
31
0.0
0
LINE
8
0
6
CONTINUOUS
10
-28.840910
20
21.503000
30
0.0
11
-28.355810
21
20.733600
31
0.0
0
LINE
8
0
6
CONTINUOUS
10
-29.242380
20
22.188000
30
0.0
11
-28.840910
21
21.503000
31
0.0
0
LINE
8
0
6
CONTINUOUS
10
-29.610390
20
23.175000
30
0.0
11
-29.242380
21
22.188000
31
0.0
0
LINE
8
0
6
CONTINUOUS
10
-29.878040
20
24.295000
30
0.0
11
-29.610390
21
23.175000
31
0.0
0
LINE
8
0
6
CONTINUOUS
10
-30.115360
20
25.697000
30
0.0
11
-29.878040
21
24.295000
31
0.0
0
LINE
8
0
6
CONTINUOUS
10
-30.457910
20
28.227000
30
0.0
11
-30.115360
21
25.697000
31
0.0
0
LINE
8
0
6
CONTINUOUS
10
-30.814790
20
31.383000
30
0.0
11
-30.457910
21
28.227000
31
0.0
0
LINE
8
0
6
CONTINUOUS
10
-31.148997
20
35.995000
30
0.0
11
-30.814790
21
31.383000
31
0.0
0
LINE
8
0
6
CONTINUOUS
10
-31.414655
20
41.132000
30
0.0
11
-31.148997
21
35.995000
31
0.0
0
LINE
8
0
6
CONTINUOUS
10
-31.553260
20
45.143000
30
0.0
11
-31.414655
21
41.132000
31
0.0
0
LINE
8
0
6
CONTINUOUS
10
-31.587097
20
47.826000
30
0.0
11
-31.553260
21
45.143000
31
0.0
0
LINE
8
0
6
CONTINUOUS
10
-31.957524
20
45.097000
30
0.0
11
-32.000000
21
47.826000
31
0.0
0
LINE
8
0
6
CONTINUOUS
10
-27.747100
20
20.078900
30
0.0
11
-28.355810
21
20.733600
31
0.0
0
LINE
8
0
6
CONTINUOUS
10
-28.355810
20
20.733600
30
0.0
11
-28.840910
21
21.503000
31
0.0
0
LINE
8
0
6
CONTINUOUS
10
-29.054110
20
21.279000
30
0.0
11
-28.535260
21
20.538900
31
0.0
0
LINE
8
0
6
CONTINUOUS
10
-28.840910
20
21.503000
30
0.0
11
-29.242380
21
22.188000
31
0.0
0
LINE
8
0
6
CONTINUOUS
10
-29.455360
20
21.984000
30
0.0
11
-29.054110
21
21.279000
31
0.0
0
LINE
8
0
6
CONTINUOUS
10
-29.242380
20
22.188000
30
0.0
11
-29.610390
21
23.175000
31
0.0
0
LINE
8
0
6
CONTINUOUS
10
-29.842770
20
22.993000
30
0.0
11
-29.455360
21
21.984000
31
0.0
0
LINE
8
0
6
CONTINUOUS
10
-29.610390
20
23.175000
30
0.0
11
-29.878040
21
24.295000
31
0.0
0
LINE
8
0
6
CONTINUOUS
10
-29.878040
20
24.295000
30
0.0
11
-30.115360
21
25.697000
31
0.0
0
LINE
8
0
6
CONTINUOUS
10
-30.115360
20
25.697000
30
0.0
11
-30.457910
21
28.227000
31
0.0
0
LINE
8
0
6
CONTINUOUS
10
-30.457910
20
28.227000
30
0.0
11
-30.814790
21
31.383000
31
0.0
0
LINE
8
0
6
CONTINUOUS
10
-30.814790
20
31.383000
30
0.0
11
-31.148997
21
35.995000
31
0.0
0
LINE
8
0
6
CONTINUOUS
10
-31.148997
20
35.995000
30
0.0
11
-31.414655
21
41.132000
31
0.0
0
LINE
8
0
6
CONTINUOUS
10
-31.414655
20
41.132000
30
0.0
11
-31.553260
21
45.143000
31
0.0
0
LINE
8
0
6
CONTINUOUS
10
-31.553260
20
45.143000
30
0.0
11
-31.587097
21
47.826000
31
0.0
0
LINE
8
0
6
CONTINUOUS
10
-31.876129
20
47.826000
30
0.0
11
-31.818919
21
45.109000
31
0.0
0
LINE
8
0
6
CONTINUOUS
10
-28.535260
20
20.538900
30
0.0
11
-29.054110
21
21.279000
31
0.0
0
LINE
8
0
6
CONTINUOUS
10
-29.054110
20
21.279000
30
0.0
11
-29.455360
21
21.984000
31
0.0
0
LINE
8
0
6
CONTINUOUS
10
-29.455360
20
21.984000
30
0.0
11
-29.842770
21
22.993000
31
0.0
0
LINE
8
0
6
CONTINUOUS
10
-31.818919
20
45.109000
30
0.0
11
-31.876129
21
47.826000
31
0.0
0
LINE
8
0
6
CONTINUOUS
10
-28.056770
20
19.769200
30
0.0
11
-28.639010
21
20.428200
31
0.0
0
LINE
8
0
6
CONTINUOUS
10
-28.639010
20
20.428200
30
0.0
11
-29.144030
21
21.189000
31
0.0
0
LINE
8
0
6
CONTINUOUS
10
-29.144030
20
21.189000
30
0.0
11
-29.552230
21
21.901000
31
0.0
0
LINE
8
0
6
CONTINUOUS
10
-29.552230
20
21.901000
30
0.0
11
-29.953440
21
22.897000
31
0.0
0
LINE
8
0
6
CONTINUOUS
10
-29.953440
20
22.897000
30
0.0
11
-30.237110
21
24.051000
31
0.0
0
LINE
8
0
6
CONTINUOUS
10
-30.237110
20
24.051000
30
0.0
11
-30.495960
21
25.454000
31
0.0
0
LINE
8
0
6
CONTINUOUS
10
-30.495960
20
25.454000
30
0.0
11
-30.804850
21
28.047000
31
0.0
0
LINE
8
0
6
CONTINUOUS
10
-30.804850
20
28.047000
30
0.0
11
-31.182823
21
31.216000
31
0.0
0
LINE
8
0
6
CONTINUOUS
10
-31.182823
20
31.216000
30
0.0
11
-31.530159
21
35.810000
31
0.0
0
LINE
8
0
6
CONTINUOUS
10
-31.530159
20
35.810000
30
0.0
11
-31.818919
21
41.051000
31
0.0
0
LINE
8
0
6
CONTINUOUS
10
-31.818919
20
41.051000
30
0.0
11
-31.957524
21
45.097000
31
0.0
0
LINE
8
0
6
CONTINUOUS
10
-31.957524
20
45.097000
30
0.0
11
-32.000000
21
47.826000
31
0.0
0
LINE
8
0
6
CONTINUOUS
10
-32.000000
20
47.826000
30
0.0
11
-31.957524
21
45.097000
31
0.0
0
ENDSEC
0
EOF
