999
Erzeugt mit innoplus bad 
0
SECTION
2
HEADER
9
$ACADVER
1
AC1009
9
$DWGCODEPAGE
3
ISO8859-1
0
ENDSEC
0
SECTION
2
TABLES
0
TABLE
2
LAYER
70
1
0
LAYER
2
0
70
0
62
7
6
CONTINUOUS
0
ENDTAB
0
ENDSEC
0
SECTION
2
ENTITIES
0
LINE
8
0
6
CONTINUOUS
10
61.139460
20
-47.507275
30
0.0
11
60.197548
21
-42.849241
31
0.0
0
LINE
8
0
6
CONTINUOUS
10
67.095380
20
-82.963465
30
0.0
11
66.517250
21
-78.605045
31
0.0
0
LINE
8
0
6
CONTINUOUS
10
53.461420
20
-80.516945
30
0.0
11
54.003990
21
-84.610695
31
0.0
0
LINE
8
0
6
CONTINUOUS
10
55.375990
20
-80.275275
30
0.0
11
55.923250
21
-84.403895
31
0.0
0
LINE
8
0
6
CONTINUOUS
10
54.546570
20
-88.704375
30
0.0
11
56.470500
21
-88.532455
31
0.0
0
LINE
8
0
6
CONTINUOUS
10
54.003990
20
-84.610695
30
0.0
11
54.546570
21
-88.704375
31
0.0
0
LINE
8
0
6
CONTINUOUS
10
65.752640
20
-87.554825
30
0.0
11
67.673500
21
-87.321835
31
0.0
0
LINE
8
0
6
CONTINUOUS
10
67.673500
20
-87.321835
30
0.0
11
67.095380
21
-82.963465
31
0.0
0
LINE
8
0
6
CONTINUOUS
10
61.112210
20
-88.056285
30
0.0
11
65.752640
21
-87.554825
31
0.0
0
LINE
8
0
6
CONTINUOUS
10
65.752640
20
-87.554825
30
0.0
11
65.180240
21
-83.239115
31
0.0
0
LINE
8
0
6
CONTINUOUS
10
56.470500
20
-88.532455
30
0.0
11
61.112210
21
-88.056285
31
0.0
0
LINE
8
0
6
CONTINUOUS
10
55.923250
20
-84.403895
30
0.0
11
56.470500
21
-88.532455
31
0.0
0
LINE
8
0
6
CONTINUOUS
10
61.112210
20
-88.056285
30
0.0
11
60.552610
21
-83.835755
31
0.0
0
LINE
8
0
6
CONTINUOUS
10
57.839800
20
-137.285095
30
0.0
11
59.772290
21
-137.238585
31
0.0
0
LINE
8
0
6
CONTINUOUS
10
57.695710
20
-133.703665
30
0.0
11
57.839800
21
-137.285095
31
0.0
0
LINE
8
0
6
CONTINUOUS
10
68.804480
20
-129.582105
30
0.0
11
68.953030
21
-133.268885
31
0.0
0
LINE
8
0
6
CONTINUOUS
10
70.883970
20
-133.176875
30
0.0
11
70.734510
21
-129.468765
31
0.0
0
LINE
8
0
6
CONTINUOUS
10
64.290470
20
-133.461285
30
0.0
11
64.144007
21
-129.824133
31
0.0
0
LINE
8
0
6
CONTINUOUS
10
57.551620
20
-130.122305
30
0.0
11
57.695710
21
-133.703665
31
0.0
0
LINE
8
0
6
CONTINUOUS
10
59.627530
20
-133.641385
30
0.0
11
59.482770
21
-130.044245
31
0.0
0
LINE
8
0
6
CONTINUOUS
10
71.033420
20
-136.885045
30
0.0
11
70.883970
21
-133.176875
31
0.0
0
LINE
8
0
6
CONTINUOUS
10
59.772290
20
-137.238585
30
0.0
11
64.437080
21
-137.102145
31
0.0
0
LINE
8
0
6
CONTINUOUS
10
59.627530
20
-133.641385
30
0.0
11
59.771204
21
-137.211606
31
0.0
0
LINE
8
0
6
CONTINUOUS
10
69.996850
20
-176.486815
30
0.0
11
70.059020
21
-179.514235
31
0.0
0
LINE
8
0
6
CONTINUOUS
10
71.991240
20
-179.456705
30
0.0
11
71.929200
21
-176.435355
31
0.0
0
LINE
8
0
6
CONTINUOUS
10
65.331510
20
-176.601985
30
0.0
11
60.666050
21
-176.713485
31
0.0
0
LINE
8
0
6
CONTINUOUS
10
65.394080
20
-179.646715
30
0.0
11
65.331510
21
-176.601985
31
0.0
0
LINE
8
0
6
CONTINUOUS
10
58.733450
20
-176.755945
30
0.0
11
58.796640
21
-179.827765
31
0.0
0
LINE
8
0
6
CONTINUOUS
10
60.729040
20
-179.776615
30
0.0
11
60.666050
21
-176.713485
31
0.0
0
LINE
8
0
6
CONTINUOUS
10
72.053270
20
-182.478045
30
0.0
11
71.991240
21
-179.456705
31
0.0
0
LINE
8
0
6
CONTINUOUS
10
60.792030
20
-182.839715
30
0.0
11
65.456650
21
-182.691405
31
0.0
0
LINE
8
0
6
CONTINUOUS
10
35.206150
20
-16.260835
30
0.0
11
35.350290
21
-16.730345
31
0.0
0
LINE
8
0
6
CONTINUOUS
10
26.490580
20
12.501145
30
0.0
11
26.974220
21
10.555605
31
0.0
0
LINE
8
0
6
CONTINUOUS
10
49.723540
20
16.210785
30
0.0
11
49.239900
21
18.156275
31
0.0
0
LINE
8
0
6
CONTINUOUS
10
49.239900
20
18.156275
30
0.0
11
49.217400
21
18.246805
31
0.0
0
LINE
8
0
6
CONTINUOUS
10
26.468090
20
12.591625
30
0.0
11
26.490580
21
12.501145
31
0.0
0
LINE
8
0
6
CONTINUOUS
10
51.207313
20
8.472807
30
0.0
11
49.723540
21
16.210785
31
0.0
0
LINE
8
0
6
CONTINUOUS
10
26.974220
20
10.555605
30
0.0
11
35.206150
21
-16.260835
31
0.0
0
LINE
8
0
6
CONTINUOUS
10
38.226080
20
-16.015475
30
0.0
11
36.661660
21
-16.404385
31
0.0
0
LINE
8
0
6
CONTINUOUS
10
38.326501
20
-15.990511
30
0.0
11
38.226080
21
-16.015475
31
0.0
0
LINE
8
0
6
CONTINUOUS
10
35.680770
20
-16.648175
30
0.0
11
35.350290
21
-16.730345
31
0.0
0
LINE
8
0
6
CONTINUOUS
10
36.661660
20
-16.404385
30
0.0
11
35.680770
21
-16.648175
31
0.0
0
LINE
8
0
6
CONTINUOUS
10
47.366140
20
-45.943645
30
0.0
11
48.249740
21
-50.315645
31
0.0
0
LINE
8
0
6
CONTINUOUS
10
59.256680
20
-47.969315
30
0.0
11
58.321527
21
-43.344282
31
0.0
0
LINE
8
0
6
CONTINUOUS
10
49.250110
20
-45.541105
30
0.0
11
50.142270
21
-49.955115
31
0.0
0
LINE
8
0
6
CONTINUOUS
10
54.701500
20
-48.983235
30
0.0
11
53.789460
21
-44.471729
31
0.0
0
LINE
8
0
6
CONTINUOUS
10
51.761700
20
-67.692525
30
0.0
11
52.304280
21
-71.786265
31
0.0
0
LINE
8
0
6
CONTINUOUS
10
60.194430
20
-52.607195
30
0.0
11
62.087520
21
-52.195705
31
0.0
0
LINE
8
0
6
CONTINUOUS
10
62.087520
20
-52.195705
30
0.0
11
61.139460
21
-47.507275
31
0.0
0
LINE
8
0
6
CONTINUOUS
10
64.781040
20
-65.516055
30
0.0
11
63.836421
21
-60.844581
31
0.0
0
LINE
8
0
6
CONTINUOUS
10
55.616130
20
-53.507605
30
0.0
11
60.194430
21
-52.607195
31
0.0
0
LINE
8
0
6
CONTINUOUS
10
60.194430
20
-52.607195
30
0.0
11
59.256680
21
-47.969315
31
0.0
0
LINE
8
0
6
CONTINUOUS
10
57.361150
20
-62.139615
30
0.0
11
58.275780
21
-66.663975
31
0.0
0
LINE
8
0
6
CONTINUOUS
10
62.877510
20
-65.877005
30
0.0
11
61.940729
21
-61.243919
31
0.0
0
LINE
8
0
6
CONTINUOUS
10
49.133430
20
-54.688045
30
0.0
11
51.034510
21
-54.369535
31
0.0
0
LINE
8
0
6
CONTINUOUS
10
48.249740
20
-50.315645
30
0.0
11
49.129986
21
-54.671002
31
0.0
0
LINE
8
0
6
CONTINUOUS
10
53.671460
20
-67.416005
30
0.0
11
52.782635
21
-63.018491
31
0.0
0
LINE
8
0
6
CONTINUOUS
10
50.878020
20
-63.320125
30
0.0
11
51.761700
21
-67.692525
31
0.0
0
LINE
8
0
6
CONTINUOUS
10
51.034510
20
-54.369535
30
0.0
11
55.616130
21
-53.507605
31
0.0
0
LINE
8
0
6
CONTINUOUS
10
50.142270
20
-49.955115
30
0.0
11
51.034510
21
-54.369535
31
0.0
0
LINE
8
0
6
CONTINUOUS
10
55.616130
20
-53.507605
30
0.0
11
54.701500
21
-48.983235
31
0.0
0
LINE
8
0
6
CONTINUOUS
10
55.468280
20
-97.459995
30
0.0
11
55.767920
21
-101.293515
31
0.0
0
LINE
8
0
6
CONTINUOUS
10
65.359170
20
-69.874475
30
0.0
11
64.781040
21
-65.516055
31
0.0
0
LINE
8
0
6
CONTINUOUS
10
68.911830
20
-100.111695
30
0.0
11
68.596110
21
-96.077345
31
0.0
0
LINE
8
0
6
CONTINUOUS
10
66.988190
20
-100.311915
30
0.0
11
66.675651
21
-96.317389
31
0.0
0
LINE
8
0
6
CONTINUOUS
10
63.449910
20
-70.192765
30
0.0
11
62.877510
21
-65.877005
31
0.0
0
LINE
8
0
6
CONTINUOUS
10
57.392340
20
-97.288055
30
0.0
11
57.694050
21
-101.147615
31
0.0
0
LINE
8
0
6
CONTINUOUS
10
62.341640
20
-100.741025
30
0.0
11
62.034912
21
-96.818904
31
0.0
0
LINE
8
0
6
CONTINUOUS
10
53.671460
20
-67.416005
30
0.0
11
54.218720
21
-71.544615
31
0.0
0
LINE
8
0
6
CONTINUOUS
10
58.835390
20
-70.884565
30
0.0
11
58.275780
21
-66.663975
31
0.0
0
LINE
8
0
6
CONTINUOUS
10
59.993000
20
-79.615185
30
0.0
11
60.552610
21
-83.835755
31
0.0
0
LINE
8
0
6
CONTINUOUS
10
65.180240
20
-83.239115
30
0.0
11
64.610137
21
-78.940589
31
0.0
0
LINE
8
0
6
CONTINUOUS
10
56.067560
20
-105.127265
30
0.0
11
57.995780
21
-105.007395
31
0.0
0
LINE
8
0
6
CONTINUOUS
10
55.767920
20
-101.293515
30
0.0
11
56.067560
21
-105.127265
31
0.0
0
LINE
8
0
6
CONTINUOUS
10
67.301290
20
-104.313685
30
0.0
11
69.227560
21
-104.146255
31
0.0
0
LINE
8
0
6
CONTINUOUS
10
69.227560
20
-104.146255
30
0.0
11
68.911830
21
-100.111695
31
0.0
0
LINE
8
0
6
CONTINUOUS
10
57.995780
20
-105.007395
30
0.0
11
62.648950
21
-104.670405
31
0.0
0
LINE
8
0
6
CONTINUOUS
10
57.694050
20
-101.147615
30
0.0
11
57.995780
21
-105.007395
31
0.0
0
LINE
8
0
6
CONTINUOUS
10
63.642890
20
-117.379765
30
0.0
11
63.336042
21
-113.456198
31
0.0
0
LINE
8
0
6
CONTINUOUS
10
67.988250
20
-113.093665
30
0.0
11
68.301350
21
-117.095415
31
0.0
0
LINE
8
0
6
CONTINUOUS
10
70.230370
20
-116.960755
30
0.0
11
69.914640
21
-112.926205
31
0.0
0
LINE
8
0
6
CONTINUOUS
10
62.648950
20
-104.670405
30
0.0
11
67.301290
21
-104.313685
31
0.0
0
LINE
8
0
6
CONTINUOUS
10
62.341640
20
-100.741025
30
0.0
11
62.648950
21
-104.670405
31
0.0
0
LINE
8
0
6
CONTINUOUS
10
67.301290
20
-104.313685
30
0.0
11
66.988190
21
-100.311915
31
0.0
0
LINE
8
0
6
CONTINUOUS
10
56.753820
20
-113.907285
30
0.0
11
57.053460
21
-117.741015
31
0.0
0
LINE
8
0
6
CONTINUOUS
10
58.983870
20
-117.647175
30
0.0
11
58.682772
21
-113.795499
31
0.0
0
LINE
8
0
6
CONTINUOUS
10
58.106480
20
-146.087565
30
0.0
11
58.174260
21
-149.416355
31
0.0
0
LINE
8
0
6
CONTINUOUS
10
60.106900
20
-149.374105
30
0.0
11
60.039077
21
-146.043852
31
0.0
0
LINE
8
0
6
CONTINUOUS
10
71.369300
20
-149.059615
30
0.0
11
71.300540
21
-145.687525
31
0.0
0
LINE
8
0
6
CONTINUOUS
10
64.437080
20
-137.102145
30
0.0
11
69.101590
21
-136.955745
31
0.0
0
LINE
8
0
6
CONTINUOUS
10
64.290470
20
-133.461285
30
0.0
11
64.435593
21
-137.065210
31
0.0
0
LINE
8
0
6
CONTINUOUS
10
69.101590
20
-136.955745
30
0.0
11
68.953030
21
-133.268885
31
0.0
0
LINE
8
0
6
CONTINUOUS
10
68.301350
20
-117.095415
30
0.0
11
68.448479
21
-120.746938
31
0.0
0
LINE
8
0
6
CONTINUOUS
10
70.379830
20
-120.668865
30
0.0
11
70.230370
21
-116.960755
31
0.0
0
LINE
8
0
6
CONTINUOUS
10
64.703960
20
-145.904615
30
0.0
11
64.772170
21
-149.252085
31
0.0
0
LINE
8
0
6
CONTINUOUS
10
69.437200
20
-149.121875
30
0.0
11
69.368677
21
-145.760991
31
0.0
0
LINE
8
0
6
CONTINUOUS
10
59.128630
20
-121.244315
30
0.0
11
63.789500
21
-121.020565
31
0.0
0
LINE
8
0
6
CONTINUOUS
10
63.789500
20
-121.020565
30
0.0
11
63.642890
21
-117.379765
31
0.0
0
LINE
8
0
6
CONTINUOUS
10
58.796640
20
-179.827765
30
0.0
11
58.859830
21
-182.899565
31
0.0
0
LINE
8
0
6
CONTINUOUS
10
60.792030
20
-182.839715
30
0.0
11
60.729040
21
-179.776615
31
0.0
0
LINE
8
0
6
CONTINUOUS
10
57.053460
20
-117.741015
30
0.0
11
57.197550
21
-121.322375
31
0.0
0
LINE
8
0
6
CONTINUOUS
10
59.128630
20
-121.244315
30
0.0
11
58.983870
21
-117.647175
31
0.0
0
LINE
8
0
6
CONTINUOUS
10
71.438070
20
-152.431775
30
0.0
11
71.369300
21
-149.059615
31
0.0
0
LINE
8
0
6
CONTINUOUS
10
69.685270
20
-161.290665
30
0.0
11
69.753840
21
-164.654345
31
0.0
0
LINE
8
0
6
CONTINUOUS
10
71.686380
20
-164.608955
30
0.0
11
71.617620
21
-161.236815
31
0.0
0
LINE
8
0
6
CONTINUOUS
10
65.087990
20
-164.752195
30
0.0
11
65.019820
21
-161.406635
31
0.0
0
LINE
8
0
6
CONTINUOUS
10
58.174260
20
-149.416355
30
0.0
11
58.242050
21
-152.745165
31
0.0
0
LINE
8
0
6
CONTINUOUS
10
60.174780
20
-152.707175
30
0.0
11
60.106900
21
-149.374105
31
0.0
0
LINE
8
0
6
CONTINUOUS
10
64.772170
20
-149.252085
30
0.0
11
64.839876
21
-152.575331
31
0.0
0
LINE
8
0
6
CONTINUOUS
10
69.505770
20
-152.485575
30
0.0
11
69.437200
21
-149.121875
31
0.0
0
LINE
8
0
6
CONTINUOUS
10
58.421350
20
-161.550255
30
0.0
11
58.489130
21
-164.879075
31
0.0
0
LINE
8
0
6
CONTINUOUS
10
60.421990
20
-164.845315
30
0.0
11
60.354110
21
-161.512255
31
0.0
0
LINE
8
0
6
CONTINUOUS
10
59.141330
20
-191.701465
30
0.0
11
59.262950
21
-194.503825
31
0.0
0
LINE
8
0
6
CONTINUOUS
10
61.194130
20
-194.423235
30
0.0
11
61.073459
21
-191.642050
31
0.0
0
LINE
8
0
6
CONTINUOUS
10
72.449680
20
-193.944945
30
0.0
11
72.334230
21
-191.279945
31
0.0
0
LINE
8
0
6
CONTINUOUS
10
65.456650
20
-182.691405
30
0.0
11
70.121200
21
-182.541635
31
0.0
0
LINE
8
0
6
CONTINUOUS
10
65.394080
20
-179.646715
30
0.0
11
65.456535
21
-182.685792
31
0.0
0
LINE
8
0
6
CONTINUOUS
10
70.121200
20
-182.541635
30
0.0
11
70.059020
21
-179.514235
31
0.0
0
LINE
8
0
6
CONTINUOUS
10
69.753840
20
-164.654345
30
0.0
11
69.816010
21
-167.681765
31
0.0
0
LINE
8
0
6
CONTINUOUS
10
71.748420
20
-167.630305
30
0.0
11
71.686380
21
-164.608955
31
0.0
0
LINE
8
0
6
CONTINUOUS
10
65.737870
20
-191.493305
30
0.0
11
65.856360
21
-194.226115
31
0.0
0
LINE
8
0
6
CONTINUOUS
10
70.518560
20
-194.028035
30
0.0
11
70.402259
21
-191.343967
31
0.0
0
LINE
8
0
6
CONTINUOUS
10
65.150560
20
-167.796935
30
0.0
11
65.087990
21
-164.752195
31
0.0
0
LINE
8
0
6
CONTINUOUS
10
58.489130
20
-164.879075
30
0.0
11
58.552320
21
-167.950895
31
0.0
0
LINE
8
0
6
CONTINUOUS
10
60.484980
20
-167.908435
30
0.0
11
60.421990
21
-164.845315
31
0.0
0
LINE
8
0
6
CONTINUOUS
10
70.518560
20
-194.028035
30
0.0
11
70.634870
21
-196.712455
31
0.0
0
LINE
8
0
6
CONTINUOUS
10
72.565120
20
-196.609875
30
0.0
11
72.449680
21
-193.944945
31
0.0
0
LINE
8
0
6
CONTINUOUS
10
59.262950
20
-194.503825
30
0.0
11
59.384570
21
-197.306135
31
0.0
0
LINE
8
0
6
CONTINUOUS
10
61.194130
20
-194.423235
30
0.0
11
61.314481
21
-197.197219
31
0.0
0
LINE
8
0
6
CONTINUOUS
10
65.974850
20
-196.958865
30
0.0
11
65.856360
21
-194.226115
31
0.0
0
LINE
8
0
6
CONTINUOUS
10
65.456650
20
-182.691405
30
0.0
11
60.792030
21
-182.839715
31
0.0
0
LINE
8
0
6
CONTINUOUS
10
61.112210
20
-88.056285
30
0.0
11
56.470500
21
-88.532455
31
0.0
0
LINE
8
0
6
CONTINUOUS
10
51.034510
20
-54.369535
30
0.0
11
49.133430
21
-54.688045
31
0.0
0
LINE
8
0
6
CONTINUOUS
10
64.437080
20
-137.102145
30
0.0
11
59.772290
21
-137.238585
31
0.0
0
LINE
8
0
6
CONTINUOUS
10
63.148340
20
-51.981215
30
0.0
11
62.080589
21
-52.161428
31
0.0
0
LINE
8
0
6
CONTINUOUS
10
55.616130
20
-53.507605
30
0.0
11
51.034510
21
-54.369535
31
0.0
0
LINE
8
0
6
CONTINUOUS
10
49.129986
20
-54.671002
30
0.0
11
48.072580
21
-54.902445
31
0.0
0
LINE
8
0
6
CONTINUOUS
10
58.835390
20
-70.884565
30
0.0
11
54.218720
21
-71.544615
31
0.0
0
LINE
8
0
6
CONTINUOUS
10
62.648950
20
-104.670405
30
0.0
11
57.995780
21
-105.007395
31
0.0
0
LINE
8
0
6
CONTINUOUS
10
63.789500
20
-121.020565
30
0.0
11
59.128630
21
-121.244315
31
0.0
0
LINE
8
0
6
CONTINUOUS
10
64.840370
20
-152.599605
30
0.0
11
60.174780
21
-152.707175
31
0.0
0
LINE
8
0
6
CONTINUOUS
10
61.100200
20
-41.976485
30
0.0
11
60.406671
21
-39.130318
31
0.0
0
LINE
8
0
6
CONTINUOUS
10
72.364120
20
-145.051245
30
0.0
11
72.133630
21
-137.455665
31
0.0
0
LINE
8
0
6
CONTINUOUS
10
58.920660
20
-42.573155
30
0.0
11
58.199150
21
-39.612016
31
0.0
0
LINE
8
0
6
CONTINUOUS
10
73.396810
20
-190.641975
30
0.0
11
73.154380
21
-183.046935
31
0.0
0
LINE
8
0
6
CONTINUOUS
10
56.776200
20
-137.921325
30
0.0
11
57.006300
21
-145.516905
31
0.0
0
LINE
8
0
6
CONTINUOUS
10
59.255760
20
-145.462775
30
0.0
11
59.025610
21
-137.867195
31
0.0
0
LINE
8
0
6
CONTINUOUS
10
57.797290
20
-183.537595
30
0.0
11
58.040200
21
-191.132635
31
0.0
0
LINE
8
0
6
CONTINUOUS
10
60.289180
20
-191.062945
30
0.0
11
60.046350
21
-183.467905
31
0.0
0
LINE
8
0
6
CONTINUOUS
10
53.645380
20
-43.885495
30
0.0
11
52.887320
21
-40.773966
31
0.0
0
LINE
8
0
6
CONTINUOUS
10
69.609290
20
-95.363535
30
0.0
11
68.813200
21
-87.808805
31
0.0
0
LINE
8
0
6
CONTINUOUS
10
44.374590
20
-38.235935
30
0.0
11
46.171610
21
-45.613265
31
0.0
0
LINE
8
0
6
CONTINUOUS
10
53.533330
20
-89.418095
30
0.0
11
54.328630
21
-96.972925
31
0.0
0
LINE
8
0
6
CONTINUOUS
10
56.568210
20
-96.772805
30
0.0
11
55.772810
21
-89.217995
31
0.0
0
LINE
8
0
6
CONTINUOUS
10
70.115390
20
-145.133535
30
0.0
11
69.884960
21
-137.537965
31
0.0
0
LINE
8
0
6
CONTINUOUS
10
64.455450
20
-137.708385
30
0.0
11
64.685740
21
-145.303975
31
0.0
0
LINE
8
0
6
CONTINUOUS
10
71.147950
20
-190.715975
30
0.0
11
70.905460
21
-183.120935
31
0.0
0
LINE
8
0
6
CONTINUOUS
10
65.475940
20
-183.295265
30
0.0
11
65.718600
21
-190.890315
31
0.0
0
LINE
8
0
6
CONTINUOUS
10
67.373260
20
-95.634775
30
0.0
11
66.577290
21
-88.080045
31
0.0
0
LINE
8
0
6
CONTINUOUS
10
61.175800
20
-88.663755
30
0.0
11
61.971480
21
-96.218525
31
0.0
0
LINE
8
0
6
CONTINUOUS
10
39.311730
20
-20.437995
30
0.0
11
41.398260
21
-27.744855
31
0.0
0
LINE
8
0
6
CONTINUOUS
10
64.774860
20
-60.021255
30
0.0
11
63.267290
21
-52.573075
31
0.0
0
LINE
8
0
6
CONTINUOUS
10
62.573640
20
-60.503115
30
0.0
11
61.062670
21
-53.055645
31
0.0
0
LINE
8
0
6
CONTINUOUS
10
57.246570
20
-61.558285
30
0.0
11
55.732650
21
-54.111365
31
0.0
0
LINE
8
0
6
CONTINUOUS
10
48.191490
20
-55.494315
30
0.0
11
49.698270
21
-62.942645
31
0.0
0
LINE
8
0
6
CONTINUOUS
10
51.912260
20
-62.569005
30
0.0
11
50.402140
21
-55.121295
31
0.0
0
LINE
8
0
6
CONTINUOUS
10
67.509770
20
-77.864395
30
0.0
11
66.512490
21
-70.330505
31
0.0
0
LINE
8
0
6
CONTINUOUS
10
65.284120
20
-78.230645
30
0.0
11
64.292080
21
-70.695995
31
0.0
0
LINE
8
0
6
CONTINUOUS
10
59.908170
20
-79.025875
30
0.0
11
58.921200
21
-71.490575
31
0.0
0
LINE
8
0
6
CONTINUOUS
10
54.534750
20
-79.783745
30
0.0
11
53.542960
21
-72.249145
31
0.0
0
LINE
8
0
6
CONTINUOUS
10
51.311700
20
-72.526825
30
0.0
11
52.308140
21
-80.060815
31
0.0
0
LINE
8
0
6
CONTINUOUS
10
70.946880
20
-112.239865
30
0.0
11
70.353430
21
-104.663715
31
0.0
0
LINE
8
0
6
CONTINUOUS
10
68.705420
20
-112.436105
30
0.0
11
68.110660
21
-104.860045
31
0.0
0
LINE
8
0
6
CONTINUOUS
10
63.290350
20
-112.854205
30
0.0
11
62.694640
21
-105.278215
31
0.0
0
LINE
8
0
6
CONTINUOUS
10
57.873040
20
-113.249225
30
0.0
11
57.279010
21
-105.673105
31
0.0
0
LINE
8
0
6
CONTINUOUS
10
55.035280
20
-105.813515
30
0.0
11
55.627980
21
-113.389725
31
0.0
0
LINE
8
0
6
CONTINUOUS
10
71.790990
20
-128.821975
30
0.0
11
71.486330
21
-121.228495
31
0.0
0
LINE
8
0
6
CONTINUOUS
10
69.542560
20
-128.950755
30
0.0
11
69.241550
21
-121.357085
31
0.0
0
LINE
8
0
6
CONTINUOUS
10
64.115560
20
-129.221075
30
0.0
11
63.818000
21
-121.627275
31
0.0
0
LINE
8
0
6
CONTINUOUS
10
58.691440
20
-129.474465
30
0.0
11
58.390540
21
-121.880815
31
0.0
0
LINE
8
0
6
CONTINUOUS
10
56.141040
20
-121.969095
30
0.0
11
56.445140
21
-129.562615
31
0.0
0
LINE
8
0
6
CONTINUOUS
10
72.687220
20
-160.611155
30
0.0
11
72.532790
21
-153.013305
31
0.0
0
LINE
8
0
6
CONTINUOUS
10
70.437360
20
-160.672855
30
0.0
11
70.284170
21
-153.074935
31
0.0
0
LINE
8
0
6
CONTINUOUS
10
65.006040
20
-160.803065
30
0.0
11
64.854220
21
-153.205105
31
0.0
0
LINE
8
0
6
CONTINUOUS
10
59.575740
20
-160.925635
30
0.0
11
59.422800
21
-153.327715
31
0.0
0
LINE
8
0
6
CONTINUOUS
10
57.172430
20
-153.370795
30
0.0
11
57.326630
21
-160.968685
31
0.0
0
LINE
8
0
6
CONTINUOUS
10
72.998680
20
-175.809535
30
0.0
11
72.843260
21
-168.211685
31
0.0
0
LINE
8
0
6
CONTINUOUS
10
70.748660
20
-175.868055
30
0.0
11
70.594660
21
-168.270165
31
0.0
0
LINE
8
0
6
CONTINUOUS
10
65.317470
20
-175.999165
30
0.0
11
65.164650
21
-168.401245
31
0.0
0
LINE
8
0
6
CONTINUOUS
10
59.887520
20
-176.126175
30
0.0
11
59.733120
21
-168.528285
31
0.0
0
LINE
8
0
6
CONTINUOUS
10
57.482860
20
-168.576755
30
0.0
11
57.638600
21
-176.174605
31
0.0
0
LINE
8
0
6
CONTINUOUS
10
74.000770
20
-204.758715
30
0.0
11
73.673320
21
-197.166175
31
0.0
0
LINE
8
0
6
CONTINUOUS
10
71.752220
20
-204.875185
30
0.0
11
71.428150
21
-197.282445
31
0.0
0
LINE
8
0
6
CONTINUOUS
10
66.326030
20
-205.154795
30
0.0
11
66.005180
21
-197.561945
31
0.0
0
LINE
8
0
6
CONTINUOUS
10
60.903280
20
-205.433805
30
0.0
11
60.578730
21
-197.841105
31
0.0
0
LINE
8
0
6
CONTINUOUS
10
58.330110
20
-197.956175
30
0.0
11
58.658190
21
-205.548685
31
0.0
0
LINE
8
0
6
CONTINUOUS
10
69.101590
20
-136.955745
30
0.0
11
64.437080
21
-137.102145
31
0.0
0
LINE
8
0
6
CONTINUOUS
10
59.772290
20
-137.238585
30
0.0
11
57.839800
21
-137.285095
31
0.0
0
LINE
8
0
6
CONTINUOUS
10
44.594847
20
-37.549995
30
0.0
11
44.231710
21
-37.649395
31
0.0
0
LINE
8
0
6
CONTINUOUS
10
70.634870
20
-196.712455
30
0.0
11
65.974850
21
-196.958865
31
0.0
0
LINE
8
0
6
CONTINUOUS
10
69.816010
20
-167.681765
30
0.0
11
65.150560
21
-167.796935
31
0.0
0
LINE
8
0
6
CONTINUOUS
10
69.505770
20
-152.485575
30
0.0
11
64.840370
21
-152.599605
31
0.0
0
LINE
8
0
6
CONTINUOUS
10
70.379830
20
-120.668865
30
0.0
11
68.449900
21
-120.782195
31
0.0
0
LINE
8
0
6
CONTINUOUS
10
68.449900
20
-120.782195
30
0.0
11
63.789500
21
-121.020565
31
0.0
0
LINE
8
0
6
CONTINUOUS
10
57.995780
20
-105.007395
30
0.0
11
56.067560
21
-105.127265
31
0.0
0
LINE
8
0
6
CONTINUOUS
10
69.227560
20
-104.146255
30
0.0
11
67.301290
21
-104.313685
31
0.0
0
LINE
8
0
6
CONTINUOUS
10
67.301290
20
-104.313685
30
0.0
11
62.648950
21
-104.670405
31
0.0
0
LINE
8
0
6
CONTINUOUS
10
65.359170
20
-69.874475
30
0.0
11
63.449910
21
-70.192765
31
0.0
0
LINE
8
0
6
CONTINUOUS
10
54.218720
20
-71.544615
30
0.0
11
52.304280
21
-71.786265
31
0.0
0
LINE
8
0
6
CONTINUOUS
10
62.087520
20
-52.195705
30
0.0
11
60.194430
21
-52.607195
31
0.0
0
LINE
8
0
6
CONTINUOUS
10
63.449910
20
-70.192765
30
0.0
11
58.835390
21
-70.884565
31
0.0
0
LINE
8
0
6
CONTINUOUS
10
60.194430
20
-52.607195
30
0.0
11
55.616130
21
-53.507605
31
0.0
0
LINE
8
0
6
CONTINUOUS
10
65.752640
20
-87.554825
30
0.0
11
61.112210
21
-88.056285
31
0.0
0
LINE
8
0
6
CONTINUOUS
10
56.470500
20
-88.532455
30
0.0
11
54.546570
21
-88.704375
31
0.0
0
LINE
8
0
6
CONTINUOUS
10
70.121200
20
-182.541635
30
0.0
11
65.456650
21
-182.691405
31
0.0
0
LINE
8
0
6
CONTINUOUS
10
67.673500
20
-87.321835
30
0.0
11
65.752640
21
-87.554825
31
0.0
0
LINE
8
0
6
CONTINUOUS
10
61.696580
20
-206.003585
30
0.0
11
66.356350
21
-205.757655
31
0.0
0
LINE
8
0
6
CONTINUOUS
10
60.666050
20
-176.713485
30
0.0
11
65.331510
21
-176.601985
31
0.0
0
LINE
8
0
6
CONTINUOUS
10
66.400920
20
-213.348925
30
0.0
11
71.040960
21
-209.809985
31
0.0
0
LINE
8
0
6
CONTINUOUS
10
66.400920
20
-213.348925
30
0.0
11
66.356350
21
-205.757655
31
0.0
0
LINE
8
0
6
CONTINUOUS
10
61.761510
20
-216.887395
30
0.0
11
66.400920
21
-213.348925
31
0.0
0
LINE
8
0
6
CONTINUOUS
10
71.016130
20
-205.511285
30
0.0
11
71.040960
21
-209.809985
31
0.0
0
LINE
8
0
6
CONTINUOUS
10
72.963120
20
-208.343965
30
0.0
11
72.946270
21
-205.408705
31
0.0
0
LINE
8
0
6
CONTINUOUS
10
71.040960
20
-209.809985
30
0.0
11
72.963120
21
-208.343965
31
0.0
0
LINE
8
0
6
CONTINUOUS
10
59.766430
20
-206.104885
30
0.0
11
59.839990
21
-218.352925
31
0.0
0
LINE
8
0
6
CONTINUOUS
10
61.761510
20
-216.887395
30
0.0
11
61.696580
21
-206.003585
31
0.0
0
LINE
8
0
6
CONTINUOUS
10
59.839990
20
-218.352925
30
0.0
11
61.761510
21
-216.887395
31
0.0
0
LINE
8
0
6
CONTINUOUS
10
39.144700
20
-19.857885
30
0.0
11
39.311730
21
-20.437995
31
0.0
0
LINE
8
0
6
CONTINUOUS
10
39.429075
20
-19.782728
30
0.0
11
39.144700
21
-19.857885
31
0.0
0
LINE
8
0
6
CONTINUOUS
10
52.388490
20
-80.659155
30
0.0
11
54.617490
21
-80.381775
31
0.0
0
LINE
8
0
6
CONTINUOUS
10
52.308140
20
-80.060815
30
0.0
11
52.388490
21
-80.659155
31
0.0
0
LINE
8
0
6
CONTINUOUS
10
57.651290
20
-176.778205
30
0.0
11
59.900850
21
-176.729755
31
0.0
0
LINE
8
0
6
CONTINUOUS
10
57.638600
20
-176.174605
30
0.0
11
57.651290
21
-176.778205
31
0.0
0
LINE
8
0
6
CONTINUOUS
10
62.649170
20
-104.676205
30
0.0
11
57.232850
21
-105.071155
31
0.0
0
LINE
8
0
6
CONTINUOUS
10
58.835880
20
-70.892915
30
0.0
11
53.460220
21
-71.651115
31
0.0
0
LINE
8
0
6
CONTINUOUS
10
69.672550
20
-95.963925
30
0.0
11
69.609290
21
-95.363535
31
0.0
0
LINE
8
0
6
CONTINUOUS
10
67.436510
20
-96.235165
30
0.0
11
69.672550
21
-95.963925
31
0.0
0
LINE
8
0
6
CONTINUOUS
10
72.382430
20
-145.654695
30
0.0
11
72.364120
21
-145.051245
31
0.0
0
LINE
8
0
6
CONTINUOUS
10
70.133690
20
-145.736975
30
0.0
11
72.382430
21
-145.654695
31
0.0
0
LINE
8
0
6
CONTINUOUS
10
67.590170
20
-78.462735
30
0.0
11
67.509770
21
-77.864395
31
0.0
0
LINE
8
0
6
CONTINUOUS
10
65.367070
20
-78.828615
30
0.0
11
67.590170
21
-78.462735
31
0.0
0
LINE
8
0
6
CONTINUOUS
10
65.150590
20
-167.797675
30
0.0
11
59.719790
21
-167.924705
31
0.0
0
LINE
8
0
6
CONTINUOUS
10
65.974850
20
-196.958975
30
0.0
11
60.550120
21
-197.238065
31
0.0
0
LINE
8
0
6
CONTINUOUS
10
58.685080
20
-206.151805
30
0.0
11
60.931890
21
-206.036855
31
0.0
0
LINE
8
0
6
CONTINUOUS
10
58.658190
20
-205.548685
30
0.0
11
58.685080
21
-206.151805
31
0.0
0
LINE
8
0
6
CONTINUOUS
10
73.646470
20
-196.563035
30
0.0
11
71.399560
21
-196.679405
31
0.0
0
LINE
8
0
6
CONTINUOUS
10
73.673320
20
-197.166175
30
0.0
11
73.646470
21
-196.563035
31
0.0
0
LINE
8
0
6
CONTINUOUS
10
64.840420
20
-152.601545
30
0.0
11
59.409610
21
-152.724135
31
0.0
0
LINE
8
0
6
CONTINUOUS
10
63.789600
20
-121.024215
30
0.0
11
58.363920
21
-121.277675
31
0.0
0
LINE
8
0
6
CONTINUOUS
10
65.331530
20
-176.602725
30
0.0
11
70.762070
21
-176.471635
31
0.0
0
LINE
8
0
6
CONTINUOUS
10
57.339180
20
-161.572285
30
0.0
11
59.588930
21
-161.529215
31
0.0
0
LINE
8
0
6
CONTINUOUS
10
57.326630
20
-160.968685
30
0.0
11
57.339180
21
-161.572285
31
0.0
0
LINE
8
0
6
CONTINUOUS
10
65.019830
20
-161.406635
30
0.0
11
70.450520
21
-161.276435
31
0.0
0
LINE
8
0
6
CONTINUOUS
10
64.143960
20
-129.824135
30
0.0
11
69.569340
21
-129.553875
31
0.0
0
LINE
8
0
6
CONTINUOUS
10
72.830580
20
-167.608085
30
0.0
11
70.581240
21
-167.666585
31
0.0
0
LINE
8
0
6
CONTINUOUS
10
72.843260
20
-168.211685
30
0.0
11
72.830580
21
-167.608085
31
0.0
0
LINE
8
0
6
CONTINUOUS
10
56.470120
20
-130.165825
30
0.0
11
58.718060
21
-130.077605
31
0.0
0
LINE
8
0
6
CONTINUOUS
10
56.445140
20
-129.562615
30
0.0
11
56.470120
21
-130.165825
31
0.0
0
LINE
8
0
6
CONTINUOUS
10
64.840420
20
-152.601545
30
0.0
11
64.854220
21
-153.205105
31
0.0
0
LINE
8
0
6
CONTINUOUS
10
70.271020
20
-152.471355
30
0.0
11
64.840420
21
-152.601545
31
0.0
0
LINE
8
0
6
CONTINUOUS
10
63.789600
20
-121.024215
30
0.0
11
63.818000
21
-121.627275
31
0.0
0
LINE
8
0
6
CONTINUOUS
10
69.214760
20
-120.753965
30
0.0
11
63.789600
21
-121.024215
31
0.0
0
LINE
8
0
6
CONTINUOUS
10
65.974850
20
-196.958975
30
0.0
11
66.005180
21
-197.561945
31
0.0
0
LINE
8
0
6
CONTINUOUS
10
71.399560
20
-196.679405
30
0.0
11
65.974850
21
-196.958975
31
0.0
0
LINE
8
0
6
CONTINUOUS
10
71.428150
20
-197.282445
30
0.0
11
71.399560
21
-196.679405
31
0.0
0
LINE
8
0
6
CONTINUOUS
10
61.243110
20
-42.563005
30
0.0
11
61.100200
21
-41.976485
31
0.0
0
LINE
8
0
6
CONTINUOUS
10
59.063560
20
-43.159685
30
0.0
11
61.243110
21
-42.563005
31
0.0
0
LINE
8
0
6
CONTINUOUS
10
74.027620
20
-205.361865
30
0.0
11
74.000770
21
-204.758715
31
0.0
0
LINE
8
0
6
CONTINUOUS
10
71.780820
20
-205.478225
30
0.0
11
74.027620
21
-205.361865
31
0.0
0
LINE
8
0
6
CONTINUOUS
10
72.699780
20
-161.214755
30
0.0
11
72.687220
21
-160.611155
31
0.0
0
LINE
8
0
6
CONTINUOUS
10
70.450520
20
-161.276435
30
0.0
11
72.699780
21
-161.214755
31
0.0
0
LINE
8
0
6
CONTINUOUS
10
70.437360
20
-160.672855
30
0.0
11
70.450520
21
-161.276435
31
0.0
0
LINE
8
0
6
CONTINUOUS
10
71.816000
20
-129.425185
30
0.0
11
71.790990
21
-128.821975
31
0.0
0
LINE
8
0
6
CONTINUOUS
10
69.569340
20
-129.553875
30
0.0
11
71.816000
21
-129.425185
31
0.0
0
LINE
8
0
6
CONTINUOUS
10
69.542560
20
-128.950755
30
0.0
11
69.569340
21
-129.553875
31
0.0
0
LINE
8
0
6
CONTINUOUS
10
65.150590
20
-167.797675
30
0.0
11
65.164650
21
-168.401245
31
0.0
0
LINE
8
0
6
CONTINUOUS
10
70.581240
20
-167.666585
30
0.0
11
65.150590
21
-167.797675
31
0.0
0
LINE
8
0
6
CONTINUOUS
10
70.594660
20
-168.270165
30
0.0
11
70.581240
21
-167.666585
31
0.0
0
LINE
8
0
6
CONTINUOUS
10
70.271020
20
-152.471355
30
0.0
11
70.284170
21
-153.074935
31
0.0
0
LINE
8
0
6
CONTINUOUS
10
72.520230
20
-152.409705
30
0.0
11
70.271020
21
-152.471355
31
0.0
0
LINE
8
0
6
CONTINUOUS
10
72.532790
20
-153.013305
30
0.0
11
72.520230
21
-152.409705
31
0.0
0
LINE
8
0
6
CONTINUOUS
10
69.214760
20
-120.753965
30
0.0
11
69.241550
21
-121.357085
31
0.0
0
LINE
8
0
6
CONTINUOUS
10
71.461320
20
-120.625285
30
0.0
11
69.214760
21
-120.753965
31
0.0
0
LINE
8
0
6
CONTINUOUS
10
71.486330
20
-121.228495
30
0.0
11
71.461320
21
-120.625285
31
0.0
0
LINE
8
0
6
CONTINUOUS
10
58.059490
20
-191.736065
30
0.0
11
60.308470
21
-191.666375
31
0.0
0
LINE
8
0
6
CONTINUOUS
10
58.040200
20
-191.132635
30
0.0
11
58.059490
21
-191.736065
31
0.0
0
LINE
8
0
6
CONTINUOUS
10
58.303220
20
-197.353055
30
0.0
11
58.330110
21
-197.956175
31
0.0
0
LINE
8
0
6
CONTINUOUS
10
60.550120
20
-197.238065
30
0.0
11
58.303220
21
-197.353055
31
0.0
0
LINE
8
0
6
CONTINUOUS
10
60.578730
20
-197.841105
30
0.0
11
60.550120
21
-197.238065
31
0.0
0
LINE
8
0
6
CONTINUOUS
10
57.159880
20
-152.767195
30
0.0
11
57.172430
21
-153.370795
31
0.0
0
LINE
8
0
6
CONTINUOUS
10
59.409610
20
-152.724135
30
0.0
11
57.159880
21
-152.767195
31
0.0
0
LINE
8
0
6
CONTINUOUS
10
59.422800
20
-153.327715
30
0.0
11
59.409610
21
-152.724135
31
0.0
0
LINE
8
0
6
CONTINUOUS
10
57.470160
20
-167.973155
30
0.0
11
57.482860
21
-168.576755
31
0.0
0
LINE
8
0
6
CONTINUOUS
10
59.719790
20
-167.924705
30
0.0
11
57.470160
21
-167.973155
31
0.0
0
LINE
8
0
6
CONTINUOUS
10
59.733120
20
-168.528285
30
0.0
11
59.719790
21
-167.924705
31
0.0
0
LINE
8
0
6
CONTINUOUS
10
56.116060
20
-121.365885
30
0.0
11
56.141040
21
-121.969095
31
0.0
0
LINE
8
0
6
CONTINUOUS
10
58.363920
20
-121.277675
30
0.0
11
56.116060
21
-121.365885
31
0.0
0
LINE
8
0
6
CONTINUOUS
10
58.390540
20
-121.880815
30
0.0
11
58.363920
21
-121.277675
31
0.0
0
LINE
8
0
6
CONTINUOUS
10
73.011360
20
-176.413135
30
0.0
11
72.998680
21
-175.809535
31
0.0
0
LINE
8
0
6
CONTINUOUS
10
70.762070
20
-176.471635
30
0.0
11
73.011360
21
-176.413135
31
0.0
0
LINE
8
0
6
CONTINUOUS
10
70.748660
20
-175.868055
30
0.0
11
70.762070
21
-176.471635
31
0.0
0
LINE
8
0
6
CONTINUOUS
10
71.780820
20
-205.478225
30
0.0
11
71.752220
21
-204.875185
31
0.0
0
LINE
8
0
6
CONTINUOUS
10
66.356360
20
-205.757765
30
0.0
11
71.780820
21
-205.478225
31
0.0
0
LINE
8
0
6
CONTINUOUS
10
56.757910
20
-137.317875
30
0.0
11
56.776200
21
-137.921325
31
0.0
0
LINE
8
0
6
CONTINUOUS
10
59.007320
20
-137.263745
30
0.0
11
56.757910
21
-137.317875
31
0.0
0
LINE
8
0
6
CONTINUOUS
10
65.019830
20
-161.406635
30
0.0
11
65.006040
21
-160.803065
31
0.0
0
LINE
8
0
6
CONTINUOUS
10
59.588930
20
-161.529215
30
0.0
11
65.019830
21
-161.406635
31
0.0
0
LINE
8
0
6
CONTINUOUS
10
59.575740
20
-160.925635
30
0.0
11
59.588930
21
-161.529215
31
0.0
0
LINE
8
0
6
CONTINUOUS
10
64.143960
20
-129.824135
30
0.0
11
64.115560
21
-129.221075
31
0.0
0
LINE
8
0
6
CONTINUOUS
10
58.718060
20
-130.077605
30
0.0
11
64.143960
21
-129.824135
31
0.0
0
LINE
8
0
6
CONTINUOUS
10
58.691440
20
-129.474465
30
0.0
11
58.718060
21
-130.077605
31
0.0
0
LINE
8
0
6
CONTINUOUS
10
59.274050
20
-146.066225
30
0.0
11
64.704030
21
-145.907425
31
0.0
0
LINE
8
0
6
CONTINUOUS
10
65.331530
20
-176.602725
30
0.0
11
65.317470
21
-175.999165
31
0.0
0
LINE
8
0
6
CONTINUOUS
10
59.900850
20
-176.729755
30
0.0
11
65.331530
21
-176.602725
31
0.0
0
LINE
8
0
6
CONTINUOUS
10
59.887520
20
-176.126175
30
0.0
11
59.900850
21
-176.729755
31
0.0
0
LINE
8
0
6
CONTINUOUS
10
59.007320
20
-137.263745
30
0.0
11
59.025610
21
-137.867195
31
0.0
0
LINE
8
0
6
CONTINUOUS
10
64.437150
20
-137.104935
30
0.0
11
59.007320
21
-137.263745
31
0.0
0
LINE
8
0
6
CONTINUOUS
10
55.674750
20
-113.991635
30
0.0
11
57.919210
21
-113.851175
31
0.0
0
LINE
8
0
6
CONTINUOUS
10
55.627980
20
-113.389725
30
0.0
11
55.674750
21
-113.991635
31
0.0
0
LINE
8
0
6
CONTINUOUS
10
54.988500
20
-105.211605
30
0.0
11
55.035280
21
-105.813515
31
0.0
0
LINE
8
0
6
CONTINUOUS
10
57.232850
20
-105.071155
30
0.0
11
54.988500
21
-105.211605
31
0.0
0
LINE
8
0
6
CONTINUOUS
10
57.279010
20
-105.673105
30
0.0
11
57.232850
21
-105.071155
31
0.0
0
LINE
8
0
6
CONTINUOUS
10
66.356360
20
-205.757765
30
0.0
11
66.326030
21
-205.154795
31
0.0
0
LINE
8
0
6
CONTINUOUS
10
60.931890
20
-206.036855
30
0.0
11
66.356360
21
-205.757765
31
0.0
0
LINE
8
0
6
CONTINUOUS
10
60.903280
20
-205.433805
30
0.0
11
60.931890
21
-206.036855
31
0.0
0
LINE
8
0
6
CONTINUOUS
10
63.335820
20
-113.456215
30
0.0
11
68.751520
21
-113.038065
31
0.0
0
LINE
8
0
6
CONTINUOUS
10
70.993700
20
-112.841765
30
0.0
11
70.946880
21
-112.239865
31
0.0
0
LINE
8
0
6
CONTINUOUS
10
68.751520
20
-113.038065
30
0.0
11
70.993700
21
-112.841765
31
0.0
0
LINE
8
0
6
CONTINUOUS
10
68.705420
20
-112.436105
30
0.0
11
68.751520
21
-113.038065
31
0.0
0
LINE
8
0
6
CONTINUOUS
10
63.335820
20
-113.456215
30
0.0
11
63.290350
21
-112.854205
31
0.0
0
LINE
8
0
6
CONTINUOUS
10
57.919210
20
-113.851175
30
0.0
11
63.335820
21
-113.456215
31
0.0
0
LINE
8
0
6
CONTINUOUS
10
57.873040
20
-113.249225
30
0.0
11
57.919210
21
-113.851175
31
0.0
0
LINE
8
0
6
CONTINUOUS
10
70.306610
20
-104.061815
30
0.0
11
68.064560
21
-104.258085
31
0.0
0
LINE
8
0
6
CONTINUOUS
10
70.353430
20
-104.663715
30
0.0
11
70.306610
21
-104.061815
31
0.0
0
LINE
8
0
6
CONTINUOUS
10
62.649170
20
-104.676205
30
0.0
11
62.694640
21
-105.278215
31
0.0
0
LINE
8
0
6
CONTINUOUS
10
68.064560
20
-104.258085
30
0.0
11
62.649170
21
-104.676205
31
0.0
0
LINE
8
0
6
CONTINUOUS
10
68.110660
20
-104.860045
30
0.0
11
68.064560
21
-104.258085
31
0.0
0
LINE
8
0
6
CONTINUOUS
10
51.231350
20
-71.928485
30
0.0
11
51.311700
21
-72.526825
31
0.0
0
LINE
8
0
6
CONTINUOUS
10
53.460220
20
-71.651115
30
0.0
11
51.231350
21
-71.928485
31
0.0
0
LINE
8
0
6
CONTINUOUS
10
53.542960
20
-72.249145
30
0.0
11
53.460220
21
-71.651115
31
0.0
0
LINE
8
0
6
CONTINUOUS
10
65.367070
20
-78.828615
30
0.0
11
65.284120
21
-78.230645
31
0.0
0
LINE
8
0
6
CONTINUOUS
10
59.993490
20
-79.623535
30
0.0
11
65.367070
21
-78.828615
31
0.0
0
LINE
8
0
6
CONTINUOUS
10
58.835880
20
-70.892915
30
0.0
11
58.921200
21
-71.490575
31
0.0
0
LINE
8
0
6
CONTINUOUS
10
64.209130
20
-70.098025
30
0.0
11
58.835880
21
-70.892915
31
0.0
0
LINE
8
0
6
CONTINUOUS
10
64.209130
20
-70.098025
30
0.0
11
64.292080
21
-70.695995
31
0.0
0
LINE
8
0
6
CONTINUOUS
10
66.432090
20
-69.732165
30
0.0
11
64.209130
21
-70.098025
31
0.0
0
LINE
8
0
6
CONTINUOUS
10
66.512490
20
-70.330505
30
0.0
11
66.432090
21
-69.732165
31
0.0
0
LINE
8
0
6
CONTINUOUS
10
59.993490
20
-79.623535
30
0.0
11
59.908170
21
-79.025875
31
0.0
0
LINE
8
0
6
CONTINUOUS
10
54.617490
20
-80.381775
30
0.0
11
59.993490
21
-79.623535
31
0.0
0
LINE
8
0
6
CONTINUOUS
10
54.534750
20
-79.783745
30
0.0
11
54.617490
21
-80.381775
31
0.0
0
LINE
8
0
6
CONTINUOUS
10
48.072580
20
-54.902445
30
0.0
11
48.191490
21
-55.494315
31
0.0
0
LINE
8
0
6
CONTINUOUS
10
50.284850
20
-54.529115
30
0.0
11
48.072580
21
-54.902445
31
0.0
0
LINE
8
0
6
CONTINUOUS
10
49.817170
20
-63.534525
30
0.0
11
52.029560
21
-63.161175
31
0.0
0
LINE
8
0
6
CONTINUOUS
10
49.698270
20
-62.942645
30
0.0
11
49.817170
21
-63.534525
31
0.0
0
LINE
8
0
6
CONTINUOUS
10
50.284850
20
-54.529115
30
0.0
11
50.402140
21
-55.121295
31
0.0
0
LINE
8
0
6
CONTINUOUS
10
55.617100
20
-53.518825
30
0.0
11
50.284850
21
-54.529115
31
0.0
0
LINE
8
0
6
CONTINUOUS
10
57.362120
20
-62.150825
30
0.0
11
62.690820
21
-61.095345
31
0.0
0
LINE
8
0
6
CONTINUOUS
10
55.617100
20
-53.518825
30
0.0
11
55.732650
21
-54.111365
31
0.0
0
LINE
8
0
6
CONTINUOUS
10
60.945490
20
-52.463415
30
0.0
11
55.617100
21
-53.518825
31
0.0
0
LINE
8
0
6
CONTINUOUS
10
64.893810
20
-60.613125
30
0.0
11
64.774860
21
-60.021255
31
0.0
0
LINE
8
0
6
CONTINUOUS
10
62.690820
20
-61.095345
30
0.0
11
64.893810
21
-60.613125
31
0.0
0
LINE
8
0
6
CONTINUOUS
10
62.573640
20
-60.503115
30
0.0
11
62.690820
21
-61.095345
31
0.0
0
LINE
8
0
6
CONTINUOUS
10
60.945490
20
-52.463415
30
0.0
11
61.062670
21
-53.055645
31
0.0
0
LINE
8
0
6
CONTINUOUS
10
63.148340
20
-51.981215
30
0.0
11
60.945490
21
-52.463415
31
0.0
0
LINE
8
0
6
CONTINUOUS
10
63.267290
20
-52.573075
30
0.0
11
63.148340
21
-51.981215
31
0.0
0
LINE
8
0
6
CONTINUOUS
10
57.362120
20
-62.150825
30
0.0
11
57.246570
21
-61.558285
31
0.0
0
LINE
8
0
6
CONTINUOUS
10
52.029560
20
-63.161175
30
0.0
11
57.362120
21
-62.150825
31
0.0
0
LINE
8
0
6
CONTINUOUS
10
51.912260
20
-62.569005
30
0.0
11
52.029560
21
-63.161175
31
0.0
0
LINE
8
0
6
CONTINUOUS
10
41.565280
20
-28.324965
30
0.0
11
41.887910
21
-28.239697
31
0.0
0
LINE
8
0
6
CONTINUOUS
10
41.398260
20
-27.744855
30
0.0
11
41.565280
21
-28.324965
31
0.0
0
LINE
8
0
6
CONTINUOUS
10
67.436510
20
-96.235165
30
0.0
11
67.373260
21
-95.634775
31
0.0
0
LINE
8
0
6
CONTINUOUS
10
62.034720
20
-96.818925
30
0.0
11
67.436510
21
-96.235165
31
0.0
0
LINE
8
0
6
CONTINUOUS
10
66.514040
20
-87.479645
30
0.0
11
61.112570
21
-88.063365
31
0.0
0
LINE
8
0
6
CONTINUOUS
10
70.133690
20
-145.736975
30
0.0
11
70.115390
21
-145.133535
31
0.0
0
LINE
8
0
6
CONTINUOUS
10
64.704030
20
-145.907425
30
0.0
11
70.133690
21
-145.736975
31
0.0
0
LINE
8
0
6
CONTINUOUS
10
64.685740
20
-145.303975
30
0.0
11
64.704030
21
-145.907425
31
0.0
0
LINE
8
0
6
CONTINUOUS
10
64.437150
20
-137.104935
30
0.0
11
64.455450
21
-137.708385
31
0.0
0
LINE
8
0
6
CONTINUOUS
10
69.866660
20
-136.934515
30
0.0
11
64.437150
21
-137.104935
31
0.0
0
LINE
8
0
6
CONTINUOUS
10
53.470120
20
-88.817705
30
0.0
11
53.533330
21
-89.418095
31
0.0
0
LINE
8
0
6
CONTINUOUS
10
55.709590
20
-88.617605
30
0.0
11
53.470120
21
-88.817705
31
0.0
0
LINE
8
0
6
CONTINUOUS
10
54.391840
20
-97.573315
30
0.0
11
56.631430
21
-97.373195
31
0.0
0
LINE
8
0
6
CONTINUOUS
10
54.328630
20
-96.972925
30
0.0
11
54.391840
21
-97.573315
31
0.0
0
LINE
8
0
6
CONTINUOUS
10
46.314490
20
-46.199795
30
0.0
11
48.507430
21
-45.731265
31
0.0
0
LINE
8
0
6
CONTINUOUS
10
46.171610
20
-45.613265
30
0.0
11
46.314490
21
-46.199795
31
0.0
0
LINE
8
0
6
CONTINUOUS
10
44.231710
20
-37.649395
30
0.0
11
44.374590
21
-38.235935
31
0.0
0
LINE
8
0
6
CONTINUOUS
10
44.600819
20
-37.570533
30
0.0
11
44.231710
21
-37.649395
31
0.0
0
LINE
8
0
6
CONTINUOUS
10
65.737880
20
-191.493735
30
0.0
11
71.167220
21
-191.319405
31
0.0
0
LINE
8
0
6
CONTINUOUS
10
70.886180
20
-182.517505
30
0.0
11
65.456660
21
-182.691845
31
0.0
0
LINE
8
0
6
CONTINUOUS
10
48.507430
20
-45.731265
30
0.0
11
53.788270
21
-44.472025
31
0.0
0
LINE
8
0
6
CONTINUOUS
10
48.364540
20
-45.144725
30
0.0
11
48.507430
21
-45.731265
31
0.0
0
LINE
8
0
6
CONTINUOUS
10
59.274050
20
-146.066225
30
0.0
11
59.255760
21
-145.462775
31
0.0
0
LINE
8
0
6
CONTINUOUS
10
57.024590
20
-146.120355
30
0.0
11
59.274050
21
-146.066225
31
0.0
0
LINE
8
0
6
CONTINUOUS
10
57.006300
20
-145.516905
30
0.0
11
57.024590
21
-146.120355
31
0.0
0
LINE
8
0
6
CONTINUOUS
10
57.778000
20
-182.934165
30
0.0
11
57.797290
21
-183.537595
31
0.0
0
LINE
8
0
6
CONTINUOUS
10
60.027060
20
-182.864475
30
0.0
11
57.778000
21
-182.934165
31
0.0
0
LINE
8
0
6
CONTINUOUS
10
66.514040
20
-87.479645
30
0.0
11
66.577290
21
-88.080045
31
0.0
0
LINE
8
0
6
CONTINUOUS
10
68.749940
20
-87.208415
30
0.0
11
66.514040
21
-87.479645
31
0.0
0
LINE
8
0
6
CONTINUOUS
10
68.813200
20
-87.808805
30
0.0
11
68.749940
21
-87.208415
31
0.0
0
LINE
8
0
6
CONTINUOUS
10
62.034720
20
-96.818925
30
0.0
11
61.971480
21
-96.218525
31
0.0
0
LINE
8
0
6
CONTINUOUS
10
56.631430
20
-97.373195
30
0.0
11
62.034720
21
-96.818925
31
0.0
0
LINE
8
0
6
CONTINUOUS
10
56.568210
20
-96.772805
30
0.0
11
56.631430
21
-97.373195
31
0.0
0
LINE
8
0
6
CONTINUOUS
10
73.416070
20
-191.245405
30
0.0
11
73.396810
21
-190.641975
31
0.0
0
LINE
8
0
6
CONTINUOUS
10
71.167220
20
-191.319405
30
0.0
11
73.416070
21
-191.245405
31
0.0
0
LINE
8
0
6
CONTINUOUS
10
71.147950
20
-190.715975
30
0.0
11
71.167220
21
-191.319405
31
0.0
0
LINE
8
0
6
CONTINUOUS
10
70.886180
20
-182.517505
30
0.0
11
70.905460
21
-183.120935
31
0.0
0
LINE
8
0
6
CONTINUOUS
10
73.135110
20
-182.443505
30
0.0
11
70.886180
21
-182.517505
31
0.0
0
LINE
8
0
6
CONTINUOUS
10
73.154380
20
-183.046935
30
0.0
11
73.135110
21
-182.443505
31
0.0
0
LINE
8
0
6
CONTINUOUS
10
55.709590
20
-88.617605
30
0.0
11
55.772810
21
-89.217995
31
0.0
0
LINE
8
0
6
CONTINUOUS
10
61.112570
20
-88.063365
30
0.0
11
55.709590
21
-88.617605
31
0.0
0
LINE
8
0
6
CONTINUOUS
10
61.175800
20
-88.663755
30
0.0
11
61.112570
21
-88.063365
31
0.0
0
LINE
8
0
6
CONTINUOUS
10
59.063560
20
-43.159685
30
0.0
11
58.920660
21
-42.573155
31
0.0
0
LINE
8
0
6
CONTINUOUS
10
53.788270
20
-44.472025
30
0.0
11
59.063560
21
-43.159685
31
0.0
0
LINE
8
0
6
CONTINUOUS
10
53.645380
20
-43.885495
30
0.0
11
53.788270
21
-44.472025
31
0.0
0
LINE
8
0
6
CONTINUOUS
10
65.737880
20
-191.493735
30
0.0
11
65.718600
21
-190.890315
31
0.0
0
LINE
8
0
6
CONTINUOUS
10
60.308470
20
-191.666375
30
0.0
11
65.737880
21
-191.493735
31
0.0
0
LINE
8
0
6
CONTINUOUS
10
60.289180
20
-191.062945
30
0.0
11
60.308470
21
-191.666375
31
0.0
0
LINE
8
0
6
CONTINUOUS
10
60.027060
20
-182.864475
30
0.0
11
60.046350
21
-183.467905
31
0.0
0
LINE
8
0
6
CONTINUOUS
10
65.456660
20
-182.691845
30
0.0
11
60.027060
21
-182.864475
31
0.0
0
LINE
8
0
6
CONTINUOUS
10
65.475940
20
-183.295265
30
0.0
11
65.456660
21
-182.691845
31
0.0
0
LINE
8
0
6
CONTINUOUS
10
69.866660
20
-136.934515
30
0.0
11
69.884960
21
-137.537965
31
0.0
0
LINE
8
0
6
CONTINUOUS
10
72.115320
20
-136.852215
30
0.0
11
69.866660
21
-136.934515
31
0.0
0
LINE
8
0
6
CONTINUOUS
10
72.133630
20
-137.455665
30
0.0
11
72.115320
21
-136.852215
31
0.0
0
LINE
8
0
6
CONTINUOUS
10
81.633600
20
-34.498255
30
0.0
11
82.481570
21
-34.312595
31
0.0
0
LINE
8
0
6
CONTINUOUS
10
35.234090
20
4.767985
30
0.0
11
33.798600
21
4.430995
31
0.0
0
LINE
8
0
6
CONTINUOUS
10
33.798600
20
4.430995
30
0.0
11
32.664980
21
4.164045
31
0.0
0
LINE
8
0
6
CONTINUOUS
10
42.344950
20
6.419635
30
0.0
11
40.523970
21
5.997805
31
0.0
0
LINE
8
0
6
CONTINUOUS
10
38.702920
20
5.575785
30
0.0
11
36.917110
21
5.160635
31
0.0
0
LINE
8
0
6
CONTINUOUS
10
40.523970
20
5.997805
30
0.0
11
38.702920
21
5.575785
31
0.0
0
LINE
8
0
6
CONTINUOUS
10
47.061420
20
-42.053105
30
0.0
11
47.257860
21
-42.009885
31
0.0
0
LINE
8
0
6
CONTINUOUS
10
46.947630
20
-42.077635
30
0.0
11
47.061420
21
-42.053105
31
0.0
0
LINE
8
0
6
CONTINUOUS
10
36.917110
20
5.160635
30
0.0
11
35.234090
21
4.767985
31
0.0
0
LINE
8
0
6
CONTINUOUS
10
82.476420
20
15.716975
30
0.0
11
81.630760
21
15.521045
31
0.0
0
LINE
8
0
6
CONTINUOUS
10
82.489160
20
14.720995
30
0.0
11
82.489300
21
15.661355
31
0.0
0
LINE
8
0
6
CONTINUOUS
10
44.165690
20
6.841465
30
0.0
11
42.344950
21
6.419635
31
0.0
0
LINE
8
0
6
CONTINUOUS
10
81.630760
20
15.521045
30
0.0
11
44.165690
21
6.841465
31
0.0
0
LINE
8
0
6
CONTINUOUS
10
66.563610
20
-37.797505
30
0.0
11
81.633600
21
-34.498255
31
0.0
0
LINE
8
0
6
CONTINUOUS
10
51.545890
20
-41.068075
30
0.0
11
53.171110
21
-40.711745
31
0.0
0
LINE
8
0
6
CONTINUOUS
10
53.171110
20
-40.711745
30
0.0
11
54.828320
21
-40.348895
31
0.0
0
LINE
8
0
6
CONTINUOUS
10
49.958540
20
-41.416325
30
0.0
11
51.545890
21
-41.068075
31
0.0
0
LINE
8
0
6
CONTINUOUS
10
58.080140
20
-39.637985
30
0.0
11
60.505580
21
-39.108735
31
0.0
0
LINE
8
0
6
CONTINUOUS
10
66.022860
20
-37.915875
30
0.0
11
66.563610
21
-37.797505
31
0.0
0
LINE
8
0
6
CONTINUOUS
10
65.581030
20
-38.008425
30
0.0
11
66.022860
21
-37.915875
31
0.0
0
LINE
8
0
6
CONTINUOUS
10
60.505580
20
-39.108735
30
0.0
11
62.631520
21
-38.645855
31
0.0
0
LINE
8
0
6
CONTINUOUS
10
46.098180
20
-42.260815
30
0.0
11
46.947630
21
-42.077635
31
0.0
0
LINE
8
0
6
CONTINUOUS
10
56.468390
20
-39.990235
30
0.0
11
58.080140
21
-39.637985
31
0.0
0
LINE
8
0
6
CONTINUOUS
10
48.457440
20
-41.746065
30
0.0
11
49.958540
21
-41.416325
31
0.0
0
LINE
8
0
6
CONTINUOUS
10
64.492550
20
-38.242305
30
0.0
11
65.581030
21
-38.008425
31
0.0
0
LINE
8
0
6
CONTINUOUS
10
54.828320
20
-40.348895
30
0.0
11
56.468390
21
-39.990235
31
0.0
0
LINE
8
0
6
CONTINUOUS
10
62.631520
20
-38.645855
30
0.0
11
64.492550
21
-38.242305
31
0.0
0
LINE
8
0
6
CONTINUOUS
10
32.479350
20
4.120325
30
0.0
11
32.733250
21
3.247035
31
0.0
0
LINE
8
0
6
CONTINUOUS
10
32.664980
20
4.164045
30
0.0
11
32.479350
21
4.120325
31
0.0
0
LINE
8
0
6
CONTINUOUS
10
32.733250
20
3.247035
30
0.0
11
45.675180
21
-41.265715
31
0.0
0
LINE
8
0
6
CONTINUOUS
10
45.675180
20
-41.265715
30
0.0
11
45.972380
21
-42.287985
31
0.0
0
LINE
8
0
6
CONTINUOUS
10
47.257860
20
-42.009885
30
0.0
11
48.457440
21
-41.746065
31
0.0
0
LINE
8
0
6
CONTINUOUS
10
-27.740230
20
183.773935
30
0.0
11
-28.595540
21
184.837115
31
0.0
0
LINE
8
0
6
CONTINUOUS
10
-28.595540
20
184.837115
30
0.0
11
-29.450470
21
185.899735
31
0.0
0
LINE
8
0
6
CONTINUOUS
10
-26.927590
20
182.763695
30
0.0
11
-27.740230
21
183.773935
31
0.0
0
LINE
8
0
6
CONTINUOUS
10
-26.198160
20
181.856845
30
0.0
11
-26.927590
21
182.763695
31
0.0
0
LINE
8
0
6
CONTINUOUS
10
-25.588610
20
181.098915
30
0.0
11
-26.198160
21
181.856845
31
0.0
0
LINE
8
0
6
CONTINUOUS
10
-25.129510
20
180.527995
30
0.0
11
-25.588610
21
181.098915
31
0.0
0
LINE
8
0
6
CONTINUOUS
10
-24.843880
20
180.172575
30
0.0
11
-25.129510
21
180.527995
31
0.0
0
LINE
8
0
6
CONTINUOUS
10
-30.989930
20
187.812905
30
0.0
11
-31.597350
21
188.567655
31
0.0
0
LINE
8
0
6
CONTINUOUS
10
-30.262110
20
186.908455
30
0.0
11
-30.989930
21
187.812905
31
0.0
0
LINE
8
0
6
CONTINUOUS
10
-29.450470
20
185.899735
30
0.0
11
-30.262110
21
186.908455
31
0.0
0
LINE
8
0
6
CONTINUOUS
10
-76.196440
20
191.877045
30
0.0
11
-71.695540
21
186.280615
31
0.0
0
LINE
8
0
6
CONTINUOUS
10
-53.992960
20
164.274115
30
0.0
11
-47.680130
21
156.427675
31
0.0
0
LINE
8
0
6
CONTINUOUS
10
-79.586490
20
196.093105
30
0.0
11
-76.196440
21
191.877045
31
0.0
0
LINE
8
0
6
CONTINUOUS
10
-60.308270
20
172.124205
30
0.0
11
-53.992960
21
164.274115
31
0.0
0
LINE
8
0
6
CONTINUOUS
10
-36.312220
20
142.300015
30
0.0
11
-31.827160
21
136.727125
31
0.0
0
LINE
8
0
6
CONTINUOUS
10
-66.309450
20
179.584385
30
0.0
11
-60.308270
21
172.124205
31
0.0
0
LINE
8
0
6
CONTINUOUS
10
-81.695690
20
198.717305
30
0.0
11
-79.586490
21
196.093105
31
0.0
0
LINE
8
0
6
CONTINUOUS
10
-41.686340
20
148.978495
30
0.0
11
-36.312220
21
142.300015
31
0.0
0
LINE
8
0
6
CONTINUOUS
10
-82.418270
20
199.618165
30
0.0
11
-81.695690
21
198.717305
31
0.0
0
LINE
8
0
6
CONTINUOUS
10
-82.489300
20
201.952425
30
0.0
11
-82.418270
21
199.618165
31
0.0
0
LINE
8
0
6
CONTINUOUS
10
-71.695540
20
186.280615
30
0.0
11
-66.309450
21
179.584385
31
0.0
0
LINE
8
0
6
CONTINUOUS
10
-47.680130
20
156.427675
30
0.0
11
-41.686340
21
148.978495
31
0.0
0
LINE
8
0
6
CONTINUOUS
10
-76.326770
20
191.010665
30
0.0
11
-71.901630
21
185.508425
31
0.0
0
LINE
8
0
6
CONTINUOUS
10
-42.274250
20
148.857835
30
0.0
11
-36.974870
21
142.272265
31
0.0
0
LINE
8
0
6
CONTINUOUS
10
-79.648020
20
195.318055
30
0.0
11
-76.326770
21
191.010665
31
0.0
0
LINE
8
0
6
CONTINUOUS
10
-18.993030
20
172.183445
30
0.0
11
-24.746020
21
180.050585
31
0.0
0
LINE
8
0
6
CONTINUOUS
10
-8.262190
20
155.702395
30
0.0
11
-13.499010
21
164.064435
31
0.0
0
LINE
8
0
6
CONTINUOUS
10
-78.389070
20
208.385625
30
0.0
11
-78.560280
21
208.247895
31
0.0
0
LINE
8
0
6
CONTINUOUS
10
-16.412120
20
130.999295
30
0.0
11
-16.240930
21
131.137055
31
0.0
0
LINE
8
0
6
CONTINUOUS
10
-48.184570
20
156.203335
30
0.0
11
-42.274250
21
148.857835
31
0.0
0
LINE
8
0
6
CONTINUOUS
10
-62.796840
20
218.098525
30
0.0
11
-64.179900
21
217.607705
31
0.0
0
LINE
8
0
6
CONTINUOUS
10
-45.684390
20
204.065575
30
0.0
11
-52.300570
21
210.572125
31
0.0
0
LINE
8
0
6
CONTINUOUS
10
-32.431450
20
189.603385
30
0.0
11
-38.992960
21
197.020645
31
0.0
0
LINE
8
0
6
CONTINUOUS
10
-38.992960
20
197.020645
30
0.0
11
-45.684390
21
204.065575
31
0.0
0
LINE
8
0
6
CONTINUOUS
10
-3.347845
20
144.427035
30
0.0
11
-2.932680
21
145.296985
31
0.0
0
LINE
8
0
6
CONTINUOUS
10
-61.707730
20
218.352925
30
0.0
11
-62.796840
21
218.098525
31
0.0
0
LINE
8
0
6
CONTINUOUS
10
-3.045560
20
146.906515
30
0.0
11
-8.262190
21
155.702395
31
0.0
0
LINE
8
0
6
CONTINUOUS
10
-52.300570
20
210.572125
30
0.0
11
-60.159720
21
217.898045
31
0.0
0
LINE
8
0
6
CONTINUOUS
10
-13.499010
20
164.064435
30
0.0
11
-18.993030
21
172.183445
31
0.0
0
LINE
8
0
6
CONTINUOUS
10
-2.921730
20
146.726165
30
0.0
11
-3.045560
21
146.906515
31
0.0
0
LINE
8
0
6
CONTINUOUS
10
-60.159720
20
217.898045
30
0.0
11
-60.309370
21
218.057555
31
0.0
0
LINE
8
0
6
CONTINUOUS
10
-16.906020
20
131.610225
30
0.0
11
-19.213220
21
134.475195
31
0.0
0
LINE
8
0
6
CONTINUOUS
10
-61.040270
20
186.458985
30
0.0
11
-66.991770
21
193.858105
31
0.0
0
LINE
8
0
6
CONTINUOUS
10
-78.041720
20
207.600445
30
0.0
11
-78.840140
21
208.595815
31
0.0
0
LINE
8
0
6
CONTINUOUS
10
-78.840140
20
208.595815
30
0.0
11
-78.937420
21
208.517595
31
0.0
0
LINE
8
0
6
CONTINUOUS
10
-33.832300
20
152.640145
30
0.0
11
-40.455260
21
160.871325
31
0.0
0
LINE
8
0
6
CONTINUOUS
10
-16.132240
20
130.651405
30
0.0
11
-16.906020
21
131.610225
31
0.0
0
LINE
8
0
6
CONTINUOUS
10
-16.229500
20
130.573145
30
0.0
11
-16.132240
21
130.651405
31
0.0
0
LINE
8
0
6
CONTINUOUS
10
-27.894000
20
145.260535
30
0.0
11
-33.832300
21
152.640145
31
0.0
0
LINE
8
0
6
CONTINUOUS
10
-54.409100
20
178.215615
30
0.0
11
-61.040270
21
186.458985
31
0.0
0
LINE
8
0
6
CONTINUOUS
10
-75.711100
20
204.700685
30
0.0
11
-78.041720
21
207.600445
31
0.0
0
LINE
8
0
6
CONTINUOUS
10
-22.938160
20
139.102665
30
0.0
11
-27.894000
21
145.260535
31
0.0
0
LINE
8
0
6
CONTINUOUS
10
-47.430840
20
169.541465
30
0.0
11
-54.409100
21
178.215615
31
0.0
0
LINE
8
0
6
CONTINUOUS
10
-71.965180
20
200.042075
30
0.0
11
-75.711100
21
204.700685
31
0.0
0
LINE
8
0
6
CONTINUOUS
10
-19.213220
20
134.475195
30
0.0
11
-22.938160
21
139.102665
31
0.0
0
LINE
8
0
6
CONTINUOUS
10
-40.455260
20
160.871325
30
0.0
11
-47.430840
21
169.541465
31
0.0
0
LINE
8
0
6
CONTINUOUS
10
-66.991770
20
193.858105
30
0.0
11
-71.965180
21
200.042075
31
0.0
0
LINE
8
0
6
CONTINUOUS
10
-82.099400
20
203.964745
30
0.0
11
-82.489300
21
201.952425
31
0.0
0
LINE
8
0
6
CONTINUOUS
10
-81.014800
20
206.247385
30
0.0
11
-82.099400
21
203.964745
31
0.0
0
LINE
8
0
6
CONTINUOUS
10
-79.706690
20
207.898655
30
0.0
11
-81.014800
21
206.247385
31
0.0
0
LINE
8
0
6
CONTINUOUS
10
-31.827160
20
136.727125
30
0.0
11
-28.456130
21
132.539305
31
0.0
0
LINE
8
0
6
CONTINUOUS
10
-26.368140
20
129.946515
30
0.0
11
-25.667860
21
129.078775
31
0.0
0
LINE
8
0
6
CONTINUOUS
10
-28.456130
20
132.539305
30
0.0
11
-26.368140
21
129.946515
31
0.0
0
LINE
8
0
6
CONTINUOUS
10
-78.937420
20
208.517595
30
0.0
11
-79.706690
21
207.898655
31
0.0
0
LINE
8
0
6
CONTINUOUS
10
-40.284060
20
161.009075
30
0.0
11
-33.661100
21
152.777895
31
0.0
0
LINE
8
0
6
CONTINUOUS
10
-66.820560
20
193.995875
30
0.0
11
-60.869060
21
186.596685
31
0.0
0
LINE
8
0
6
CONTINUOUS
10
-78.668960
20
208.733545
30
0.0
11
-77.870500
21
207.738135
31
0.0
0
LINE
8
0
6
CONTINUOUS
10
-78.478320
20
208.886895
30
0.0
11
-78.668960
21
208.733545
31
0.0
0
LINE
8
0
6
CONTINUOUS
10
-19.042010
20
134.612955
30
0.0
11
-16.734820
21
131.747965
31
0.0
0
LINE
8
0
6
CONTINUOUS
10
-77.870500
20
207.738135
30
0.0
11
-75.539910
21
204.838415
31
0.0
0
LINE
8
0
6
CONTINUOUS
10
-60.869060
20
186.596685
30
0.0
11
-54.237920
21
178.353345
31
0.0
0
LINE
8
0
6
CONTINUOUS
10
-33.661100
20
152.777895
30
0.0
11
-27.722820
21
145.398325
31
0.0
0
LINE
8
0
6
CONTINUOUS
10
-15.961050
20
130.789135
30
0.0
11
-15.770400
21
130.942515
31
0.0
0
LINE
8
0
6
CONTINUOUS
10
-16.734820
20
131.747965
30
0.0
11
-15.961050
21
130.789135
31
0.0
0
LINE
8
0
6
CONTINUOUS
10
-54.237920
20
178.353345
30
0.0
11
-47.259620
21
169.679175
31
0.0
0
LINE
8
0
6
CONTINUOUS
10
-75.539910
20
204.838415
30
0.0
11
-71.793980
21
200.179805
31
0.0
0
LINE
8
0
6
CONTINUOUS
10
-27.722820
20
145.398325
30
0.0
11
-22.766930
21
139.240385
31
0.0
0
LINE
8
0
6
CONTINUOUS
10
-71.793980
20
200.179805
30
0.0
11
-66.820560
21
193.995875
31
0.0
0
LINE
8
0
6
CONTINUOUS
10
-47.259620
20
169.679175
30
0.0
11
-40.284060
21
161.009075
31
0.0
0
LINE
8
0
6
CONTINUOUS
10
-22.766930
20
139.240385
30
0.0
11
-19.042010
21
134.612955
31
0.0
0
LINE
8
0
6
CONTINUOUS
10
-67.224810
20
216.228585
30
0.0
11
-70.173150
21
214.667475
31
0.0
0
LINE
8
0
6
CONTINUOUS
10
-2.907340
20
146.309135
30
0.0
11
-2.921730
21
146.726165
31
0.0
0
LINE
8
0
6
CONTINUOUS
10
-2.925050
20
145.422245
30
0.0
11
-2.907340
21
146.309135
31
0.0
0
LINE
8
0
6
CONTINUOUS
10
-2.932680
20
145.296985
30
0.0
11
-2.925050
21
145.422245
31
0.0
0
LINE
8
0
6
CONTINUOUS
10
-60.309370
20
218.057555
30
0.0
11
-60.713630
21
218.160935
31
0.0
0
LINE
8
0
6
CONTINUOUS
10
-60.713630
20
218.160935
30
0.0
11
-61.583730
21
218.333535
31
0.0
0
LINE
8
0
6
CONTINUOUS
10
-61.583730
20
218.333535
30
0.0
11
-61.707730
21
218.352925
31
0.0
0
LINE
8
0
6
CONTINUOUS
10
-64.179900
20
217.607705
30
0.0
11
-67.224810
21
216.228585
31
0.0
0
LINE
8
0
6
CONTINUOUS
10
-70.173150
20
214.667475
30
0.0
11
-73.010290
21
212.958625
31
0.0
0
LINE
8
0
6
CONTINUOUS
10
-15.770400
20
130.942515
30
0.0
11
-15.275823
21
131.371871
31
0.0
0
LINE
8
0
6
CONTINUOUS
10
-73.010290
20
212.958625
30
0.0
11
-78.478320
21
208.886895
31
0.0
0
LINE
8
0
6
CONTINUOUS
10
-54.496150
20
163.871205
30
0.0
11
-48.184570
21
156.203335
31
0.0
0
LINE
8
0
6
CONTINUOUS
10
-36.974870
20
142.272265
30
0.0
11
-32.635520
21
136.785145
31
0.0
0
LINE
8
0
6
CONTINUOUS
10
-32.635520
20
136.785145
30
0.0
11
-29.315090
21
132.659715
31
0.0
0
LINE
8
0
6
CONTINUOUS
10
-26.562190
20
129.249985
30
0.0
11
-25.593660
21
129.790015
31
0.0
0
LINE
8
0
6
CONTINUOUS
10
-27.168460
20
130.089775
30
0.0
11
-26.562190
21
129.249985
31
0.0
0
LINE
8
0
6
CONTINUOUS
10
-60.705410
20
171.589445
30
0.0
11
-54.496150
21
163.871205
31
0.0
0
LINE
8
0
6
CONTINUOUS
10
-66.605780
20
178.924385
30
0.0
11
-60.705410
21
171.589445
31
0.0
0
LINE
8
0
6
CONTINUOUS
10
-71.901630
20
185.508425
30
0.0
11
-66.605780
21
178.924385
31
0.0
0
LINE
8
0
6
CONTINUOUS
10
-82.442590
20
198.707945
30
0.0
11
-81.734920
21
197.737585
31
0.0
0
LINE
8
0
6
CONTINUOUS
10
-81.707650
20
199.538345
30
0.0
11
-82.442590
21
198.707945
31
0.0
0
LINE
8
0
6
CONTINUOUS
10
-10.540430
20
117.453275
30
0.0
11
-11.415790
21
115.875755
31
0.0
0
LINE
8
0
6
CONTINUOUS
10
4.592420
20
129.650415
30
0.0
11
4.324770
21
129.635135
31
0.0
0
LINE
8
0
6
CONTINUOUS
10
-10.709230
20
116.437145
30
0.0
11
-10.059400
21
116.955335
31
0.0
0
LINE
8
0
6
CONTINUOUS
10
28.351560
20
13.018305
30
0.0
11
28.575320
21
13.071925
31
0.0
0
LINE
8
0
6
CONTINUOUS
10
41.832020
20
16.354845
30
0.0
11
42.564530
21
16.536985
31
0.0
0
LINE
8
0
6
CONTINUOUS
10
-5.672890
20
120.477475
30
0.0
11
-0.379370
21
124.737035
31
0.0
0
LINE
8
0
6
CONTINUOUS
10
-5.646920
20
121.581925
30
0.0
11
-1.016040
21
125.316915
31
0.0
0
LINE
8
0
6
CONTINUOUS
10
-6.240010
20
120.021085
30
0.0
11
-5.672890
21
120.477475
31
0.0
0
LINE
8
0
6
CONTINUOUS
10
34.720550
20
14.586765
30
0.0
11
41.832020
21
16.354845
31
0.0
0
LINE
8
0
6
CONTINUOUS
10
4.207430
20
129.540485
30
0.0
11
3.999830
21
129.949545
31
0.0
0
LINE
8
0
6
CONTINUOUS
10
-9.683930
20
118.912705
30
0.0
11
-9.494220
21
118.490015
31
0.0
0
LINE
8
0
6
CONTINUOUS
10
-7.921050
20
120.324465
30
0.0
11
-7.720850
21
119.910345
31
0.0
0
LINE
8
0
6
CONTINUOUS
10
-6.143050
20
121.181775
30
0.0
11
-5.646920
21
121.581925
31
0.0
0
LINE
8
0
6
CONTINUOUS
10
2.299330
20
127.992645
30
0.0
11
2.093850
21
128.403085
31
0.0
0
LINE
8
0
6
CONTINUOUS
10
6.431340
20
128.138345
30
0.0
11
6.274420
21
128.531905
31
0.0
0
LINE
8
0
6
CONTINUOUS
10
-10.346570
20
117.802605
30
0.0
11
-10.540430
21
117.453275
31
0.0
0
LINE
8
0
6
CONTINUOUS
10
-11.415790
20
115.875755
30
0.0
11
-10.997330
21
114.703215
31
0.0
0
LINE
8
0
6
CONTINUOUS
10
-11.232800
20
116.020145
30
0.0
11
-11.415790
21
115.875755
31
0.0
0
LINE
8
0
6
CONTINUOUS
10
-11.232800
20
116.020145
30
0.0
11
-10.709230
21
116.437145
31
0.0
0
LINE
8
0
6
CONTINUOUS
10
-10.059400
20
116.955335
30
0.0
11
-9.957520
21
117.036565
31
0.0
0
LINE
8
0
6
CONTINUOUS
10
-9.957520
20
117.036565
30
0.0
11
-8.670860
21
118.067345
31
0.0
0
LINE
8
0
6
CONTINUOUS
10
-8.670860
20
118.067345
30
0.0
11
-8.229260
21
116.897745
31
0.0
0
LINE
8
0
6
CONTINUOUS
10
-8.670860
20
118.067345
30
0.0
11
-6.240010
21
120.021085
31
0.0
0
LINE
8
0
6
CONTINUOUS
10
-0.379370
20
124.737035
30
0.0
11
0.165870
21
125.175795
31
0.0
0
LINE
8
0
6
CONTINUOUS
10
0.165870
20
125.175795
30
0.0
11
3.698060
21
128.021415
31
0.0
0
LINE
8
0
6
CONTINUOUS
10
3.698060
20
128.021415
30
0.0
11
4.155040
21
126.832295
31
0.0
0
LINE
8
0
6
CONTINUOUS
10
3.698060
20
128.021415
30
0.0
11
4.870930
21
128.966065
31
0.0
0
LINE
8
0
6
CONTINUOUS
10
4.870930
20
128.966065
30
0.0
11
5.544680
21
129.510325
31
0.0
0
LINE
8
0
6
CONTINUOUS
10
6.274420
20
128.531905
30
0.0
11
5.801020
21
129.719415
31
0.0
0
LINE
8
0
6
CONTINUOUS
10
5.801020
20
129.719415
30
0.0
11
4.592420
21
129.650415
31
0.0
0
LINE
8
0
6
CONTINUOUS
10
5.544680
20
129.510325
30
0.0
11
5.801020
21
129.719415
31
0.0
0
LINE
8
0
6
CONTINUOUS
10
25.854000
20
12.425555
30
0.0
11
26.924370
21
12.676235
31
0.0
0
LINE
8
0
6
CONTINUOUS
10
25.530890
20
12.361055
30
0.0
11
25.854000
21
12.425555
31
0.0
0
LINE
8
0
6
CONTINUOUS
10
25.278380
20
13.068655
30
0.0
11
25.530890
21
12.361055
31
0.0
0
LINE
8
0
6
CONTINUOUS
10
26.924370
20
12.676235
30
0.0
11
28.351560
21
13.018305
31
0.0
0
LINE
8
0
6
CONTINUOUS
10
28.575320
20
13.071925
30
0.0
11
30.763830
21
13.605855
31
0.0
0
LINE
8
0
6
CONTINUOUS
10
30.763830
20
13.605855
30
0.0
11
33.958650
21
14.397345
31
0.0
0
LINE
8
0
6
CONTINUOUS
10
30.493630
20
14.322645
30
0.0
11
30.763830
21
13.605855
31
0.0
0
LINE
8
0
6
CONTINUOUS
10
33.958650
20
14.397345
30
0.0
11
34.720550
21
14.586765
31
0.0
0
LINE
8
0
6
CONTINUOUS
10
42.564530
20
16.536985
30
0.0
11
46.187470
21
17.443395
31
0.0
0
LINE
8
0
6
CONTINUOUS
10
46.187470
20
17.443395
30
0.0
11
48.396590
21
18.006965
31
0.0
0
LINE
8
0
6
CONTINUOUS
10
3.999830
20
129.949545
30
0.0
11
-3.347845
21
144.427035
31
0.0
0
LINE
8
0
6
CONTINUOUS
10
-10.997330
20
114.703215
30
0.0
11
-10.866680
21
114.337135
31
0.0
0
LINE
8
0
6
CONTINUOUS
10
-8.089900
20
116.528665
30
0.0
11
-8.229260
21
116.897745
31
0.0
0
LINE
8
0
6
CONTINUOUS
10
4.155040
20
126.832295
30
0.0
11
4.305270
21
126.441385
31
0.0
0
LINE
8
0
6
CONTINUOUS
10
-0.539050
20
125.701635
30
0.0
11
-1.016040
21
125.316915
31
0.0
0
LINE
8
0
6
CONTINUOUS
10
49.851470
20
19.241405
30
0.0
11
6.431340
21
128.138345
31
0.0
0
LINE
8
0
6
CONTINUOUS
10
2.504480
20
128.157835
30
0.0
11
3.455220
21
128.926715
31
0.0
0
LINE
8
0
6
CONTINUOUS
10
3.455220
20
128.926715
30
0.0
11
4.080760
21
129.434955
31
0.0
0
LINE
8
0
6
CONTINUOUS
10
4.207430
20
129.540485
30
0.0
11
3.897070
21
129.286845
31
0.0
0
LINE
8
0
6
CONTINUOUS
10
4.080760
20
129.434955
30
0.0
11
4.324770
21
129.635135
31
0.0
0
LINE
8
0
6
CONTINUOUS
10
49.666730
20
18.339025
30
0.0
11
50.156120
21
18.477755
31
0.0
0
LINE
8
0
6
CONTINUOUS
10
50.156120
20
18.477755
30
0.0
11
49.851470
21
19.241405
31
0.0
0
LINE
8
0
6
CONTINUOUS
10
48.396590
20
18.006965
30
0.0
11
49.666730
21
18.339025
31
0.0
0
LINE
8
0
6
CONTINUOUS
10
-6.030790
20
144.631035
30
0.0
11
2.093850
21
128.403085
31
0.0
0
LINE
8
0
6
CONTINUOUS
10
-7.921050
20
120.324465
30
0.0
11
-13.857442
21
132.603208
31
0.0
0
LINE
8
0
6
CONTINUOUS
10
-10.866680
20
114.337135
30
0.0
11
25.278380
21
13.068655
31
0.0
0
LINE
8
0
6
CONTINUOUS
10
30.493630
20
14.322645
30
0.0
11
-8.089900
21
116.528665
31
0.0
0
LINE
8
0
6
CONTINUOUS
10
-9.694190
20
118.356115
30
0.0
11
-10.182910
21
117.947935
31
0.0
0
LINE
8
0
6
CONTINUOUS
10
-10.182910
20
117.947935
30
0.0
11
-10.346570
21
117.802605
31
0.0
0
LINE
8
0
6
CONTINUOUS
10
-6.143050
20
121.181775
30
0.0
11
-7.720850
21
119.910345
31
0.0
0
LINE
8
0
6
CONTINUOUS
10
-15.275823
20
131.371871
30
0.0
11
-9.683930
21
118.912705
31
0.0
0
LINE
8
0
6
CONTINUOUS
10
-29.315090
20
132.659715
30
0.0
11
-27.168460
21
130.089775
31
0.0
0
LINE
8
0
6
CONTINUOUS
10
-26.842980
20
124.493025
30
0.0
11
-26.896250
21
124.335945
31
0.0
0
LINE
8
0
6
CONTINUOUS
10
-21.301250
20
117.381515
30
0.0
11
-21.217500
21
117.500725
31
0.0
0
LINE
8
0
6
CONTINUOUS
10
-27.736450
20
123.190735
30
0.0
11
-27.942730
21
122.891465
31
0.0
0
LINE
8
0
6
CONTINUOUS
10
-22.897220
20
115.012345
30
0.0
11
-22.731820
21
115.224115
31
0.0
0
LINE
8
0
6
CONTINUOUS
10
-23.646470
20
115.943635
30
0.0
11
-22.897220
21
115.012345
31
0.0
0
LINE
8
0
6
CONTINUOUS
10
-22.731820
20
115.224115
30
0.0
11
-22.263030
21
115.830495
31
0.0
0
LINE
8
0
6
CONTINUOUS
10
-26.896250
20
124.335945
30
0.0
11
-27.937620
21
122.883905
31
0.0
0
LINE
8
0
6
CONTINUOUS
10
-23.017540
20
116.768355
30
0.0
11
-27.258490
21
122.039755
31
0.0
0
LINE
8
0
6
CONTINUOUS
10
-25.590170
20
129.080755
30
0.0
11
-25.854050
21
127.960045
31
0.0
0
LINE
8
0
6
CONTINUOUS
10
-25.854050
20
127.960045
30
0.0
11
-26.069050
21
126.774175
31
0.0
0
LINE
8
0
6
CONTINUOUS
10
-26.069050
20
126.774175
30
0.0
11
-26.842980
21
124.493025
31
0.0
0
LINE
8
0
6
CONTINUOUS
10
-25.570215
20
129.228744
30
0.0
11
-25.590170
21
129.080755
31
0.0
0
LINE
8
0
6
CONTINUOUS
10
-26.875880
20
124.378495
30
0.0
11
-27.736450
21
123.190735
31
0.0
0
LINE
8
0
6
CONTINUOUS
10
-22.032600
20
116.140665
30
0.0
11
-21.301250
21
117.381515
31
0.0
0
LINE
8
0
6
CONTINUOUS
10
-22.263030
20
115.830495
30
0.0
11
-22.032600
21
116.140665
31
0.0
0
LINE
8
0
6
CONTINUOUS
10
-22.263030
20
115.830495
30
0.0
11
-21.301250
21
117.381515
31
0.0
0
LINE
8
0
6
CONTINUOUS
10
-23.017540
20
116.768355
30
0.0
11
-22.263030
21
115.830495
31
0.0
0
LINE
8
0
6
CONTINUOUS
10
-28.532200
20
122.016465
30
0.0
11
-27.857820
21
121.178235
31
0.0
0
LINE
8
0
6
CONTINUOUS
10
-28.376810
20
122.240645
30
0.0
11
-28.532200
21
122.016465
31
0.0
0
LINE
8
0
6
CONTINUOUS
10
-27.937620
20
122.883905
30
0.0
11
-28.376810
21
122.240645
31
0.0
0
LINE
8
0
6
CONTINUOUS
10
-27.258490
20
122.039755
30
0.0
11
-27.937620
21
122.883905
31
0.0
0
LINE
8
0
6
CONTINUOUS
10
-18.046470
20
123.049255
30
0.0
11
-16.917180
21
126.694895
31
0.0
0
LINE
8
0
6
CONTINUOUS
10
-20.001300
20
119.232115
30
0.0
11
-18.046470
21
123.049255
31
0.0
0
LINE
8
0
6
CONTINUOUS
10
-21.217500
20
117.500725
30
0.0
11
-20.001300
21
119.232115
31
0.0
0
LINE
8
0
6
CONTINUOUS
10
-16.917180
20
126.694895
30
0.0
11
-16.565250
21
130.664083
31
0.0
0
LINE
8
0
6
CONTINUOUS
10
-27.857820
20
121.178235
30
0.0
11
-23.646470
21
115.943635
31
0.0
0
LINE
8
0
6
CONTINUOUS
10
-62.265190
20
167.965655
30
0.0
11
-61.756950
21
167.333535
31
0.0
0
LINE
8
0
6
CONTINUOUS
10
-76.120150
20
187.500225
30
0.0
11
-75.590988
21
187.927522
31
0.0
0
LINE
8
0
6
CONTINUOUS
10
-76.835330
20
188.388975
30
0.0
11
-76.120150
21
187.500225
31
0.0
0
LINE
8
0
6
CONTINUOUS
10
-77.556000
20
189.284955
30
0.0
11
-76.835330
21
188.388975
31
0.0
0
LINE
8
0
6
CONTINUOUS
10
-66.087210
20
172.713955
30
0.0
11
-65.149760
21
171.548585
31
0.0
0
LINE
8
0
6
CONTINUOUS
10
-67.938040
20
175.004375
30
0.0
11
-67.000620
21
173.839025
31
0.0
0
LINE
8
0
6
CONTINUOUS
10
-68.111040
20
175.219835
30
0.0
11
-67.938040
21
175.004375
31
0.0
0
LINE
8
0
6
CONTINUOUS
10
-71.130200
20
179.778305
30
0.0
11
-70.389790
21
178.858265
31
0.0
0
LINE
8
0
6
CONTINUOUS
10
-72.038210
20
180.907095
30
0.0
11
-71.130200
21
179.778305
31
0.0
0
LINE
8
0
6
CONTINUOUS
10
-72.038210
20
180.907095
30
0.0
11
-71.174866
21
181.602749
31
0.0
0
LINE
8
0
6
CONTINUOUS
10
-72.205770
20
181.115785
30
0.0
11
-72.038210
21
180.907095
31
0.0
0
LINE
8
0
6
CONTINUOUS
10
-71.326405
20
181.824348
30
0.0
11
-72.205770
21
181.115785
31
0.0
0
LINE
8
0
6
CONTINUOUS
10
-75.650440
20
186.206665
30
0.0
11
-74.871500
21
185.238325
31
0.0
0
LINE
8
0
6
CONTINUOUS
10
-75.650440
20
186.206665
30
0.0
11
-74.837585
21
186.861494
31
0.0
0
LINE
8
0
6
CONTINUOUS
10
-75.794180
20
186.385675
30
0.0
11
-75.650440
21
186.206665
31
0.0
0
LINE
8
0
6
CONTINUOUS
10
-74.944508
20
187.070172
30
0.0
11
-75.794180
21
186.385675
31
0.0
0
LINE
8
0
6
CONTINUOUS
10
-77.908020
20
189.711055
30
0.0
11
-77.234788
21
190.253415
31
0.0
0
LINE
8
0
6
CONTINUOUS
10
-78.543210
20
190.500395
30
0.0
11
-77.908020
21
189.711055
31
0.0
0
LINE
8
0
6
CONTINUOUS
10
-78.543210
20
190.500395
30
0.0
11
-77.820697
21
191.082447
31
0.0
0
LINE
8
0
6
CONTINUOUS
10
-79.322170
20
191.468715
30
0.0
11
-78.543210
21
190.500395
31
0.0
0
LINE
8
0
6
CONTINUOUS
10
-76.151560
20
187.552735
30
0.0
11
-75.625579
21
187.976465
31
0.0
0
LINE
8
0
6
CONTINUOUS
10
-76.786750
20
188.342015
30
0.0
11
-76.151560
21
187.552735
31
0.0
0
LINE
8
0
6
CONTINUOUS
10
-76.786750
20
188.342015
30
0.0
11
-76.211465
21
188.805465
31
0.0
0
LINE
8
0
6
CONTINUOUS
10
-77.565710
20
189.310345
30
0.0
11
-76.786750
21
188.342015
31
0.0
0
LINE
8
0
6
CONTINUOUS
10
-77.565710
20
189.310345
30
0.0
11
-76.930144
21
189.822360
31
0.0
0
LINE
8
0
6
CONTINUOUS
10
-77.709450
20
189.489365
30
0.0
11
-77.565710
21
189.310345
31
0.0
0
LINE
8
0
6
CONTINUOUS
10
-76.862126
20
190.171977
30
0.0
11
-77.709450
21
189.489365
31
0.0
0
LINE
8
0
6
CONTINUOUS
10
-65.685500
20
172.217095
30
0.0
11
-64.966519
21
172.796462
31
0.0
0
LINE
8
0
6
CONTINUOUS
10
-66.449930
20
173.166995
30
0.0
11
-65.685500
21
172.217095
31
0.0
0
LINE
8
0
6
CONTINUOUS
10
-66.449930
20
173.166995
30
0.0
11
-65.699366
21
173.771818
31
0.0
0
LINE
8
0
6
CONTINUOUS
10
-67.387370
20
174.332385
30
0.0
11
-66.449930
21
173.166995
31
0.0
0
LINE
8
0
6
CONTINUOUS
10
-67.560370
20
174.547855
30
0.0
11
-67.387370
21
174.332385
31
0.0
0
LINE
8
0
6
CONTINUOUS
10
-40.666260
20
143.445575
30
0.0
11
-39.838470
21
142.416635
31
0.0
0
LINE
8
0
6
CONTINUOUS
10
-39.386270
20
141.854875
30
0.0
11
-39.116571
21
142.069544
31
0.0
0
LINE
8
0
6
CONTINUOUS
10
-39.838470
20
142.416635
30
0.0
11
-39.386270
21
141.854875
31
0.0
0
LINE
8
0
6
CONTINUOUS
10
-38.949663
20
143.124082
30
0.0
11
-39.838470
21
142.416635
31
0.0
0
LINE
8
0
6
CONTINUOUS
10
-43.768770
20
147.283255
30
0.0
11
-42.085386
21
148.623132
31
0.0
0
LINE
8
0
6
CONTINUOUS
10
-44.220940
20
147.844995
30
0.0
11
-43.768770
21
147.283255
31
0.0
0
LINE
8
0
6
CONTINUOUS
10
-50.002730
20
155.032725
30
0.0
11
-49.174920
21
154.003725
31
0.0
0
LINE
8
0
6
CONTINUOUS
10
-49.174920
20
154.003725
30
0.0
11
-48.722720
21
153.441975
31
0.0
0
LINE
8
0
6
CONTINUOUS
10
-48.296886
20
154.702604
30
0.0
11
-49.174920
21
154.003725
31
0.0
0
LINE
8
0
6
CONTINUOUS
10
-51.612740
20
156.338035
30
0.0
11
-51.119040
21
155.724075
31
0.0
0
LINE
8
0
6
CONTINUOUS
10
-50.831704
20
156.960778
30
0.0
11
-51.612740
21
156.338035
31
0.0
0
LINE
8
0
6
CONTINUOUS
10
-50.295450
20
154.700425
30
0.0
11
-49.965570
21
154.290685
31
0.0
0
LINE
8
0
6
CONTINUOUS
10
-46.730690
20
150.254585
30
0.0
11
-46.236970
21
149.640645
31
0.0
0
LINE
8
0
6
CONTINUOUS
10
-45.963444
20
150.866333
30
0.0
11
-46.730690
21
150.254585
31
0.0
0
LINE
8
0
6
CONTINUOUS
10
-46.236970
20
149.640645
30
0.0
11
-45.413380
21
148.616995
31
0.0
0
LINE
8
0
6
CONTINUOUS
10
-45.405063
20
150.303957
30
0.0
11
-46.222296
21
149.652346
31
0.0
0
LINE
8
0
6
CONTINUOUS
10
-45.083500
20
148.207295
30
0.0
11
-44.975339
21
148.293535
31
0.0
0
LINE
8
0
6
CONTINUOUS
10
-45.413380
20
148.616995
30
0.0
11
-45.083500
21
148.207295
31
0.0
0
LINE
8
0
6
CONTINUOUS
10
-45.337083
20
148.677830
30
0.0
11
-45.413380
21
148.616995
31
0.0
0
LINE
8
0
6
CONTINUOUS
10
-42.815250
20
145.374915
30
0.0
11
-42.321550
21
144.760985
31
0.0
0
LINE
8
0
6
CONTINUOUS
10
-42.060437
20
145.976751
30
0.0
11
-42.815250
21
145.374915
31
0.0
0
LINE
8
0
6
CONTINUOUS
10
-42.321550
20
144.760985
30
0.0
11
-41.497960
21
143.737325
31
0.0
0
LINE
8
0
6
CONTINUOUS
10
-41.502601
20
145.413965
30
0.0
11
-42.321550
21
144.760985
31
0.0
0
LINE
8
0
6
CONTINUOUS
10
-41.168080
20
143.327585
30
0.0
11
-40.672645
21
143.722621
31
0.0
0
LINE
8
0
6
CONTINUOUS
10
-41.497960
20
143.737325
30
0.0
11
-41.168080
21
143.327585
31
0.0
0
LINE
8
0
6
CONTINUOUS
10
-40.638586
20
144.422537
30
0.0
11
-41.497960
21
143.737325
31
0.0
0
LINE
8
0
6
CONTINUOUS
10
-53.278880
20
157.612605
30
0.0
11
-52.318860
21
156.419385
31
0.0
0
LINE
8
0
6
CONTINUOUS
10
-51.934320
20
155.941765
30
0.0
11
-51.756650
21
156.083217
31
0.0
0
LINE
8
0
6
CONTINUOUS
10
-52.318860
20
156.419385
30
0.0
11
-51.934320
21
155.941765
31
0.0
0
LINE
8
0
6
CONTINUOUS
10
-51.432588
20
157.124989
30
0.0
11
-52.318860
21
156.419385
31
0.0
0
LINE
8
0
6
CONTINUOUS
10
-48.660790
20
151.841595
30
0.0
11
-47.700770
21
150.648335
31
0.0
0
LINE
8
0
6
CONTINUOUS
10
-47.316210
20
150.170735
30
0.0
11
-46.931800
21
150.476783
31
0.0
0
LINE
8
0
6
CONTINUOUS
10
-47.700770
20
150.648335
30
0.0
11
-47.316210
21
150.170735
31
0.0
0
LINE
8
0
6
CONTINUOUS
10
-46.810683
20
151.356977
30
0.0
11
-47.700770
21
150.648335
31
0.0
0
LINE
8
0
6
CONTINUOUS
10
-54.401510
20
158.172845
30
0.0
11
-53.807350
21
157.433975
31
0.0
0
LINE
8
0
6
CONTINUOUS
10
-53.614815
20
158.798960
30
0.0
11
-54.401510
21
158.172845
31
0.0
0
LINE
8
0
6
CONTINUOUS
10
-53.807350
20
157.433975
30
0.0
11
-52.816200
21
156.202045
31
0.0
0
LINE
8
0
6
CONTINUOUS
10
-52.419190
20
155.708935
30
0.0
11
-51.834807
21
156.174035
31
0.0
0
LINE
8
0
6
CONTINUOUS
10
-52.816200
20
156.202045
30
0.0
11
-52.419190
21
155.708935
31
0.0
0
LINE
8
0
6
CONTINUOUS
10
-52.248054
20
156.654223
30
0.0
11
-52.816200
21
156.202045
31
0.0
0
LINE
8
0
6
CONTINUOUS
10
-48.219110
20
150.496535
30
0.0
11
-47.465183
21
151.096570
31
0.0
0
LINE
8
0
6
CONTINUOUS
10
-48.616140
20
150.989615
30
0.0
11
-48.219110
21
150.496535
31
0.0
0
LINE
8
0
6
CONTINUOUS
10
-45.531410
20
147.975815
30
0.0
11
-44.955920
21
147.260185
31
0.0
0
LINE
8
0
6
CONTINUOUS
10
-44.809710
20
148.550396
30
0.0
11
-45.531410
21
147.975815
31
0.0
0
LINE
8
0
6
CONTINUOUS
10
-40.028150
20
141.925465
30
0.0
11
-39.534450
21
141.311555
31
0.0
0
LINE
8
0
6
CONTINUOUS
10
-39.534450
20
141.311555
30
0.0
11
-38.710880
21
140.287885
31
0.0
0
LINE
8
0
6
CONTINUOUS
10
-38.742861
20
141.942719
30
0.0
11
-39.534450
21
141.311555
31
0.0
0
LINE
8
0
6
CONTINUOUS
10
-38.380990
20
139.878185
30
0.0
11
-37.645452
21
140.464659
31
0.0
0
LINE
8
0
6
CONTINUOUS
10
-38.710880
20
140.287885
30
0.0
11
-38.380990
21
139.878185
31
0.0
0
LINE
8
0
6
CONTINUOUS
10
-37.862247
20
140.964529
30
0.0
11
-38.710880
21
140.287885
31
0.0
0
LINE
8
0
6
CONTINUOUS
10
-34.699230
20
136.030025
30
0.0
11
-33.875640
21
135.006375
31
0.0
0
LINE
8
0
6
CONTINUOUS
10
-33.545760
20
134.596655
30
0.0
11
-32.818980
21
135.176145
31
0.0
0
LINE
8
0
6
CONTINUOUS
10
-33.875640
20
135.006375
30
0.0
11
-33.545760
21
134.596655
31
0.0
0
LINE
8
0
6
CONTINUOUS
10
-33.002645
20
135.702451
30
0.0
11
-33.875640
21
135.006375
31
0.0
0
LINE
8
0
6
CONTINUOUS
10
-43.659970
20
145.642215
30
0.0
11
-43.084510
21
144.926555
31
0.0
0
LINE
8
0
6
CONTINUOUS
10
-43.084510
20
144.926555
30
0.0
11
-42.124460
21
143.733345
31
0.0
0
LINE
8
0
6
CONTINUOUS
10
-42.353659
20
145.508426
30
0.0
11
-43.084510
21
144.926555
31
0.0
0
LINE
8
0
6
CONTINUOUS
10
-42.124460
20
143.733345
30
0.0
11
-41.739920
21
143.255725
31
0.0
0
LINE
8
0
6
CONTINUOUS
10
-38.620720
20
140.184685
30
0.0
11
-38.127020
21
139.570745
31
0.0
0
LINE
8
0
6
CONTINUOUS
10
-38.127020
20
139.570745
30
0.0
11
-37.303450
21
138.547105
31
0.0
0
LINE
8
0
6
CONTINUOUS
10
-37.351220
20
140.189324
30
0.0
11
-38.127020
21
139.570745
31
0.0
0
LINE
8
0
6
CONTINUOUS
10
-37.303450
20
138.547105
30
0.0
11
-36.973550
21
138.137375
31
0.0
0
LINE
8
0
6
CONTINUOUS
10
-33.771080
20
134.914765
30
0.0
11
-33.277380
21
134.300815
31
0.0
0
LINE
8
0
6
CONTINUOUS
10
-33.277380
20
134.300815
30
0.0
11
-32.453800
21
133.277175
31
0.0
0
LINE
8
0
6
CONTINUOUS
10
-32.511243
20
134.911689
30
0.0
11
-33.277380
21
134.300815
31
0.0
0
LINE
8
0
6
CONTINUOUS
10
-32.123910
20
132.867445
30
0.0
11
-31.268265
21
133.549688
31
0.0
0
LINE
8
0
6
CONTINUOUS
10
-32.453800
20
133.277175
30
0.0
11
-32.123910
21
132.867445
31
0.0
0
LINE
8
0
6
CONTINUOUS
10
-31.594814
20
133.962082
30
0.0
11
-32.453800
21
133.277175
31
0.0
0
LINE
8
0
6
CONTINUOUS
10
-46.343770
20
148.165695
30
0.0
11
-45.492639
21
148.843083
31
0.0
0
LINE
8
0
6
CONTINUOUS
10
-46.740780
20
148.658765
30
0.0
11
-46.343770
21
148.165695
31
0.0
0
LINE
8
0
6
CONTINUOUS
10
-59.281100
20
166.582765
30
0.0
11
-57.692494
21
167.844327
31
0.0
0
LINE
8
0
6
CONTINUOUS
10
-59.808330
20
167.237845
30
0.0
11
-59.281100
21
166.582765
31
0.0
0
LINE
8
0
6
CONTINUOUS
10
-60.916330
20
168.615445
30
0.0
11
-60.625950
21
168.254175
31
0.0
0
LINE
8
0
6
CONTINUOUS
10
-60.126552
20
169.242647
30
0.0
11
-60.916330
21
168.615445
31
0.0
0
LINE
8
0
6
CONTINUOUS
10
-59.808330
20
167.237845
30
0.0
11
-58.219588
21
168.499516
31
0.0
0
LINE
8
0
6
CONTINUOUS
10
-60.625950
20
168.254175
30
0.0
11
-59.808330
21
167.237845
31
0.0
0
LINE
8
0
6
CONTINUOUS
10
-59.757349
20
168.943962
30
0.0
11
-60.625950
21
168.254175
31
0.0
0
LINE
8
0
6
CONTINUOUS
10
-64.934160
20
173.588895
30
0.0
11
-64.406930
21
172.933815
31
0.0
0
LINE
8
0
6
CONTINUOUS
10
-66.042160
20
174.966515
30
0.0
11
-65.751760
21
174.605205
31
0.0
0
LINE
8
0
6
CONTINUOUS
10
-65.233065
20
175.609050
30
0.0
11
-66.042160
21
174.966515
31
0.0
0
LINE
8
0
6
CONTINUOUS
10
-64.934160
20
173.588895
30
0.0
11
-63.335231
21
174.858660
31
0.0
0
LINE
8
0
6
CONTINUOUS
10
-65.751760
20
174.605205
30
0.0
11
-64.934160
21
173.588895
31
0.0
0
LINE
8
0
6
CONTINUOUS
10
-64.875502
20
175.301088
30
0.0
11
-65.751760
21
174.605205
31
0.0
0
LINE
8
0
6
CONTINUOUS
10
-69.654790
20
179.449005
30
0.0
11
-69.127560
21
178.793945
31
0.0
0
LINE
8
0
6
CONTINUOUS
10
-69.654790
20
179.449005
30
0.0
11
-68.051721
21
180.722045
31
0.0
0
LINE
8
0
6
CONTINUOUS
10
-70.472430
20
180.465375
30
0.0
11
-69.654790
21
179.449005
31
0.0
0
LINE
8
0
6
CONTINUOUS
10
-73.074440
20
183.703215
30
0.0
11
-72.774269
21
183.941593
31
0.0
0
LINE
8
0
6
CONTINUOUS
10
-73.601670
20
184.358335
30
0.0
11
-73.074440
21
183.703215
31
0.0
0
LINE
8
0
6
CONTINUOUS
10
-74.709700
20
185.735955
30
0.0
11
-74.419310
21
185.374665
31
0.0
0
LINE
8
0
6
CONTINUOUS
10
-73.863470
20
186.407977
30
0.0
11
-74.709700
21
185.735955
31
0.0
0
LINE
8
0
6
CONTINUOUS
10
-73.601670
20
184.358335
30
0.0
11
-73.260170
21
184.629532
31
0.0
0
LINE
8
0
6
CONTINUOUS
10
-74.419310
20
185.374665
30
0.0
11
-73.601670
21
184.358335
31
0.0
0
LINE
8
0
6
CONTINUOUS
10
-73.535947
20
186.076171
30
0.0
11
-74.419310
21
185.374665
31
0.0
0
LINE
8
0
6
CONTINUOUS
10
-69.611240
20
178.690435
30
0.0
11
-69.333829
21
178.910559
31
0.0
0
LINE
8
0
6
CONTINUOUS
10
-70.024320
20
179.203605
30
0.0
11
-69.611240
21
178.690435
31
0.0
0
LINE
8
0
6
CONTINUOUS
10
-71.269190
20
180.751265
30
0.0
11
-70.853290
21
180.234015
31
0.0
0
LINE
8
0
6
CONTINUOUS
10
-70.426313
20
181.420079
30
0.0
11
-71.269190
21
180.751265
31
0.0
0
LINE
8
0
6
CONTINUOUS
10
-70.024320
20
179.203605
30
0.0
11
-69.706618
21
179.455697
31
0.0
0
LINE
8
0
6
CONTINUOUS
10
-70.853290
20
180.234015
30
0.0
11
-70.024320
21
179.203605
31
0.0
0
LINE
8
0
6
CONTINUOUS
10
-70.454991
20
180.550060
30
0.0
11
-70.853290
21
180.234015
31
0.0
0
LINE
8
0
6
CONTINUOUS
10
-65.903450
20
174.092325
30
0.0
11
-65.490360
21
173.579155
31
0.0
0
LINE
8
0
6
CONTINUOUS
10
-67.148320
20
175.639945
30
0.0
11
-66.732430
21
175.122715
31
0.0
0
LINE
8
0
6
CONTINUOUS
10
-66.316899
20
176.299677
30
0.0
11
-67.148320
21
175.639945
31
0.0
0
LINE
8
0
6
CONTINUOUS
10
-62.208000
20
169.481345
30
0.0
11
-61.792130
21
168.964115
31
0.0
0
LINE
8
0
6
CONTINUOUS
10
-61.389811
20
170.130570
30
0.0
11
-62.208000
21
169.481345
31
0.0
0
LINE
8
0
6
CONTINUOUS
10
-61.792130
20
168.964115
30
0.0
11
-60.963130
21
167.933705
31
0.0
0
LINE
8
0
6
CONTINUOUS
10
-60.931546
20
169.646965
30
0.0
11
-61.792130
21
168.964115
31
0.0
0
LINE
8
0
6
CONTINUOUS
10
-66.594700
20
174.158455
30
0.0
11
-66.215458
21
174.458691
31
0.0
0
LINE
8
0
6
CONTINUOUS
10
-67.076210
20
174.756635
30
0.0
11
-66.594700
21
174.158455
31
0.0
0
LINE
8
0
6
CONTINUOUS
10
-68.527340
20
176.560665
30
0.0
11
-68.042530
21
175.957735
31
0.0
0
LINE
8
0
6
CONTINUOUS
10
-67.662633
20
177.245235
30
0.0
11
-68.527340
21
176.560665
31
0.0
0
LINE
8
0
6
CONTINUOUS
10
-67.076210
20
174.756635
30
0.0
11
-66.676863
21
175.072782
31
0.0
0
LINE
8
0
6
CONTINUOUS
10
-68.042530
20
175.957735
30
0.0
11
-67.076210
21
174.756635
31
0.0
0
LINE
8
0
6
CONTINUOUS
10
-67.153356
20
176.661670
30
0.0
11
-68.042530
21
175.957735
31
0.0
0
LINE
8
0
6
CONTINUOUS
10
-64.311850
20
171.303475
30
0.0
11
-63.827060
21
170.700525
31
0.0
0
LINE
8
0
6
CONTINUOUS
10
-63.463865
20
171.974798
30
0.0
11
-64.311850
21
171.303475
31
0.0
0
LINE
8
0
6
CONTINUOUS
10
-63.827060
20
170.700525
30
0.0
11
-62.860740
21
169.499385
31
0.0
0
LINE
8
0
6
CONTINUOUS
10
-62.934851
20
171.406864
30
0.0
11
-63.827060
21
170.700525
31
0.0
0
LINE
8
0
6
CONTINUOUS
10
-64.331650
20
170.523945
30
0.0
11
-63.831120
21
169.901435
31
0.0
0
LINE
8
0
6
CONTINUOUS
10
-63.658957
20
171.056210
30
0.0
11
-64.331650
21
170.523945
31
0.0
0
LINE
8
0
6
CONTINUOUS
10
-54.316860
20
160.395845
30
0.0
11
-53.903790
21
159.882685
31
0.0
0
LINE
8
0
6
CONTINUOUS
10
-55.561750
20
161.943505
30
0.0
11
-55.145850
21
161.426235
31
0.0
0
LINE
8
0
6
CONTINUOUS
10
-54.775249
20
162.567579
30
0.0
11
-55.561750
21
161.943505
31
0.0
0
LINE
8
0
6
CONTINUOUS
10
-55.145850
20
161.426235
30
0.0
11
-54.316860
21
160.395845
31
0.0
0
LINE
8
0
6
CONTINUOUS
10
-54.278079
20
162.114793
30
0.0
11
-55.145850
21
161.426235
31
0.0
0
LINE
8
0
6
CONTINUOUS
10
-54.231570
20
160.315125
30
0.0
11
-53.818470
21
159.801985
31
0.0
0
LINE
8
0
6
CONTINUOUS
10
-55.123749
20
161.424109
30
0.0
11
-55.060560
21
161.345515
31
0.0
0
LINE
8
0
6
CONTINUOUS
10
-54.231570
20
160.315125
30
0.0
11
-52.620988
21
161.593091
31
0.0
0
LINE
8
0
6
CONTINUOUS
10
-55.060560
20
161.345515
30
0.0
11
-54.231570
21
160.315125
31
0.0
0
LINE
8
0
6
CONTINUOUS
10
-54.192773
20
162.034091
30
0.0
11
-55.060560
21
161.345515
31
0.0
0
LINE
8
0
6
CONTINUOUS
10
-55.649570
20
161.336335
30
0.0
11
-55.236470
21
160.823185
31
0.0
0
LINE
8
0
6
CONTINUOUS
10
-56.894420
20
162.883995
30
0.0
11
-56.478520
21
162.366745
31
0.0
0
LINE
8
0
6
CONTINUOUS
10
-56.097498
20
163.516345
30
0.0
11
-56.894420
21
162.883995
31
0.0
0
LINE
8
0
6
CONTINUOUS
10
-56.478520
20
162.366745
30
0.0
11
-55.649570
21
161.336335
31
0.0
0
LINE
8
0
6
CONTINUOUS
10
-55.629317
20
163.040584
30
0.0
11
-56.478520
21
162.366745
31
0.0
0
LINE
8
0
6
CONTINUOUS
10
-57.701150
20
163.104235
30
0.0
11
-57.219620
21
162.506075
31
0.0
0
LINE
8
0
6
CONTINUOUS
10
-59.152260
20
164.908305
30
0.0
11
-58.667470
21
164.305355
31
0.0
0
LINE
8
0
6
CONTINUOUS
10
-58.344367
20
165.547896
30
0.0
11
-59.152260
21
164.908305
31
0.0
0
LINE
8
0
6
CONTINUOUS
10
-57.936360
20
162.579525
30
0.0
11
-57.439230
21
161.961965
31
0.0
0
LINE
8
0
6
CONTINUOUS
10
-59.434550
20
164.442115
30
0.0
11
-58.934040
21
163.819605
31
0.0
0
LINE
8
0
6
CONTINUOUS
10
-58.934040
20
163.819605
30
0.0
11
-57.936360
21
162.579525
31
0.0
0
LINE
8
0
6
CONTINUOUS
10
-63.223170
20
168.775545
30
0.0
11
-62.313080
21
167.644495
31
0.0
0
LINE
8
0
6
CONTINUOUS
10
-64.032230
20
169.781425
30
0.0
11
-63.223170
21
168.775545
31
0.0
0
LINE
8
0
6
CONTINUOUS
10
-62.212030
20
167.519315
30
0.0
11
-61.460608
21
168.130398
31
0.0
0
LINE
8
0
6
CONTINUOUS
10
-62.313080
20
167.644495
30
0.0
11
-62.212030
21
167.519315
31
0.0
0
LINE
8
0
6
CONTINUOUS
10
-61.554643
20
168.261281
30
0.0
11
-62.313080
21
167.644495
31
0.0
0
LINE
8
0
6
CONTINUOUS
10
-51.397880
20
154.079525
30
0.0
11
-50.594527
21
154.732840
31
0.0
0
LINE
8
0
6
CONTINUOUS
10
-53.378350
20
156.533275
30
0.0
11
-52.708070
21
155.699815
31
0.0
0
LINE
8
0
6
CONTINUOUS
10
-52.708070
20
155.699815
30
0.0
11
-51.732940
21
154.487845
31
0.0
0
LINE
8
0
6
CONTINUOUS
10
-51.428110
20
154.109355
30
0.0
11
-50.615386
21
154.757078
31
0.0
0
LINE
8
0
6
CONTINUOUS
10
-51.732940
20
154.487845
30
0.0
11
-51.428110
21
154.109355
31
0.0
0
LINE
8
0
6
CONTINUOUS
10
-50.897697
20
155.153526
30
0.0
11
-51.732940
21
154.487845
31
0.0
0
LINE
8
0
6
CONTINUOUS
10
-60.022160
20
164.799665
30
0.0
11
-59.348183
21
165.341392
31
0.0
0
LINE
8
0
6
CONTINUOUS
10
-60.684010
20
165.622035
30
0.0
11
-60.022160
21
164.799665
31
0.0
0
LINE
8
0
6
CONTINUOUS
10
-61.977080
20
167.229755
30
0.0
11
-61.661470
21
166.837075
31
0.0
0
LINE
8
0
6
CONTINUOUS
10
-61.162057
20
167.884847
30
0.0
11
-61.977080
21
167.229755
31
0.0
0
LINE
8
0
6
CONTINUOUS
10
-60.684010
20
165.622035
30
0.0
11
-59.986850
21
166.182402
31
0.0
0
LINE
8
0
6
CONTINUOUS
10
-61.661470
20
166.837075
30
0.0
11
-60.684010
21
165.622035
31
0.0
0
LINE
8
0
6
CONTINUOUS
10
-60.827897
20
167.507093
30
0.0
11
-61.661470
21
166.837075
31
0.0
0
LINE
8
0
6
CONTINUOUS
10
-61.874350
20
167.093855
30
0.0
11
-61.764050
21
166.956335
31
0.0
0
LINE
8
0
6
CONTINUOUS
10
-57.166180
20
161.246275
30
0.0
11
-56.665670
21
160.623785
31
0.0
0
LINE
8
0
6
CONTINUOUS
10
-56.373608
20
161.873404
30
0.0
11
-57.166180
21
161.246275
31
0.0
0
LINE
8
0
6
CONTINUOUS
10
-56.665670
20
160.623785
30
0.0
11
-55.667990
21
159.383685
31
0.0
0
LINE
8
0
6
CONTINUOUS
10
-55.834946
20
161.281094
30
0.0
11
-56.665670
21
160.623785
31
0.0
0
LINE
8
0
6
CONTINUOUS
10
-36.420350
20
138.165555
30
0.0
11
-36.054210
21
137.710795
31
0.0
0
LINE
8
0
6
CONTINUOUS
10
-45.638850
20
148.098445
30
0.0
11
-45.242960
21
147.605965
31
0.0
0
LINE
8
0
6
CONTINUOUS
10
-45.154568
20
148.483938
30
0.0
11
-45.638850
21
148.098445
31
0.0
0
LINE
8
0
6
CONTINUOUS
10
-40.285190
20
142.250265
30
0.0
11
-39.945580
21
141.827805
31
0.0
0
LINE
8
0
6
CONTINUOUS
10
-39.714758
20
142.705021
30
0.0
11
-40.285190
21
142.250265
31
0.0
0
LINE
8
0
6
CONTINUOUS
10
-80.109500
20
192.465845
30
0.0
11
-79.388830
21
191.569905
31
0.0
0
LINE
8
0
6
CONTINUOUS
10
-80.109500
20
192.465845
30
0.0
11
-79.237096
21
193.170304
31
0.0
0
LINE
8
0
6
CONTINUOUS
10
-79.242125
20
193.177880
30
0.0
11
-80.114970
21
192.473055
31
0.0
0
LINE
8
0
6
CONTINUOUS
10
-75.794140
20
186.392385
30
0.0
11
-74.973355
21
187.053602
31
0.0
0
LINE
8
0
6
CONTINUOUS
10
-75.937900
20
186.571405
30
0.0
11
-75.794140
21
186.392385
31
0.0
0
LINE
8
0
6
CONTINUOUS
10
-75.106131
20
187.241473
30
0.0
11
-75.937900
21
186.571405
31
0.0
0
LINE
8
0
6
CONTINUOUS
10
-64.385320
20
170.598665
30
0.0
11
-63.718753
21
171.135794
31
0.0
0
LINE
8
0
6
CONTINUOUS
10
-65.149760
20
171.548585
30
0.0
11
-64.385320
21
170.598665
31
0.0
0
LINE
8
0
6
CONTINUOUS
10
-64.451615
20
172.111169
30
0.0
11
-65.149760
21
171.548585
31
0.0
0
LINE
8
0
6
CONTINUOUS
10
-74.871500
20
185.238325
30
0.0
11
-74.236300
21
184.449045
31
0.0
0
LINE
8
0
6
CONTINUOUS
10
-79.322170
20
191.468715
30
0.0
11
-78.530771
21
192.106258
31
0.0
0
LINE
8
0
6
CONTINUOUS
10
-79.465880
20
191.647755
30
0.0
11
-79.322170
21
191.468715
31
0.0
0
LINE
8
0
6
CONTINUOUS
10
-78.593401
20
192.350619
30
0.0
11
-79.465880
21
191.647755
31
0.0
0
LINE
8
0
6
CONTINUOUS
10
-69.415470
20
177.664495
30
0.0
11
-68.813447
21
178.149593
31
0.0
0
LINE
8
0
6
CONTINUOUS
10
-70.155890
20
178.584555
30
0.0
11
-69.415470
21
177.664495
31
0.0
0
LINE
8
0
6
CONTINUOUS
10
-70.155890
20
178.584555
30
0.0
11
-69.482144
21
179.127443
31
0.0
0
LINE
8
0
6
CONTINUOUS
10
-71.063900
20
179.713305
30
0.0
11
-70.155890
21
178.584555
31
0.0
0
LINE
8
0
6
CONTINUOUS
10
-71.231460
20
179.922005
30
0.0
11
-71.063900
21
179.713305
31
0.0
0
LINE
8
0
6
CONTINUOUS
10
-72.763420
20
182.621975
30
0.0
11
-72.188555
21
183.085090
31
0.0
0
LINE
8
0
6
CONTINUOUS
10
-73.398610
20
183.411295
30
0.0
11
-72.763420
21
182.621975
31
0.0
0
LINE
8
0
6
CONTINUOUS
10
-73.398610
20
183.411295
30
0.0
11
-72.762218
21
183.923970
31
0.0
0
LINE
8
0
6
CONTINUOUS
10
-74.177570
20
184.379615
30
0.0
11
-73.398610
21
183.411295
31
0.0
0
LINE
8
0
6
CONTINUOUS
10
-74.321290
20
184.558645
30
0.0
11
-74.177570
21
184.379615
31
0.0
0
LINE
8
0
6
CONTINUOUS
10
-37.526320
20
139.564545
30
0.0
11
-37.150670
21
139.097325
31
0.0
0
LINE
8
0
6
CONTINUOUS
10
-36.805042
20
140.138646
30
0.0
11
-37.526320
21
139.564545
31
0.0
0
LINE
8
0
6
CONTINUOUS
10
-37.150670
20
139.097325
30
0.0
11
-36.322840
21
138.068355
31
0.0
0
LINE
8
0
6
CONTINUOUS
10
-36.353899
20
139.731526
30
0.0
11
-37.150670
21
139.097325
31
0.0
0
LINE
8
0
6
CONTINUOUS
10
-35.870690
20
137.506605
30
0.0
11
-35.334981
21
137.933005
31
0.0
0
LINE
8
0
6
CONTINUOUS
10
-36.322840
20
138.068355
30
0.0
11
-35.870690
21
137.506605
31
0.0
0
LINE
8
0
6
CONTINUOUS
10
-35.442777
20
138.768849
30
0.0
11
-36.322840
21
138.068355
31
0.0
0
LINE
8
0
6
CONTINUOUS
10
-40.666260
20
143.445575
30
0.0
11
-40.520824
21
143.561336
31
0.0
0
LINE
8
0
6
CONTINUOUS
10
-41.041910
20
143.912825
30
0.0
11
-40.666260
21
143.445575
31
0.0
0
LINE
8
0
6
CONTINUOUS
10
-40.309165
20
144.496053
30
0.0
11
-41.041910
21
143.912825
31
0.0
0
LINE
8
0
6
CONTINUOUS
10
-45.424380
20
149.341195
30
0.0
11
-45.048750
21
148.873965
31
0.0
0
LINE
8
0
6
CONTINUOUS
10
-44.673712
20
149.938698
30
0.0
11
-45.424380
21
149.341195
31
0.0
0
LINE
8
0
6
CONTINUOUS
10
-44.220940
20
147.844995
30
0.0
11
-42.537464
21
149.184965
31
0.0
0
LINE
8
0
6
CONTINUOUS
10
-45.048750
20
148.873965
30
0.0
11
-44.220940
21
147.844995
31
0.0
0
LINE
8
0
6
CONTINUOUS
10
-44.218238
20
149.535016
30
0.0
11
-45.048750
21
148.873965
31
0.0
0
LINE
8
0
6
CONTINUOUS
10
-50.002730
20
155.032725
30
0.0
11
-48.322104
21
156.370424
31
0.0
0
LINE
8
0
6
CONTINUOUS
10
-50.378380
20
155.499965
30
0.0
11
-50.002730
21
155.032725
31
0.0
0
LINE
8
0
6
CONTINUOUS
10
-49.614291
20
156.108134
30
0.0
11
-50.378380
21
155.499965
31
0.0
0
LINE
8
0
6
CONTINUOUS
10
-51.119040
20
155.724075
30
0.0
11
-50.295450
21
154.700425
31
0.0
0
LINE
8
0
6
CONTINUOUS
10
-50.276033
20
156.396241
30
0.0
11
-51.119040
21
155.724075
31
0.0
0
LINE
8
0
6
CONTINUOUS
10
-53.278880
20
157.612605
30
0.0
11
-53.152576
21
157.713162
31
0.0
0
LINE
8
0
6
CONTINUOUS
10
-53.854370
20
158.328255
30
0.0
11
-53.278880
21
157.612605
31
0.0
0
LINE
8
0
6
CONTINUOUS
10
-53.074598
20
158.949074
30
0.0
11
-53.854370
21
158.328255
31
0.0
0
LINE
8
0
6
CONTINUOUS
10
-48.660790
20
151.841595
30
0.0
11
-48.331775
21
152.103542
31
0.0
0
LINE
8
0
6
CONTINUOUS
10
-49.236280
20
152.557235
30
0.0
11
-48.660790
21
151.841595
31
0.0
0
LINE
8
0
6
CONTINUOUS
10
-48.481355
20
153.158270
30
0.0
11
-49.236280
21
152.557235
31
0.0
0
LINE
8
0
6
CONTINUOUS
10
-50.201450
20
152.960445
30
0.0
11
-49.607300
21
152.221575
31
0.0
0
LINE
8
0
6
CONTINUOUS
10
-49.434413
20
153.570910
30
0.0
11
-50.201450
21
152.960445
31
0.0
0
LINE
8
0
6
CONTINUOUS
10
-48.616140
20
150.989615
30
0.0
11
-47.878424
21
151.576752
31
0.0
0
LINE
8
0
6
CONTINUOUS
10
-49.607300
20
152.221575
30
0.0
11
-48.616140
21
150.989615
31
0.0
0
LINE
8
0
6
CONTINUOUS
10
-48.910565
20
152.776091
30
0.0
11
-49.607300
21
152.221575
31
0.0
0
LINE
8
0
6
CONTINUOUS
10
-44.955920
20
147.260185
30
0.0
11
-43.995880
21
146.066905
31
0.0
0
LINE
8
0
6
CONTINUOUS
10
-44.146258
20
147.904789
30
0.0
11
-44.955920
21
147.260185
31
0.0
0
LINE
8
0
6
CONTINUOUS
10
-43.611340
20
145.589325
30
0.0
11
-42.935965
21
146.127031
31
0.0
0
LINE
8
0
6
CONTINUOUS
10
-43.995880
20
146.066905
30
0.0
11
-43.611340
21
145.589325
31
0.0
0
LINE
8
0
6
CONTINUOUS
10
-43.112364
20
146.770324
30
0.0
11
-43.995880
21
146.066905
31
0.0
0
LINE
8
0
6
CONTINUOUS
10
-34.699230
20
136.030025
30
0.0
11
-34.061975
21
136.538133
31
0.0
0
LINE
8
0
6
CONTINUOUS
10
-35.192950
20
136.643975
30
0.0
11
-34.699230
21
136.030025
31
0.0
0
LINE
8
0
6
CONTINUOUS
10
-34.469678
20
137.220661
30
0.0
11
-35.192950
21
136.643975
31
0.0
0
LINE
8
0
6
CONTINUOUS
10
-48.326110
20
150.629565
30
0.0
11
-47.731930
21
149.890705
31
0.0
0
LINE
8
0
6
CONTINUOUS
10
-46.740780
20
148.658765
30
0.0
11
-45.925579
21
149.307563
31
0.0
0
LINE
8
0
6
CONTINUOUS
10
-47.731930
20
149.890705
30
0.0
11
-46.740780
21
148.658765
31
0.0
0
LINE
8
0
6
CONTINUOUS
10
-70.472430
20
180.465375
30
0.0
11
-68.869284
21
181.738476
31
0.0
0
LINE
8
0
6
CONTINUOUS
10
-70.762810
20
180.826625
30
0.0
11
-70.472430
21
180.465375
31
0.0
0
LINE
8
0
6
CONTINUOUS
10
-69.938683
20
181.481101
30
0.0
11
-70.762810
21
180.826625
31
0.0
0
LINE
8
0
6
CONTINUOUS
10
-66.732430
20
175.122715
30
0.0
11
-65.903450
21
174.092325
31
0.0
0
LINE
8
0
6
CONTINUOUS
10
-65.870656
20
175.806516
30
0.0
11
-66.721123
21
175.131687
31
0.0
0
LINE
8
0
6
CONTINUOUS
10
-60.963130
20
167.933705
30
0.0
11
-60.550040
21
167.420535
31
0.0
0
LINE
8
0
6
CONTINUOUS
10
-62.379210
20
168.901265
30
0.0
11
-62.166397
21
169.069742
31
0.0
0
LINE
8
0
6
CONTINUOUS
10
-62.860740
20
169.499385
30
0.0
11
-62.379210
21
168.901265
31
0.0
0
LINE
8
0
6
CONTINUOUS
10
-62.006945
20
170.175312
30
0.0
11
-62.860740
21
169.499385
31
0.0
0
LINE
8
0
6
CONTINUOUS
10
-62.336310
20
168.043775
30
0.0
11
-61.746300
21
168.510629
31
0.0
0
LINE
8
0
6
CONTINUOUS
10
-62.833440
20
168.661355
30
0.0
11
-62.336310
21
168.043775
31
0.0
0
LINE
8
0
6
CONTINUOUS
10
-62.833440
20
168.661355
30
0.0
11
-62.222667
21
169.144632
31
0.0
0
LINE
8
0
6
CONTINUOUS
10
-63.831120
20
169.901435
30
0.0
11
-62.833440
21
168.661355
31
0.0
0
LINE
8
0
6
CONTINUOUS
10
-63.178999
20
170.417428
30
0.0
11
-63.831120
21
169.901435
31
0.0
0
LINE
8
0
6
CONTINUOUS
10
-58.667470
20
164.305355
30
0.0
11
-57.701150
21
163.104235
31
0.0
0
LINE
8
0
6
CONTINUOUS
10
-57.783384
20
165.005262
30
0.0
11
-58.667470
21
164.305355
31
0.0
0
LINE
8
0
6
CONTINUOUS
10
-55.170860
20
158.766145
30
0.0
11
-54.500905
21
159.296253
31
0.0
0
LINE
8
0
6
CONTINUOUS
10
-55.667990
20
159.383685
30
0.0
11
-55.170860
21
158.766145
31
0.0
0
LINE
8
0
6
CONTINUOUS
10
-54.829718
20
160.046978
30
0.0
11
-55.667990
21
159.383685
31
0.0
0
LINE
8
0
6
CONTINUOUS
10
-50.269340
20
153.049305
30
0.0
11
-49.602410
21
153.580009
31
0.0
0
LINE
8
0
6
CONTINUOUS
10
-50.853160
20
153.774655
30
0.0
11
-50.269340
21
153.049305
31
0.0
0
LINE
8
0
6
CONTINUOUS
10
-50.210215
20
154.286273
30
0.0
11
-50.853160
21
153.774655
31
0.0
0
LINE
8
0
6
CONTINUOUS
10
-34.710927
20
137.249210
30
0.0
11
-35.303760
21
136.776595
31
0.0
0
LINE
8
0
6
CONTINUOUS
10
-56.392570
20
159.977585
30
0.0
11
-56.235480
21
159.782995
31
0.0
0
LINE
8
0
6
CONTINUOUS
10
-57.807480
20
161.736025
30
0.0
11
-56.392570
21
159.977585
31
0.0
0
LINE
8
0
6
CONTINUOUS
10
-59.065270
20
163.299795
30
0.0
11
-57.807480
21
161.736025
31
0.0
0
LINE
8
0
6
CONTINUOUS
10
-59.253461
20
165.216662
30
0.0
11
-59.332690
21
165.153935
31
0.0
0
LINE
8
0
6
CONTINUOUS
10
-48.184570
20
156.203335
30
0.0
11
-54.496150
21
163.871205
31
0.0
0
LINE
8
0
6
CONTINUOUS
10
-27.168460
20
130.089775
30
0.0
11
-29.315090
21
132.659715
31
0.0
0
LINE
8
0
6
CONTINUOUS
10
-31.268265
20
133.549688
30
0.0
11
-28.045480
21
130.219155
31
0.0
0
LINE
8
0
6
CONTINUOUS
10
-76.326770
20
191.010665
30
0.0
11
-79.648020
21
195.318055
31
0.0
0
LINE
8
0
6
CONTINUOUS
10
-81.813300
20
197.051235
30
0.0
11
-79.242125
21
193.177880
31
0.0
0
LINE
8
0
6
CONTINUOUS
10
-42.274250
20
148.857835
30
0.0
11
-48.184570
21
156.203335
31
0.0
0
LINE
8
0
6
CONTINUOUS
10
-71.901630
20
185.508425
30
0.0
11
-76.314206
21
190.995043
31
0.0
0
LINE
8
0
6
CONTINUOUS
10
-26.562190
20
129.249985
30
0.0
11
-27.168460
21
130.089775
31
0.0
0
LINE
8
0
6
CONTINUOUS
10
-28.045480
20
130.219155
30
0.0
11
-26.562190
21
129.249985
31
0.0
0
LINE
8
0
6
CONTINUOUS
10
-32.635520
20
136.785145
30
0.0
11
-36.974870
21
142.272265
31
0.0
0
LINE
8
0
6
CONTINUOUS
10
-29.315090
20
132.659715
30
0.0
11
-32.635520
21
136.785145
31
0.0
0
LINE
8
0
6
CONTINUOUS
10
-36.974870
20
142.272265
30
0.0
11
-42.274250
21
148.857835
31
0.0
0
LINE
8
0
6
CONTINUOUS
10
-54.496150
20
163.871205
30
0.0
11
-60.705410
21
171.589445
31
0.0
0
LINE
8
0
6
CONTINUOUS
10
-60.705410
20
171.589445
30
0.0
11
-66.605780
21
178.924385
31
0.0
0
LINE
8
0
6
CONTINUOUS
10
-66.605780
20
178.924385
30
0.0
11
-71.901630
21
185.508425
31
0.0
0
LINE
8
0
6
CONTINUOUS
10
-79.648020
20
195.318055
30
0.0
11
-81.734920
21
197.737585
31
0.0
0
LINE
8
0
6
CONTINUOUS
10
-82.442590
20
198.707945
30
0.0
11
-81.813300
21
197.051235
31
0.0
0
LINE
8
0
6
CONTINUOUS
10
-81.734920
20
197.737585
30
0.0
11
-82.442590
21
198.707945
31
0.0
0
LINE
8
0
6
CONTINUOUS
10
-54.500905
20
159.296253
30
0.0
11
-53.890489
21
158.579556
31
0.0
0
LINE
8
0
6
CONTINUOUS
10
-56.808680
20
162.116955
30
0.0
11
-56.446910
21
161.667305
31
0.0
0
LINE
8
0
6
CONTINUOUS
10
-59.372235
20
165.373065
30
0.0
11
-59.069218
21
164.974047
31
0.0
0
LINE
8
0
6
CONTINUOUS
10
-50.615386
20
154.757078
30
0.0
11
-49.529472
21
153.495255
31
0.0
0
LINE
8
0
6
CONTINUOUS
10
-64.966519
20
172.796462
30
0.0
11
-64.018962
21
171.535345
31
0.0
0
LINE
8
0
6
CONTINUOUS
10
-61.460608
20
168.130398
30
0.0
11
-61.233166
21
167.827692
31
0.0
0
LINE
8
0
6
CONTINUOUS
10
-72.188555
20
183.085090
30
0.0
11
-71.290075
21
181.771223
31
0.0
0
LINE
8
0
6
CONTINUOUS
10
-68.813447
20
178.149593
30
0.0
11
-68.008021
21
176.971799
31
0.0
0
LINE
8
0
6
CONTINUOUS
10
-35.334981
20
137.933005
30
0.0
11
-34.594235
21
137.121347
31
0.0
0
LINE
8
0
6
CONTINUOUS
10
-77.234788
20
190.253415
30
0.0
11
-77.062913
21
190.010221
31
0.0
0
LINE
8
0
6
CONTINUOUS
10
-75.625579
20
187.976465
30
0.0
11
-74.970352
21
187.049353
31
0.0
0
LINE
8
0
6
CONTINUOUS
10
-60.126552
20
169.242647
30
0.0
11
-59.757349
21
168.943962
31
0.0
0
LINE
8
0
6
CONTINUOUS
10
-35.442777
20
138.768849
30
0.0
11
-36.353899
21
139.731526
31
0.0
0
LINE
8
0
6
CONTINUOUS
10
-31.594814
20
133.962082
30
0.0
11
-32.511243
21
134.911689
31
0.0
0
LINE
8
0
6
CONTINUOUS
10
-49.434413
20
153.570910
30
0.0
11
-48.799196
21
152.864726
31
0.0
0
LINE
8
0
6
CONTINUOUS
10
-42.060437
20
145.976751
30
0.0
11
-41.502601
21
145.413965
31
0.0
0
LINE
8
0
6
CONTINUOUS
10
-40.638586
20
144.422537
30
0.0
11
-41.502601
21
145.413965
31
0.0
0
LINE
8
0
6
CONTINUOUS
10
-42.634000
20
145.866689
30
0.0
11
-42.310248
21
145.542988
31
0.0
0
LINE
8
0
6
CONTINUOUS
10
-45.963444
20
150.866333
30
0.0
11
-45.405063
21
150.303957
31
0.0
0
LINE
8
0
6
CONTINUOUS
10
-56.097498
20
163.516345
30
0.0
11
-55.629317
21
163.040584
31
0.0
0
LINE
8
0
6
CONTINUOUS
10
-38.859537
20
142.061862
30
0.0
11
-38.742861
21
141.942719
31
0.0
0
LINE
8
0
6
CONTINUOUS
10
-23.579627
20
128.728446
30
0.0
11
-21.530478
21
128.678390
31
0.0
0
LINE
8
0
6
CONTINUOUS
10
-24.817946
20
129.039672
30
0.0
11
-23.579627
21
128.728446
31
0.0
0
LINE
8
0
6
CONTINUOUS
10
-25.570215
20
129.228744
30
0.0
11
-24.817946
21
129.039672
31
0.0
0
LINE
8
0
6
CONTINUOUS
10
-17.175430
20
130.173187
30
0.0
11
-16.565250
21
130.664083
31
0.0
0
ENDSEC
0
EOF
