999
Erzeugt mit innoplus bad 
0
SECTION
2
HEADER
9
$ACADVER
1
AC1009
9
$DWGCODEPAGE
3
ISO8859-1
0
ENDSEC
0
SECTION
2
TABLES
0
TABLE
2
LAYER
70
1
0
LAYER
2
0
70
0
62
7
6
CONTINUOUS
0
ENDTAB
0
ENDSEC
0
SECTION
2
ENTITIES
0
LINE
8
0
6
CONTINUOUS
10
5.536920
20
-66.663975
30
0.0
11
5.579393
21
-62.637894
31
0.0
0
LINE
8
0
6
CONTINUOUS
10
-7.201931
20
-26.777191
30
0.0
11
-7.258140
21
-30.891765
31
0.0
0
LINE
8
0
6
CONTINUOUS
10
-5.399040
20
-36.880705
30
0.0
11
-0.735550
21
-37.393235
31
0.0
0
LINE
8
0
6
CONTINUOUS
10
-0.735550
20
-37.393235
30
0.0
11
3.934110
21
-36.990725
31
0.0
0
LINE
8
0
6
CONTINUOUS
10
-0.671580
20
-32.710575
30
0.0
11
-0.735550
21
-37.393235
31
0.0
0
LINE
8
0
6
CONTINUOUS
10
-7.324560
20
-35.753335
30
0.0
11
-5.399040
21
-36.880705
31
0.0
0
LINE
8
0
6
CONTINUOUS
10
-7.258140
20
-30.891765
30
0.0
11
-7.324560
21
-35.753335
31
0.0
0
LINE
8
0
6
CONTINUOUS
10
-5.399040
20
-36.880705
30
0.0
11
-5.334320
21
-32.143045
31
0.0
0
LINE
8
0
6
CONTINUOUS
10
3.934110
20
-36.990725
30
0.0
11
5.874520
21
-35.908935
31
0.0
0
LINE
8
0
6
CONTINUOUS
10
3.998710
20
-32.261945
30
0.0
11
3.934110
21
-36.990725
31
0.0
0
LINE
8
0
6
CONTINUOUS
10
5.874520
20
-35.908935
30
0.0
11
5.940770
21
-31.059925
31
0.0
0
LINE
8
0
6
CONTINUOUS
10
-7.763410
20
-79.506805
30
0.0
11
-7.796350
21
-83.738395
31
0.0
0
LINE
8
0
6
CONTINUOUS
10
-5.834677
20
-80.344800
30
0.0
11
-5.865720
21
-84.335025
31
0.0
0
LINE
8
0
6
CONTINUOUS
10
-7.695470
20
-70.776205
30
0.0
11
-5.765600
21
-71.467955
31
0.0
0
LINE
8
0
6
CONTINUOUS
10
-7.662540
20
-66.544615
30
0.0
11
-7.695470
21
-70.776205
31
0.0
0
LINE
8
0
6
CONTINUOUS
10
-1.169196
20
-80.659120
30
0.0
11
-1.199950
21
-84.610695
31
0.0
0
LINE
8
0
6
CONTINUOUS
10
3.498817
20
-80.420876
30
0.0
11
3.467830
21
-84.403895
31
0.0
0
LINE
8
0
6
CONTINUOUS
10
5.403280
20
-83.835755
30
0.0
11
5.436130
21
-79.615185
31
0.0
0
LINE
8
0
6
CONTINUOUS
10
-1.231800
20
-88.704375
30
0.0
11
3.435700
21
-88.532455
31
0.0
0
LINE
8
0
6
CONTINUOUS
10
3.435700
20
-88.532455
30
0.0
11
5.370430
21
-88.056285
31
0.0
0
LINE
8
0
6
CONTINUOUS
10
3.467830
20
-84.403895
30
0.0
11
3.435700
21
-88.532455
31
0.0
0
LINE
8
0
6
CONTINUOUS
10
5.370430
20
-88.056285
30
0.0
11
5.403280
21
-83.835755
31
0.0
0
LINE
8
0
6
CONTINUOUS
10
-1.464600
20
-137.285095
30
0.0
11
3.202310
21
-137.238585
31
0.0
0
LINE
8
0
6
CONTINUOUS
10
-7.829280
20
-87.969925
30
0.0
11
-5.897910
21
-88.471385
31
0.0
0
LINE
8
0
6
CONTINUOUS
10
-7.796350
20
-83.738395
30
0.0
11
-7.829280
21
-87.969925
31
0.0
0
LINE
8
0
6
CONTINUOUS
10
-8.039850
20
-129.770625
30
0.0
11
-8.052180
21
-133.419285
31
0.0
0
LINE
8
0
6
CONTINUOUS
10
-6.107276
20
-130.055315
30
0.0
11
-6.119290
21
-133.611655
31
0.0
0
LINE
8
0
6
CONTINUOUS
10
-8.010110
20
-120.970705
30
0.0
11
-6.077390
21
-121.209045
31
0.0
0
LINE
8
0
6
CONTINUOUS
10
-7.997780
20
-117.322045
30
0.0
11
-8.010110
21
-120.970705
31
0.0
0
LINE
8
0
6
CONTINUOUS
10
5.147750
20
-133.461285
30
0.0
11
5.160060
21
-129.820475
31
0.0
0
LINE
8
0
6
CONTINUOUS
10
-1.440547
20
-130.165822
30
0.0
11
-1.452500
21
-133.703665
31
0.0
0
LINE
8
0
6
CONTINUOUS
10
3.214460
20
-133.641385
30
0.0
11
3.226455
21
-130.090036
31
0.0
0
LINE
8
0
6
CONTINUOUS
10
-6.131470
20
-137.214405
30
0.0
11
-1.464600
21
-137.285095
31
0.0
0
LINE
8
0
6
CONTINUOUS
10
-1.464600
20
-137.285095
30
0.0
11
-1.452500
21
-133.703665
31
0.0
0
LINE
8
0
6
CONTINUOUS
10
-8.064510
20
-137.067995
30
0.0
11
-6.131470
21
-137.214405
31
0.0
0
LINE
8
0
6
CONTINUOUS
10
-8.052180
20
-133.419285
30
0.0
11
-8.064510
21
-137.067995
31
0.0
0
LINE
8
0
6
CONTINUOUS
10
-6.131470
20
-137.214405
30
0.0
11
-6.119290
21
-133.611655
31
0.0
0
LINE
8
0
6
CONTINUOUS
10
5.106620
20
-149.252085
30
0.0
11
5.112650
21
-145.904615
31
0.0
0
LINE
8
0
6
CONTINUOUS
10
3.202310
20
-137.238585
30
0.0
11
5.135450
21
-137.102145
31
0.0
0
LINE
8
0
6
CONTINUOUS
10
3.214460
20
-133.641385
30
0.0
11
3.202310
21
-137.238585
31
0.0
0
LINE
8
0
6
CONTINUOUS
10
5.135450
20
-137.102145
30
0.0
11
5.147750
21
-133.461285
31
0.0
0
LINE
8
0
6
CONTINUOUS
10
-8.087310
20
-145.870475
30
0.0
11
-8.093350
21
-149.223865
31
0.0
0
LINE
8
0
6
CONTINUOUS
10
-8.129470
20
-176.589315
30
0.0
11
-8.131580
21
-179.637795
31
0.0
0
LINE
8
0
6
CONTINUOUS
10
-6.196340
20
-176.704485
30
0.0
11
-6.198460
21
-179.770235
31
0.0
0
LINE
8
0
6
CONTINUOUS
10
-8.123390
20
-167.784275
30
0.0
11
-6.190260
21
-167.899435
31
0.0
0
LINE
8
0
6
CONTINUOUS
10
-8.121290
20
-164.735795
30
0.0
11
-8.123390
21
-167.784275
31
0.0
0
LINE
8
0
6
CONTINUOUS
10
5.068420
20
-179.646715
30
0.0
11
5.070530
21
-176.601985
31
0.0
0
LINE
8
0
6
CONTINUOUS
10
-1.529420
20
-176.755945
30
0.0
11
-1.531540
21
-179.827765
31
0.0
0
LINE
8
0
6
CONTINUOUS
10
3.135340
20
-179.776615
30
0.0
11
3.137444
21
-176.736581
31
0.0
0
LINE
8
0
6
CONTINUOUS
10
-6.200580
20
-182.835975
30
0.0
11
-1.533670
21
-182.899565
31
0.0
0
LINE
8
0
6
CONTINUOUS
10
-8.133680
20
-182.686215
30
0.0
11
-6.200580
21
-182.835975
31
0.0
0
LINE
8
0
6
CONTINUOUS
10
-8.131580
20
-179.637795
30
0.0
11
-8.133680
21
-182.686215
31
0.0
0
LINE
8
0
6
CONTINUOUS
10
-6.200580
20
-182.835975
30
0.0
11
-6.198460
21
-179.770235
31
0.0
0
LINE
8
0
6
CONTINUOUS
10
5.062550
20
-194.226115
30
0.0
11
5.062830
21
-191.493305
31
0.0
0
LINE
8
0
6
CONTINUOUS
10
3.133220
20
-182.839715
30
0.0
11
5.066320
21
-182.691405
31
0.0
0
LINE
8
0
6
CONTINUOUS
10
5.066320
20
-182.691405
30
0.0
11
5.068420
21
-179.646715
31
0.0
0
LINE
8
0
6
CONTINUOUS
10
-8.137170
20
-191.488115
30
0.0
11
-8.137450
21
-194.222655
31
0.0
0
LINE
8
0
6
CONTINUOUS
10
4.718870
20
-16.404385
30
0.0
11
6.829910
21
-16.015475
31
0.0
0
LINE
8
0
6
CONTINUOUS
10
-5.455860
20
-16.398625
30
0.0
11
-3.004290
21
-16.645245
31
0.0
0
LINE
8
0
6
CONTINUOUS
10
6.829910
20
-16.015475
30
0.0
11
8.451780
21
-15.508005
31
0.0
0
LINE
8
0
6
CONTINUOUS
10
-3.004290
20
-16.645245
30
0.0
11
-0.371690
21
-16.730345
31
0.0
0
LINE
8
0
6
CONTINUOUS
10
-9.894030
20
-15.074416
30
0.0
11
-9.171390
21
-15.498085
31
0.0
0
LINE
8
0
6
CONTINUOUS
10
8.451780
20
-15.508005
30
0.0
11
8.579436
21
-15.434144
31
0.0
0
LINE
8
0
6
CONTINUOUS
10
-0.371690
20
-16.730345
30
0.0
11
2.262540
21
-16.648175
31
0.0
0
LINE
8
0
6
CONTINUOUS
10
-9.171390
20
-15.498085
30
0.0
11
-7.559340
21
-16.007385
31
0.0
0
LINE
8
0
6
CONTINUOUS
10
2.262540
20
-16.648175
30
0.0
11
4.718870
21
-16.404385
31
0.0
0
LINE
8
0
6
CONTINUOUS
10
-7.559340
20
-16.007385
30
0.0
11
-5.455860
21
-16.398625
31
0.0
0
LINE
8
0
6
CONTINUOUS
10
-12.054300
20
13.131081
30
0.0
11
-11.589861
21
4.822279
31
0.0
0
LINE
8
0
6
CONTINUOUS
10
10.916996
20
5.220824
30
0.0
11
11.356860
21
13.089497
31
0.0
0
LINE
8
0
6
CONTINUOUS
10
-0.491940
20
-19.560425
30
0.0
11
4.178990
21
-19.065675
31
0.0
0
LINE
8
0
6
CONTINUOUS
10
-7.076050
20
-17.562755
30
0.0
11
-5.153920
21
-18.937915
31
0.0
0
LINE
8
0
6
CONTINUOUS
10
-7.056081
20
-16.100989
30
0.0
11
-7.076050
21
-17.562755
31
0.0
0
LINE
8
0
6
CONTINUOUS
10
-5.153920
20
-18.937915
30
0.0
11
-0.491940
21
-19.560425
31
0.0
0
LINE
8
0
6
CONTINUOUS
10
-5.119691
20
-16.432442
30
0.0
11
-5.153920
21
-18.937915
31
0.0
0
LINE
8
0
6
CONTINUOUS
10
-0.491940
20
-19.560425
30
0.0
11
-0.453239
21
-16.727709
31
0.0
0
LINE
8
0
6
CONTINUOUS
10
3.828038
20
-45.797362
30
0.0
11
3.784190
21
-49.955115
31
0.0
0
LINE
8
0
6
CONTINUOUS
10
5.723430
20
-48.983235
30
0.0
11
5.764612
21
-45.079086
31
0.0
0
LINE
8
0
6
CONTINUOUS
10
4.178990
20
-19.065675
30
0.0
11
6.122690
21
-17.743485
31
0.0
0
LINE
8
0
6
CONTINUOUS
10
4.214665
20
-16.454427
30
0.0
11
4.178990
21
-19.065675
31
0.0
0
LINE
8
0
6
CONTINUOUS
10
6.122690
20
-17.743485
30
0.0
11
6.144572
21
-16.141733
31
0.0
0
LINE
8
0
6
CONTINUOUS
10
4.059205
20
-27.833982
30
0.0
11
3.998710
21
-32.261945
31
0.0
0
LINE
8
0
6
CONTINUOUS
10
5.940770
20
-31.059925
30
0.0
11
5.996741
21
-26.962941
31
0.0
0
LINE
8
0
6
CONTINUOUS
10
-5.273708
20
-27.706427
30
0.0
11
-5.334320
21
-32.143045
31
0.0
0
LINE
8
0
6
CONTINUOUS
10
-0.671580
20
-32.710575
30
0.0
11
-0.611661
21
-28.324724
31
0.0
0
LINE
8
0
6
CONTINUOUS
10
-5.595710
20
-54.276555
30
0.0
11
-0.931140
21
-54.688045
31
0.0
0
LINE
8
0
6
CONTINUOUS
10
-1.100150
20
-71.786265
30
0.0
11
3.567890
21
-71.544615
31
0.0
0
LINE
8
0
6
CONTINUOUS
10
-7.523630
20
-53.376175
30
0.0
11
-5.595710
21
-54.276555
31
0.0
0
LINE
8
0
6
CONTINUOUS
10
-7.475780
20
-48.839715
30
0.0
11
-7.523630
21
-53.376175
31
0.0
0
LINE
8
0
6
CONTINUOUS
10
-5.595710
20
-54.276555
30
0.0
11
-5.549060
21
-49.853615
31
0.0
0
LINE
8
0
6
CONTINUOUS
10
-7.619915
20
-62.503485
30
0.0
11
-7.662540
21
-66.544615
31
0.0
0
LINE
8
0
6
CONTINUOUS
10
-5.733410
20
-67.331545
30
0.0
11
-5.688991
21
-63.120161
31
0.0
0
LINE
8
0
6
CONTINUOUS
10
-0.931140
20
-54.688045
30
0.0
11
3.737630
21
-54.369535
31
0.0
0
LINE
8
0
6
CONTINUOUS
10
-0.885030
20
-50.315645
30
0.0
11
-0.931140
21
-54.688045
31
0.0
0
LINE
8
0
6
CONTINUOUS
10
3.600020
20
-67.416005
30
0.0
11
3.644341
21
-63.213836
31
0.0
0
LINE
8
0
6
CONTINUOUS
10
-1.024441
20
-63.534434
30
0.0
11
-1.068300
21
-67.692525
31
0.0
0
LINE
8
0
6
CONTINUOUS
10
-7.434440
20
-44.920783
30
0.0
11
-7.475780
21
-48.839715
31
0.0
0
LINE
8
0
6
CONTINUOUS
10
3.737630
20
-54.369535
30
0.0
11
5.675700
21
-53.507605
31
0.0
0
LINE
8
0
6
CONTINUOUS
10
3.784190
20
-49.955115
30
0.0
11
3.737630
21
-54.369535
31
0.0
0
LINE
8
0
6
CONTINUOUS
10
5.675700
20
-53.507605
30
0.0
11
5.723430
21
-48.983235
31
0.0
0
LINE
8
0
6
CONTINUOUS
10
-1.290010
20
-97.573304
30
0.0
11
-1.310040
21
-101.293515
31
0.0
0
LINE
8
0
6
CONTINUOUS
10
-5.765600
20
-71.467955
30
0.0
11
-1.100150
21
-71.786265
31
0.0
0
LINE
8
0
6
CONTINUOUS
10
-5.733410
20
-67.331545
30
0.0
11
-5.765600
21
-71.467955
31
0.0
0
LINE
8
0
6
CONTINUOUS
10
-1.100150
20
-71.786265
30
0.0
11
-1.068300
21
-67.692525
31
0.0
0
LINE
8
0
6
CONTINUOUS
10
-7.886890
20
-96.725485
30
0.0
11
-7.908090
21
-100.664205
31
0.0
0
LINE
8
0
6
CONTINUOUS
10
-5.976330
20
-101.093305
30
0.0
11
-5.956120
21
-97.340314
31
0.0
0
LINE
8
0
6
CONTINUOUS
10
3.377490
20
-97.401398
30
0.0
11
3.357320
21
-101.147615
31
0.0
0
LINE
8
0
6
CONTINUOUS
10
5.291670
20
-100.741025
30
0.0
11
5.312830
21
-96.811845
31
0.0
0
LINE
8
0
6
CONTINUOUS
10
3.600020
20
-67.416005
30
0.0
11
3.567890
21
-71.544615
31
0.0
0
LINE
8
0
6
CONTINUOUS
10
5.504070
20
-70.884565
30
0.0
11
5.536920
21
-66.663975
31
0.0
0
LINE
8
0
6
CONTINUOUS
10
-5.897910
20
-88.471385
30
0.0
11
-1.231800
21
-88.704375
31
0.0
0
LINE
8
0
6
CONTINUOUS
10
-5.865720
20
-84.335025
30
0.0
11
-5.897910
21
-88.471385
31
0.0
0
LINE
8
0
6
CONTINUOUS
10
-1.231800
20
-88.704375
30
0.0
11
-1.199950
21
-84.610695
31
0.0
0
LINE
8
0
6
CONTINUOUS
10
-5.997140
20
-104.959835
30
0.0
11
-1.330670
21
-105.127265
31
0.0
0
LINE
8
0
6
CONTINUOUS
10
-7.929300
20
-104.603145
30
0.0
11
-5.997140
21
-104.959835
31
0.0
0
LINE
8
0
6
CONTINUOUS
10
-7.908090
20
-100.664205
30
0.0
11
-7.929300
21
-104.603145
31
0.0
0
LINE
8
0
6
CONTINUOUS
10
-5.997140
20
-104.959835
30
0.0
11
-5.976330
21
-101.093305
31
0.0
0
LINE
8
0
6
CONTINUOUS
10
-1.330670
20
-105.127265
30
0.0
11
3.336540
21
-105.007395
31
0.0
0
LINE
8
0
6
CONTINUOUS
10
-1.310040
20
-101.293515
30
0.0
11
-1.330670
21
-105.127265
31
0.0
0
LINE
8
0
6
CONTINUOUS
10
3.336540
20
-105.007395
30
0.0
11
5.270520
21
-104.670405
31
0.0
0
LINE
8
0
6
CONTINUOUS
10
3.357320
20
-101.147615
30
0.0
11
3.336540
21
-105.007395
31
0.0
0
LINE
8
0
6
CONTINUOUS
10
5.270520
20
-104.670405
30
0.0
11
5.291670
21
-100.741025
31
0.0
0
LINE
8
0
6
CONTINUOUS
10
5.202100
20
-117.379765
30
0.0
11
5.223250
21
-113.450415
31
0.0
0
LINE
8
0
6
CONTINUOUS
10
-7.976570
20
-113.383135
30
0.0
11
-7.997780
21
-117.322045
31
0.0
0
LINE
8
0
6
CONTINUOUS
10
-6.065220
20
-117.606395
30
0.0
11
-6.044858
21
-113.823042
31
0.0
0
LINE
8
0
6
CONTINUOUS
10
-1.378384
20
-113.991626
30
0.0
11
-1.398570
21
-117.741015
31
0.0
0
LINE
8
0
6
CONTINUOUS
10
3.268500
20
-117.647175
30
0.0
11
3.288830
21
-113.870969
31
0.0
0
LINE
8
0
6
CONTINUOUS
10
3.173510
20
-149.374105
30
0.0
11
3.179451
21
-146.073852
31
0.0
0
LINE
8
0
6
CONTINUOUS
10
-6.077390
20
-121.209045
30
0.0
11
-1.410670
21
-121.322375
31
0.0
0
LINE
8
0
6
CONTINUOUS
10
-6.065220
20
-117.606395
30
0.0
11
-6.077390
21
-121.209045
31
0.0
0
LINE
8
0
6
CONTINUOUS
10
5.189800
20
-121.020565
30
0.0
11
5.202100
21
-117.379765
31
0.0
0
LINE
8
0
6
CONTINUOUS
10
-1.533670
20
-182.899565
30
0.0
11
3.133220
21
-182.839715
31
0.0
0
LINE
8
0
6
CONTINUOUS
10
-1.531540
20
-179.827765
30
0.0
11
-1.533670
21
-182.899565
31
0.0
0
LINE
8
0
6
CONTINUOUS
10
3.133220
20
-182.839715
30
0.0
11
3.135340
21
-179.776615
31
0.0
0
LINE
8
0
6
CONTINUOUS
10
-1.398570
20
-117.741015
30
0.0
11
-1.410670
21
-121.322375
31
0.0
0
LINE
8
0
6
CONTINUOUS
10
3.256350
20
-121.244315
30
0.0
11
3.268500
21
-117.647175
31
0.0
0
LINE
8
0
6
CONTINUOUS
10
-6.154260
20
-146.016885
30
0.0
11
-6.160270
21
-149.354095
31
0.0
0
LINE
8
0
6
CONTINUOUS
10
-1.493380
20
-149.416355
30
0.0
11
-1.487439
21
-146.120354
31
0.0
0
LINE
8
0
6
CONTINUOUS
10
-8.099390
20
-152.577285
30
0.0
11
-6.166280
21
-152.691345
31
0.0
0
LINE
8
0
6
CONTINUOUS
10
-8.093350
20
-149.223865
30
0.0
11
-8.099390
21
-152.577285
31
0.0
0
LINE
8
0
6
CONTINUOUS
10
-8.115250
20
-161.382365
30
0.0
11
-8.121290
21
-164.735795
31
0.0
0
LINE
8
0
6
CONTINUOUS
10
-6.166280
20
-152.691345
30
0.0
11
-1.499370
21
-152.745165
31
0.0
0
LINE
8
0
6
CONTINUOUS
10
-6.160270
20
-149.354095
30
0.0
11
-6.166280
21
-152.691345
31
0.0
0
LINE
8
0
6
CONTINUOUS
10
-6.182130
20
-161.496425
30
0.0
11
-6.188140
21
-164.833675
31
0.0
0
LINE
8
0
6
CONTINUOUS
10
5.100590
20
-152.599605
30
0.0
11
5.106620
21
-149.252085
31
0.0
0
LINE
8
0
6
CONTINUOUS
10
5.078710
20
-164.752195
30
0.0
11
5.084740
21
-161.404685
31
0.0
0
LINE
8
0
6
CONTINUOUS
10
-1.493380
20
-149.416355
30
0.0
11
-1.499370
21
-152.745165
31
0.0
0
LINE
8
0
6
CONTINUOUS
10
3.167510
20
-152.707175
30
0.0
11
3.173510
21
-149.374105
31
0.0
0
LINE
8
0
6
CONTINUOUS
10
-1.515220
20
-161.550255
30
0.0
11
-1.521210
21
-164.879075
31
0.0
0
LINE
8
0
6
CONTINUOUS
10
3.145660
20
-164.845315
30
0.0
11
3.151619
21
-161.535284
31
0.0
0
LINE
8
0
6
CONTINUOUS
10
3.129440
20
-194.423235
30
0.0
11
3.129717
21
-191.676194
31
0.0
0
LINE
8
0
6
CONTINUOUS
10
-6.190260
20
-167.899435
30
0.0
11
-1.523330
21
-167.950895
31
0.0
0
LINE
8
0
6
CONTINUOUS
10
-6.188140
20
-164.833675
30
0.0
11
-6.190260
21
-167.899435
31
0.0
0
LINE
8
0
6
CONTINUOUS
10
5.076610
20
-167.796935
30
0.0
11
5.078710
21
-164.752195
31
0.0
0
LINE
8
0
6
CONTINUOUS
10
-1.521210
20
-164.879075
30
0.0
11
-1.523330
21
-167.950895
31
0.0
0
LINE
8
0
6
CONTINUOUS
10
3.143540
20
-167.908435
30
0.0
11
3.145660
21
-164.845315
31
0.0
0
LINE
8
0
6
CONTINUOUS
10
-6.204080
20
-191.637875
30
0.0
11
-6.204370
21
-194.420715
31
0.0
0
LINE
8
0
6
CONTINUOUS
10
-1.537460
20
-194.503825
30
0.0
11
-1.537174
21
-191.736065
31
0.0
0
LINE
8
0
6
CONTINUOUS
10
-6.204660
20
-197.203525
30
0.0
11
-1.537750
21
-197.306135
31
0.0
0
LINE
8
0
6
CONTINUOUS
10
-8.137730
20
-196.957125
30
0.0
11
-6.204660
21
-197.203525
31
0.0
0
LINE
8
0
6
CONTINUOUS
10
-8.137450
20
-194.222655
30
0.0
11
-8.137730
21
-196.957125
31
0.0
0
LINE
8
0
6
CONTINUOUS
10
-6.204660
20
-197.203525
30
0.0
11
-6.204370
21
-194.420715
31
0.0
0
LINE
8
0
6
CONTINUOUS
10
-1.537460
20
-194.503825
30
0.0
11
-1.537750
21
-197.306135
31
0.0
0
LINE
8
0
6
CONTINUOUS
10
3.129440
20
-194.423235
30
0.0
11
3.129150
21
-197.204795
31
0.0
0
LINE
8
0
6
CONTINUOUS
10
5.062270
20
-196.958865
30
0.0
11
5.062550
21
-194.226115
31
0.0
0
LINE
8
0
6
CONTINUOUS
10
-5.505111
20
-45.687144
30
0.0
11
-5.549060
21
-49.853615
31
0.0
0
LINE
8
0
6
CONTINUOUS
10
-0.885030
20
-50.315645
30
0.0
11
-0.841620
21
-46.199687
31
0.0
0
LINE
8
0
6
CONTINUOUS
10
6.196600
20
-145.303975
30
0.0
11
6.216280
21
-137.708385
31
0.0
0
LINE
8
0
6
CONTINUOUS
10
5.066320
20
-182.691405
30
0.0
11
3.133220
21
-182.839715
31
0.0
0
LINE
8
0
6
CONTINUOUS
10
5.370430
20
-88.056285
30
0.0
11
3.435700
21
-88.532455
31
0.0
0
LINE
8
0
6
CONTINUOUS
10
-1.533670
20
-182.899565
30
0.0
11
-6.200580
21
-182.835975
31
0.0
0
LINE
8
0
6
CONTINUOUS
10
4.178990
20
-19.065675
30
0.0
11
-0.491940
21
-19.560425
31
0.0
0
LINE
8
0
6
CONTINUOUS
10
3.737630
20
-54.369535
30
0.0
11
-0.931140
21
-54.688045
31
0.0
0
LINE
8
0
6
CONTINUOUS
10
5.135450
20
-137.102145
30
0.0
11
3.202310
21
-137.238585
31
0.0
0
LINE
8
0
6
CONTINUOUS
10
-5.399040
20
-36.880705
30
0.0
11
-7.324560
21
-35.753335
31
0.0
0
LINE
8
0
6
CONTINUOUS
10
-6.200580
20
-182.835975
30
0.0
11
-8.133680
21
-182.686215
31
0.0
0
LINE
8
0
6
CONTINUOUS
10
-5.153920
20
-18.937915
30
0.0
11
-7.076050
21
-17.562755
31
0.0
0
LINE
8
0
6
CONTINUOUS
10
-1.464600
20
-137.285095
30
0.0
11
-6.131470
21
-137.214405
31
0.0
0
LINE
8
0
6
CONTINUOUS
10
-0.491940
20
-19.560425
30
0.0
11
-5.153920
21
-18.937915
31
0.0
0
LINE
8
0
6
CONTINUOUS
10
-5.595710
20
-54.276555
30
0.0
11
-7.523630
21
-53.376175
31
0.0
0
LINE
8
0
6
CONTINUOUS
10
6.122690
20
-17.743485
30
0.0
11
4.178990
21
-19.065675
31
0.0
0
LINE
8
0
6
CONTINUOUS
10
-5.765600
20
-71.467955
30
0.0
11
-7.695470
21
-70.776205
31
0.0
0
LINE
8
0
6
CONTINUOUS
10
5.675700
20
-53.507605
30
0.0
11
3.737630
21
-54.369535
31
0.0
0
LINE
8
0
6
CONTINUOUS
10
-0.931140
20
-54.688045
30
0.0
11
-5.595710
21
-54.276555
31
0.0
0
LINE
8
0
6
CONTINUOUS
10
5.504070
20
-70.884565
30
0.0
11
3.567890
21
-71.544615
31
0.0
0
LINE
8
0
6
CONTINUOUS
10
-1.100150
20
-71.786265
30
0.0
11
-5.765600
21
-71.467955
31
0.0
0
LINE
8
0
6
CONTINUOUS
10
-5.997140
20
-104.959835
30
0.0
11
-7.929300
21
-104.603145
31
0.0
0
LINE
8
0
6
CONTINUOUS
10
-1.330670
20
-105.127265
30
0.0
11
-5.997140
21
-104.959835
31
0.0
0
LINE
8
0
6
CONTINUOUS
10
5.270520
20
-104.670405
30
0.0
11
3.336540
21
-105.007395
31
0.0
0
LINE
8
0
6
CONTINUOUS
10
-6.077390
20
-121.209045
30
0.0
11
-8.010110
21
-120.970705
31
0.0
0
LINE
8
0
6
CONTINUOUS
10
-1.410670
20
-121.322375
30
0.0
11
-6.077390
21
-121.209045
31
0.0
0
LINE
8
0
6
CONTINUOUS
10
5.189800
20
-121.020565
30
0.0
11
3.256350
21
-121.244315
31
0.0
0
LINE
8
0
6
CONTINUOUS
10
-6.166280
20
-152.691345
30
0.0
11
-8.099390
21
-152.577285
31
0.0
0
LINE
8
0
6
CONTINUOUS
10
-1.499370
20
-152.745165
30
0.0
11
-6.166280
21
-152.691345
31
0.0
0
LINE
8
0
6
CONTINUOUS
10
5.100590
20
-152.599605
30
0.0
11
3.167510
21
-152.707175
31
0.0
0
LINE
8
0
6
CONTINUOUS
10
-6.190260
20
-167.899435
30
0.0
11
-8.123390
21
-167.784275
31
0.0
0
LINE
8
0
6
CONTINUOUS
10
-1.523330
20
-167.950895
30
0.0
11
-6.190260
21
-167.899435
31
0.0
0
LINE
8
0
6
CONTINUOUS
10
5.076610
20
-167.796935
30
0.0
11
3.143540
21
-167.908435
31
0.0
0
LINE
8
0
6
CONTINUOUS
10
-6.204660
20
-197.203525
30
0.0
11
-8.137730
21
-196.957125
31
0.0
0
LINE
8
0
6
CONTINUOUS
10
-1.537750
20
-197.306135
30
0.0
11
-6.204660
21
-197.203525
31
0.0
0
LINE
8
0
6
CONTINUOUS
10
5.062270
20
-196.958865
30
0.0
11
3.129150
21
-197.204795
31
0.0
0
LINE
8
0
6
CONTINUOUS
10
-6.131470
20
-137.214405
30
0.0
11
-8.064510
21
-137.067995
31
0.0
0
LINE
8
0
6
CONTINUOUS
10
3.133220
20
-182.839715
30
0.0
11
-1.533670
21
-182.899565
31
0.0
0
LINE
8
0
6
CONTINUOUS
10
6.145460
20
-190.890315
30
0.0
11
6.148470
21
-183.295265
31
0.0
0
LINE
8
0
6
CONTINUOUS
10
-8.413970
20
-36.327095
30
0.0
11
-8.503150
21
-43.704365
31
0.0
0
LINE
8
0
6
CONTINUOUS
10
6.399140
20
-96.218525
30
0.0
11
6.448860
21
-88.663755
31
0.0
0
LINE
8
0
6
CONTINUOUS
10
-6.172670
20
-37.639345
30
0.0
11
-6.261487
21
-44.986630
31
0.0
0
LINE
8
0
6
CONTINUOUS
10
-9.148460
20
-137.668635
30
0.0
11
-9.168140
21
-145.264225
31
0.0
0
LINE
8
0
6
CONTINUOUS
10
-9.216310
20
-183.289225
30
0.0
11
-9.219330
21
-190.884265
31
0.0
0
LINE
8
0
6
CONTINUOUS
10
-6.717180
20
-96.701715
30
0.0
11
-6.667490
21
-89.146905
31
0.0
0
LINE
8
0
6
CONTINUOUS
10
-8.915600
20
-88.563225
30
0.0
11
-8.965300
21
-96.117995
31
0.0
0
LINE
8
0
6
CONTINUOUS
10
3.946430
20
-145.462775
30
0.0
11
3.966100
21
-137.867195
31
0.0
0
LINE
8
0
6
CONTINUOUS
10
3.895330
20
-191.062945
30
0.0
11
3.898340
21
-183.467905
31
0.0
0
LINE
8
0
6
CONTINUOUS
10
6.860550
20
-43.885495
30
0.0
11
6.949750
21
-36.508225
31
0.0
0
LINE
8
0
6
CONTINUOUS
10
-0.744370
20
-38.235935
30
0.0
11
-0.833550
21
-45.613265
31
0.0
0
LINE
8
0
6
CONTINUOUS
10
4.601930
20
-45.144725
30
0.0
11
4.691120
21
-37.767415
31
0.0
0
LINE
8
0
6
CONTINUOUS
10
-1.485830
20
-145.516905
30
0.0
11
-1.466170
21
-137.921325
31
0.0
0
LINE
8
0
6
CONTINUOUS
10
-6.898400
20
-137.839045
30
0.0
11
-6.918060
21
-145.434645
31
0.0
0
LINE
8
0
6
CONTINUOUS
10
-1.236140
20
-89.418095
30
0.0
11
-1.285840
21
-96.972925
31
0.0
0
LINE
8
0
6
CONTINUOUS
10
4.147120
20
-96.772805
30
0.0
11
4.196830
21
-89.217995
31
0.0
0
LINE
8
0
6
CONTINUOUS
10
-1.536930
20
-191.132635
30
0.0
11
-1.533910
21
-183.537595
31
0.0
0
LINE
8
0
6
CONTINUOUS
10
-6.966180
20
-183.463555
30
0.0
11
-6.969210
21
-191.058595
31
0.0
0
LINE
8
0
6
CONTINUOUS
10
-6.025460
20
-27.026025
30
0.0
11
-5.931390
21
-19.717515
31
0.0
0
LINE
8
0
6
CONTINUOUS
10
-8.166440
20
-18.127025
30
0.0
11
-8.266200
21
-25.436905
31
0.0
0
LINE
8
0
6
CONTINUOUS
10
7.097400
20
-25.646225
30
0.0
11
7.197170
21
-18.336345
31
0.0
0
LINE
8
0
6
CONTINUOUS
10
-0.502320
20
-20.437995
30
0.0
11
-0.601680
21
-27.744855
31
0.0
0
LINE
8
0
6
CONTINUOUS
10
4.832100
20
-27.173865
30
0.0
11
4.937140
21
-19.865605
31
0.0
0
LINE
8
0
6
CONTINUOUS
10
-6.448380
20
-62.460085
30
0.0
11
-6.366180
21
-55.012525
31
0.0
0
LINE
8
0
6
CONTINUOUS
10
-8.612290
20
-53.957485
30
0.0
11
-8.690900
21
-61.404385
31
0.0
0
LINE
8
0
6
CONTINUOUS
10
6.673290
20
-61.558285
30
0.0
11
6.751920
21
-54.111365
31
0.0
0
LINE
8
0
6
CONTINUOUS
10
-0.938440
20
-55.494315
30
0.0
11
-1.017360
21
-62.942645
31
0.0
0
LINE
8
0
6
CONTINUOUS
10
4.418690
20
-62.569005
30
0.0
11
4.494030
21
-55.121295
31
0.0
0
LINE
8
0
6
CONTINUOUS
10
-6.591890
20
-79.695325
30
0.0
11
-6.538510
21
-72.160595
31
0.0
0
LINE
8
0
6
CONTINUOUS
10
-8.782600
20
-71.365495
30
0.0
11
-8.841160
21
-78.900785
31
0.0
0
LINE
8
0
6
CONTINUOUS
10
6.523250
20
-79.025875
30
0.0
11
6.581820
21
-71.490575
31
0.0
0
LINE
8
0
6
CONTINUOUS
10
4.267020
20
-79.783745
30
0.0
11
4.330390
21
-72.249145
31
0.0
0
LINE
8
0
6
CONTINUOUS
10
-1.105610
20
-72.526825
30
0.0
11
-1.163790
21
-80.060815
31
0.0
0
LINE
8
0
6
CONTINUOUS
10
-6.807350
20
-113.193445
30
0.0
11
-6.765090
21
-105.617355
31
0.0
0
LINE
8
0
6
CONTINUOUS
10
-9.014940
20
-105.199335
30
0.0
11
-9.055760
21
-112.775305
31
0.0
0
LINE
8
0
6
CONTINUOUS
10
6.308890
20
-112.854205
30
0.0
11
6.349720
21
-105.278215
31
0.0
0
LINE
8
0
6
CONTINUOUS
10
4.058250
20
-113.249225
30
0.0
11
4.097840
21
-105.673105
31
0.0
0
LINE
8
0
6
CONTINUOUS
10
-1.334000
20
-105.813515
30
0.0
11
-1.375020
21
-113.389725
31
0.0
0
LINE
8
0
6
CONTINUOUS
10
-6.868630
20
-129.434065
30
0.0
11
-6.846600
21
-121.840375
31
0.0
0
LINE
8
0
6
CONTINUOUS
10
-9.094590
20
-121.570095
30
0.0
11
-9.120190
21
-129.163905
31
0.0
0
LINE
8
0
6
CONTINUOUS
10
6.244530
20
-129.221075
30
0.0
11
6.270140
21
-121.627275
31
0.0
0
LINE
8
0
6
CONTINUOUS
10
3.992350
20
-129.474465
30
0.0
11
4.021200
21
-121.880815
31
0.0
0
LINE
8
0
6
CONTINUOUS
10
-1.412920
20
-121.969095
30
0.0
11
-1.438220
21
-129.562615
31
0.0
0
LINE
8
0
6
CONTINUOUS
10
-6.945800
20
-160.907055
30
0.0
11
-6.933310
21
-153.309135
31
0.0
0
LINE
8
0
6
CONTINUOUS
10
-9.182860
20
-153.178905
30
0.0
11
-9.196560
21
-160.776865
31
0.0
0
LINE
8
0
6
CONTINUOUS
10
6.168210
20
-160.803065
30
0.0
11
6.181910
21
-153.205105
31
0.0
0
LINE
8
0
6
CONTINUOUS
10
3.917470
20
-160.925635
30
0.0
11
3.932440
21
-153.327715
31
0.0
0
LINE
8
0
6
CONTINUOUS
10
-1.500400
20
-153.370795
30
0.0
11
-1.514160
21
-160.968685
31
0.0
0
LINE
8
0
6
CONTINUOUS
10
-6.960520
20
-176.116105
30
0.0
11
-6.956780
21
-168.518215
31
0.0
0
LINE
8
0
6
CONTINUOUS
10
-9.206230
20
-168.387085
30
0.0
11
-9.211430
21
-175.985015
31
0.0
0
LINE
8
0
6
CONTINUOUS
10
6.153360
20
-175.999165
30
0.0
11
6.158570
21
-168.401245
31
0.0
0
LINE
8
0
6
CONTINUOUS
10
3.902630
20
-176.126175
30
0.0
11
3.909110
21
-168.528285
31
0.0
0
LINE
8
0
6
CONTINUOUS
10
-1.523860
20
-168.576755
30
0.0
11
-1.528870
21
-176.174605
31
0.0
0
LINE
8
0
6
CONTINUOUS
10
-6.969100
20
-205.432335
30
0.0
11
-6.971780
21
-197.839655
31
0.0
0
LINE
8
0
6
CONTINUOUS
10
-9.220210
20
-197.559985
30
0.0
11
-9.220990
21
-205.152875
31
0.0
0
LINE
8
0
6
CONTINUOUS
10
6.143840
20
-205.154795
30
0.0
11
6.144620
21
-197.561945
31
0.0
0
LINE
8
0
6
CONTINUOUS
10
3.891900
20
-205.433805
30
0.0
11
3.896130
21
-197.841105
31
0.0
0
LINE
8
0
6
CONTINUOUS
10
-1.537840
20
-197.956175
30
0.0
11
-1.538600
21
-205.548685
31
0.0
0
LINE
8
0
6
CONTINUOUS
10
3.202310
20
-137.238585
30
0.0
11
-1.464600
21
-137.285095
31
0.0
0
LINE
8
0
6
CONTINUOUS
10
3.129150
20
-197.204795
30
0.0
11
-1.537750
21
-197.306135
31
0.0
0
LINE
8
0
6
CONTINUOUS
10
-0.735550
20
-37.393235
30
0.0
11
-5.399040
21
-36.880705
31
0.0
0
LINE
8
0
6
CONTINUOUS
10
3.143540
20
-167.908435
30
0.0
11
-1.523330
21
-167.950895
31
0.0
0
LINE
8
0
6
CONTINUOUS
10
3.167510
20
-152.707175
30
0.0
11
-1.499370
21
-152.745165
31
0.0
0
LINE
8
0
6
CONTINUOUS
10
3.256350
20
-121.244315
30
0.0
11
-1.410670
21
-121.322375
31
0.0
0
LINE
8
0
6
CONTINUOUS
10
3.336540
20
-105.007395
30
0.0
11
-1.330670
21
-105.127265
31
0.0
0
LINE
8
0
6
CONTINUOUS
10
3.567890
20
-71.544615
30
0.0
11
-1.100150
21
-71.786265
31
0.0
0
LINE
8
0
6
CONTINUOUS
10
-7.518374
20
-52.877874
30
0.0
11
-8.606070
21
-53.364945
31
0.0
0
LINE
8
0
6
CONTINUOUS
10
6.758140
20
-53.518825
30
0.0
11
5.680926
21
-53.012256
31
0.0
0
LINE
8
0
6
CONTINUOUS
10
7.205120
20
-17.757775
30
0.0
11
6.132901
21
-16.996074
31
0.0
0
LINE
8
0
6
CONTINUOUS
10
3.435700
20
-88.532455
30
0.0
11
-1.231800
21
-88.704375
31
0.0
0
LINE
8
0
6
CONTINUOUS
10
-7.065771
20
-16.810319
30
0.0
11
-8.158480
21
-17.548455
31
0.0
0
LINE
8
0
6
CONTINUOUS
10
5.874520
20
-35.908935
30
0.0
11
3.934110
21
-36.990725
31
0.0
0
LINE
8
0
6
CONTINUOUS
10
3.934110
20
-36.990725
30
0.0
11
-0.735550
21
-37.393235
31
0.0
0
LINE
8
0
6
CONTINUOUS
10
-5.897910
20
-88.471385
30
0.0
11
-7.829280
21
-87.969925
31
0.0
0
LINE
8
0
6
CONTINUOUS
10
-1.231800
20
-88.704375
30
0.0
11
-5.897910
21
-88.471385
31
0.0
0
LINE
8
0
6
CONTINUOUS
10
-7.316077
20
-35.132417
30
0.0
11
-8.406870
21
-35.740575
31
0.0
0
LINE
8
0
6
CONTINUOUS
10
6.956840
20
-35.921695
30
0.0
11
5.882936
21
-35.292920
31
0.0
0
LINE
8
0
6
CONTINUOUS
10
-6.205730
20
-216.887355
30
0.0
11
-1.538840
21
-218.352925
31
0.0
0
LINE
8
0
6
CONTINUOUS
10
5.061260
20
-213.348925
30
0.0
11
5.061358
21
-205.892015
31
0.0
0
LINE
8
0
6
CONTINUOUS
10
3.128080
20
-216.887395
30
0.0
11
5.061260
21
-213.348925
31
0.0
0
LINE
8
0
6
CONTINUOUS
10
-8.138642
20
-205.890315
30
0.0
11
-8.138740
21
-213.348905
31
0.0
0
LINE
8
0
6
CONTINUOUS
10
-6.205730
20
-216.887355
30
0.0
11
-6.205571
21
-206.051787
31
0.0
0
LINE
8
0
6
CONTINUOUS
10
-8.138740
20
-213.348905
30
0.0
11
-6.205730
21
-216.887355
31
0.0
0
LINE
8
0
6
CONTINUOUS
10
-1.538671
20
-206.151805
30
0.0
11
-1.538840
21
-218.352925
31
0.0
0
LINE
8
0
6
CONTINUOUS
10
3.128080
20
-216.887395
30
0.0
11
3.128239
21
-206.053050
31
0.0
0
LINE
8
0
6
CONTINUOUS
10
-1.538840
20
-218.352925
30
0.0
11
3.128080
21
-216.887395
31
0.0
0
LINE
8
0
6
CONTINUOUS
10
4.942460
20
-19.286205
30
0.0
11
-0.494170
21
-19.857885
31
0.0
0
LINE
8
0
6
CONTINUOUS
10
-1.168670
20
-80.659155
30
0.0
11
4.264740
21
-80.381775
31
0.0
0
LINE
8
0
6
CONTINUOUS
10
-1.523320
20
-167.973155
30
0.0
11
-6.955610
21
-167.914635
31
0.0
0
LINE
8
0
6
CONTINUOUS
10
-9.181780
20
-152.575335
30
0.0
11
-9.182860
21
-153.178905
31
0.0
0
LINE
8
0
6
CONTINUOUS
10
-6.931630
20
-152.705555
30
0.0
11
-9.181780
21
-152.575335
31
0.0
0
LINE
8
0
6
CONTINUOUS
10
-9.092520
20
-120.967045
30
0.0
11
-9.094590
21
-121.570095
31
0.0
0
LINE
8
0
6
CONTINUOUS
10
-6.842750
20
-121.237245
30
0.0
11
-9.092520
21
-120.967045
31
0.0
0
LINE
8
0
6
CONTINUOUS
10
-1.529410
20
-176.778205
30
0.0
11
3.902820
21
-176.729755
31
0.0
0
LINE
8
0
6
CONTINUOUS
10
6.352930
20
-104.676205
30
0.0
11
4.101680
21
-105.071155
31
0.0
0
LINE
8
0
6
CONTINUOUS
10
6.349720
20
-105.278215
30
0.0
11
6.352930
21
-104.676205
31
0.0
0
LINE
8
0
6
CONTINUOUS
10
4.942460
20
-19.286205
30
0.0
11
4.937140
21
-19.865605
31
0.0
0
LINE
8
0
6
CONTINUOUS
10
7.205120
20
-17.757775
30
0.0
11
4.942460
21
-19.286205
31
0.0
0
LINE
8
0
6
CONTINUOUS
10
7.197170
20
-18.336345
30
0.0
11
7.205120
21
-17.757775
31
0.0
0
LINE
8
0
6
CONTINUOUS
10
6.586510
20
-70.892915
30
0.0
11
4.332680
21
-71.651115
31
0.0
0
LINE
8
0
6
CONTINUOUS
10
6.581820
20
-71.490575
30
0.0
11
6.586510
21
-70.892915
31
0.0
0
LINE
8
0
6
CONTINUOUS
10
-6.947480
20
-161.510635
30
0.0
11
-1.515200
21
-161.572285
31
0.0
0
LINE
8
0
6
CONTINUOUS
10
-6.872480
20
-130.037195
30
0.0
11
-1.440430
21
-130.165825
31
0.0
0
LINE
8
0
6
CONTINUOUS
10
-9.205790
20
-167.783525
30
0.0
11
-9.206230
21
-168.387085
31
0.0
0
LINE
8
0
6
CONTINUOUS
10
-6.955610
20
-167.914635
30
0.0
11
-9.205790
21
-167.783525
31
0.0
0
LINE
8
0
6
CONTINUOUS
10
-6.956780
20
-168.518215
30
0.0
11
-6.955610
21
-167.914635
31
0.0
0
LINE
8
0
6
CONTINUOUS
10
-6.931630
20
-152.705555
30
0.0
11
-6.933310
21
-153.309135
31
0.0
0
LINE
8
0
6
CONTINUOUS
10
-1.499360
20
-152.767195
30
0.0
11
-6.931630
21
-152.705555
31
0.0
0
LINE
8
0
6
CONTINUOUS
10
-6.842750
20
-121.237245
30
0.0
11
-6.846600
21
-121.840375
31
0.0
0
LINE
8
0
6
CONTINUOUS
10
-1.410700
20
-121.365885
30
0.0
11
-6.842750
21
-121.237245
31
0.0
0
LINE
8
0
6
CONTINUOUS
10
6.159000
20
-167.797675
30
0.0
11
3.908910
21
-167.924705
31
0.0
0
LINE
8
0
6
CONTINUOUS
10
6.158570
20
-168.401245
30
0.0
11
6.159000
21
-167.797675
31
0.0
0
LINE
8
0
6
CONTINUOUS
10
6.144680
20
-196.958975
30
0.0
11
3.894470
21
-197.238065
31
0.0
0
LINE
8
0
6
CONTINUOUS
10
6.144620
20
-197.561945
30
0.0
11
6.144680
21
-196.958975
31
0.0
0
LINE
8
0
6
CONTINUOUS
10
-1.529410
20
-176.778205
30
0.0
11
-1.528870
21
-176.174605
31
0.0
0
LINE
8
0
6
CONTINUOUS
10
-6.961690
20
-176.719685
30
0.0
11
-1.529410
21
-176.778205
31
0.0
0
LINE
8
0
6
CONTINUOUS
10
-1.537760
20
-197.353055
30
0.0
11
-6.969980
21
-197.236615
31
0.0
0
LINE
8
0
6
CONTINUOUS
10
-1.538670
20
-206.151805
30
0.0
11
3.893560
21
-206.036855
31
0.0
0
LINE
8
0
6
CONTINUOUS
10
-6.721140
20
-97.302115
30
0.0
11
-1.289790
21
-97.573315
31
0.0
0
LINE
8
0
6
CONTINUOUS
10
6.182990
20
-152.601545
30
0.0
11
3.932880
21
-152.724135
31
0.0
0
LINE
8
0
6
CONTINUOUS
10
6.181910
20
-153.205105
30
0.0
11
6.182990
21
-152.601545
31
0.0
0
LINE
8
0
6
CONTINUOUS
10
6.272200
20
-121.024215
30
0.0
11
4.021640
21
-121.277675
31
0.0
0
LINE
8
0
6
CONTINUOUS
10
6.270140
20
-121.627275
30
0.0
11
6.272200
21
-121.024215
31
0.0
0
LINE
8
0
6
CONTINUOUS
10
-1.515200
20
-161.572285
30
0.0
11
3.917030
21
-161.529215
31
0.0
0
LINE
8
0
6
CONTINUOUS
10
-1.514160
20
-160.968685
30
0.0
11
-1.515200
21
-161.572285
31
0.0
0
LINE
8
0
6
CONTINUOUS
10
-1.440430
20
-130.165825
30
0.0
11
3.991910
21
-130.077605
31
0.0
0
LINE
8
0
6
CONTINUOUS
10
-1.438220
20
-129.562615
30
0.0
11
-1.440430
21
-130.165825
31
0.0
0
LINE
8
0
6
CONTINUOUS
10
-9.220150
20
-196.957015
30
0.0
11
-9.220210
21
-197.559985
31
0.0
0
LINE
8
0
6
CONTINUOUS
10
-6.969980
20
-197.236615
30
0.0
11
-9.220150
21
-196.957015
31
0.0
0
LINE
8
0
6
CONTINUOUS
10
-6.971780
20
-197.839655
30
0.0
11
-6.969980
21
-197.236615
31
0.0
0
LINE
8
0
6
CONTINUOUS
10
-1.538670
20
-206.151805
30
0.0
11
-1.538600
21
-205.548685
31
0.0
0
LINE
8
0
6
CONTINUOUS
10
-6.970900
20
-206.035385
30
0.0
11
-1.538670
21
-206.151805
31
0.0
0
LINE
8
0
6
CONTINUOUS
10
-8.274150
20
-26.015475
30
0.0
11
-6.036260
21
-27.605295
31
0.0
0
LINE
8
0
6
CONTINUOUS
10
-8.266200
20
-25.436905
30
0.0
11
-8.274150
21
-26.015475
31
0.0
0
LINE
8
0
6
CONTINUOUS
10
-1.537170
20
-191.736065
30
0.0
11
3.895090
21
-191.666375
31
0.0
0
LINE
8
0
6
CONTINUOUS
10
-8.845850
20
-79.498445
30
0.0
11
-6.599170
21
-80.293295
31
0.0
0
LINE
8
0
6
CONTINUOUS
10
-8.841160
20
-78.900785
30
0.0
11
-8.845850
21
-79.498445
31
0.0
0
LINE
8
0
6
CONTINUOUS
10
-1.537760
20
-197.353055
30
0.0
11
-1.537840
21
-197.956175
31
0.0
0
LINE
8
0
6
CONTINUOUS
10
3.894470
20
-197.238065
30
0.0
11
-1.537760
21
-197.353055
31
0.0
0
LINE
8
0
6
CONTINUOUS
10
3.896130
20
-197.841105
30
0.0
11
3.894470
21
-197.238065
31
0.0
0
LINE
8
0
6
CONTINUOUS
10
-1.499360
20
-152.767195
30
0.0
11
-1.500400
21
-153.370795
31
0.0
0
LINE
8
0
6
CONTINUOUS
10
3.932880
20
-152.724135
30
0.0
11
-1.499360
21
-152.767195
31
0.0
0
LINE
8
0
6
CONTINUOUS
10
3.932440
20
-153.327715
30
0.0
11
3.932880
21
-152.724135
31
0.0
0
LINE
8
0
6
CONTINUOUS
10
-1.523320
20
-167.973155
30
0.0
11
-1.523860
21
-168.576755
31
0.0
0
LINE
8
0
6
CONTINUOUS
10
3.908910
20
-167.924705
30
0.0
11
-1.523320
21
-167.973155
31
0.0
0
LINE
8
0
6
CONTINUOUS
10
3.909110
20
-168.528285
30
0.0
11
3.908910
21
-167.924705
31
0.0
0
LINE
8
0
6
CONTINUOUS
10
-1.410700
20
-121.365885
30
0.0
11
-1.412920
21
-121.969095
31
0.0
0
LINE
8
0
6
CONTINUOUS
10
4.021640
20
-121.277675
30
0.0
11
-1.410700
21
-121.365885
31
0.0
0
LINE
8
0
6
CONTINUOUS
10
4.021200
20
-121.880815
30
0.0
11
4.021640
21
-121.277675
31
0.0
0
LINE
8
0
6
CONTINUOUS
10
-6.970900
20
-206.035385
30
0.0
11
-6.969100
21
-205.432335
31
0.0
0
LINE
8
0
6
CONTINUOUS
10
-9.221060
20
-205.755845
30
0.0
11
-6.970900
21
-206.035385
31
0.0
0
LINE
8
0
6
CONTINUOUS
10
-9.220990
20
-205.152875
30
0.0
11
-9.221060
21
-205.755845
31
0.0
0
LINE
8
0
6
CONTINUOUS
10
-6.036260
20
-27.605295
30
0.0
11
-0.609840
21
-28.324965
31
0.0
0
LINE
8
0
6
CONTINUOUS
10
-6.025460
20
-27.026025
30
0.0
11
-6.036260
21
-27.605295
31
0.0
0
LINE
8
0
6
CONTINUOUS
10
-1.168670
20
-80.659155
30
0.0
11
-1.163790
21
-80.060815
31
0.0
0
LINE
8
0
6
CONTINUOUS
10
-6.599170
20
-80.293295
30
0.0
11
-1.168670
21
-80.659155
31
0.0
0
LINE
8
0
6
CONTINUOUS
10
-6.591890
20
-79.695325
30
0.0
11
-6.599170
21
-80.293295
31
0.0
0
LINE
8
0
6
CONTINUOUS
10
3.967660
20
-137.263745
30
0.0
11
-1.464610
21
-137.317875
31
0.0
0
LINE
8
0
6
CONTINUOUS
10
6.167130
20
-161.406635
30
0.0
11
6.168210
21
-160.803065
31
0.0
0
LINE
8
0
6
CONTINUOUS
10
3.917030
20
-161.529215
30
0.0
11
6.167130
21
-161.406635
31
0.0
0
LINE
8
0
6
CONTINUOUS
10
3.917470
20
-160.925635
30
0.0
11
3.917030
21
-161.529215
31
0.0
0
LINE
8
0
6
CONTINUOUS
10
6.242470
20
-129.824135
30
0.0
11
6.244530
21
-129.221075
31
0.0
0
LINE
8
0
6
CONTINUOUS
10
3.991910
20
-130.077605
30
0.0
11
6.242470
21
-129.824135
31
0.0
0
LINE
8
0
6
CONTINUOUS
10
3.992350
20
-129.474465
30
0.0
11
3.991910
21
-130.077605
31
0.0
0
LINE
8
0
6
CONTINUOUS
10
6.195040
20
-145.907425
30
0.0
11
6.196600
21
-145.303975
31
0.0
0
LINE
8
0
6
CONTINUOUS
10
3.944870
20
-146.066225
30
0.0
11
6.195040
21
-145.907425
31
0.0
0
LINE
8
0
6
CONTINUOUS
10
-1.100730
20
-71.928485
30
0.0
11
-6.531230
21
-71.562635
31
0.0
0
LINE
8
0
6
CONTINUOUS
10
-6.947480
20
-161.510635
30
0.0
11
-6.945800
21
-160.907055
31
0.0
0
LINE
8
0
6
CONTINUOUS
10
-9.197640
20
-161.380425
30
0.0
11
-6.947480
21
-161.510635
31
0.0
0
LINE
8
0
6
CONTINUOUS
10
-9.196560
20
-160.776865
30
0.0
11
-9.197640
21
-161.380425
31
0.0
0
LINE
8
0
6
CONTINUOUS
10
6.152920
20
-176.602725
30
0.0
11
6.153360
21
-175.999165
31
0.0
0
LINE
8
0
6
CONTINUOUS
10
3.902820
20
-176.729755
30
0.0
11
6.152920
21
-176.602725
31
0.0
0
LINE
8
0
6
CONTINUOUS
10
3.902630
20
-176.126175
30
0.0
11
3.902820
21
-176.729755
31
0.0
0
LINE
8
0
6
CONTINUOUS
10
-0.494170
20
-19.857885
30
0.0
11
-5.920590
21
-19.138235
31
0.0
0
LINE
8
0
6
CONTINUOUS
10
-0.502320
20
-20.437995
30
0.0
11
-0.494170
21
-19.857885
31
0.0
0
LINE
8
0
6
CONTINUOUS
10
-6.872480
20
-130.037195
30
0.0
11
-6.868630
21
-129.434065
31
0.0
0
LINE
8
0
6
CONTINUOUS
10
-9.122260
20
-129.766955
30
0.0
11
-6.872480
21
-130.037195
31
0.0
0
LINE
8
0
6
CONTINUOUS
10
-9.120190
20
-129.163905
30
0.0
11
-9.122260
21
-129.766955
31
0.0
0
LINE
8
0
6
CONTINUOUS
10
3.967660
20
-137.263745
30
0.0
11
3.966100
21
-137.867195
31
0.0
0
LINE
8
0
6
CONTINUOUS
10
6.217840
20
-137.104935
30
0.0
11
3.967660
21
-137.263745
31
0.0
0
LINE
8
0
6
CONTINUOUS
10
6.216280
20
-137.708385
30
0.0
11
6.217840
21
-137.104935
31
0.0
0
LINE
8
0
6
CONTINUOUS
10
-6.961690
20
-176.719685
30
0.0
11
-6.960520
21
-176.116105
31
0.0
0
LINE
8
0
6
CONTINUOUS
10
-9.211870
20
-176.588575
30
0.0
11
-6.961690
21
-176.719685
31
0.0
0
LINE
8
0
6
CONTINUOUS
10
-9.211430
20
-175.985015
30
0.0
11
-9.211870
21
-176.588575
31
0.0
0
LINE
8
0
6
CONTINUOUS
10
-1.378140
20
-113.991635
30
0.0
11
4.054410
21
-113.851175
31
0.0
0
LINE
8
0
6
CONTINUOUS
10
4.101680
20
-105.071155
30
0.0
11
-1.330880
21
-105.211605
31
0.0
0
LINE
8
0
6
CONTINUOUS
10
4.097840
20
-105.673105
30
0.0
11
4.101680
21
-105.071155
31
0.0
0
LINE
8
0
6
CONTINUOUS
10
6.143780
20
-205.757765
30
0.0
11
6.143840
21
-205.154795
31
0.0
0
LINE
8
0
6
CONTINUOUS
10
3.893560
20
-206.036855
30
0.0
11
6.143780
21
-205.757765
31
0.0
0
LINE
8
0
6
CONTINUOUS
10
3.891900
20
-205.433805
30
0.0
11
3.893560
21
-206.036855
31
0.0
0
LINE
8
0
6
CONTINUOUS
10
-9.058990
20
-113.377315
30
0.0
11
-6.809850
21
-113.795405
31
0.0
0
LINE
8
0
6
CONTINUOUS
10
-9.055760
20
-112.775305
30
0.0
11
-9.058990
21
-113.377315
31
0.0
0
LINE
8
0
6
CONTINUOUS
10
-1.378140
20
-113.991635
30
0.0
11
-1.375020
21
-113.389725
31
0.0
0
LINE
8
0
6
CONTINUOUS
10
-6.809850
20
-113.795405
30
0.0
11
-1.378140
21
-113.991635
31
0.0
0
LINE
8
0
6
CONTINUOUS
10
-6.807350
20
-113.193445
30
0.0
11
-6.809850
21
-113.795405
31
0.0
0
LINE
8
0
6
CONTINUOUS
10
-1.330880
20
-105.211605
30
0.0
11
-6.762590
21
-105.015395
31
0.0
0
LINE
8
0
6
CONTINUOUS
10
-1.334000
20
-105.813515
30
0.0
11
-1.330880
21
-105.211605
31
0.0
0
LINE
8
0
6
CONTINUOUS
10
-9.011720
20
-104.597325
30
0.0
11
-9.014940
21
-105.199335
31
0.0
0
LINE
8
0
6
CONTINUOUS
10
-6.762590
20
-105.015395
30
0.0
11
-9.011720
21
-104.597325
31
0.0
0
LINE
8
0
6
CONTINUOUS
10
-6.765090
20
-105.617355
30
0.0
11
-6.762590
21
-105.015395
31
0.0
0
LINE
8
0
6
CONTINUOUS
10
6.305670
20
-113.456215
30
0.0
11
6.308890
21
-112.854205
31
0.0
0
LINE
8
0
6
CONTINUOUS
10
4.054410
20
-113.851175
30
0.0
11
6.305670
21
-113.456215
31
0.0
0
LINE
8
0
6
CONTINUOUS
10
4.058250
20
-113.249225
30
0.0
11
4.054410
21
-113.851175
31
0.0
0
LINE
8
0
6
CONTINUOUS
10
-1.100730
20
-71.928485
30
0.0
11
-1.105610
21
-72.526825
31
0.0
0
LINE
8
0
6
CONTINUOUS
10
4.332680
20
-71.651115
30
0.0
11
-1.100730
21
-71.928485
31
0.0
0
LINE
8
0
6
CONTINUOUS
10
4.330390
20
-72.249145
30
0.0
11
4.332680
21
-71.651115
31
0.0
0
LINE
8
0
6
CONTINUOUS
10
-8.777910
20
-70.767845
30
0.0
11
-8.782600
21
-71.365495
31
0.0
0
LINE
8
0
6
CONTINUOUS
10
-6.531230
20
-71.562635
30
0.0
11
-8.777910
21
-70.767845
31
0.0
0
LINE
8
0
6
CONTINUOUS
10
-6.538510
20
-72.160595
30
0.0
11
-6.531230
21
-71.562635
31
0.0
0
LINE
8
0
6
CONTINUOUS
10
6.518570
20
-79.623535
30
0.0
11
6.523250
21
-79.025875
31
0.0
0
LINE
8
0
6
CONTINUOUS
10
4.264740
20
-80.381775
30
0.0
11
6.518570
21
-79.623535
31
0.0
0
LINE
8
0
6
CONTINUOUS
10
4.267020
20
-79.783745
30
0.0
11
4.264740
21
-80.381775
31
0.0
0
LINE
8
0
6
CONTINUOUS
10
4.501890
20
-54.529115
30
0.0
11
-0.932380
21
-54.902445
31
0.0
0
LINE
8
0
6
CONTINUOUS
10
-1.023420
20
-63.534525
30
0.0
11
4.410840
21
-63.161175
31
0.0
0
LINE
8
0
6
CONTINUOUS
10
4.501890
20
-54.529115
30
0.0
11
4.494030
21
-55.121295
31
0.0
0
LINE
8
0
6
CONTINUOUS
10
6.758140
20
-53.518825
30
0.0
11
4.501890
21
-54.529115
31
0.0
0
LINE
8
0
6
CONTINUOUS
10
6.751920
20
-54.111365
30
0.0
11
6.758140
21
-53.518825
31
0.0
0
LINE
8
0
6
CONTINUOUS
10
-8.606070
20
-53.364945
30
0.0
11
-8.612290
21
-53.957485
31
0.0
0
LINE
8
0
6
CONTINUOUS
10
-6.361750
20
-54.420285
30
0.0
11
-8.606070
21
-53.364945
31
0.0
0
LINE
8
0
6
CONTINUOUS
10
-1.023420
20
-63.534525
30
0.0
11
-1.017360
21
-62.942645
31
0.0
0
LINE
8
0
6
CONTINUOUS
10
-6.452800
20
-63.052325
30
0.0
11
-1.023420
21
-63.534525
31
0.0
0
LINE
8
0
6
CONTINUOUS
10
-6.361750
20
-54.420285
30
0.0
11
-6.366180
21
-55.012525
31
0.0
0
LINE
8
0
6
CONTINUOUS
10
-0.932380
20
-54.902445
30
0.0
11
-6.361750
21
-54.420285
31
0.0
0
LINE
8
0
6
CONTINUOUS
10
-0.938440
20
-55.494315
30
0.0
11
-0.932380
21
-54.902445
31
0.0
0
LINE
8
0
6
CONTINUOUS
10
-6.452800
20
-63.052325
30
0.0
11
-6.448380
21
-62.460085
31
0.0
0
LINE
8
0
6
CONTINUOUS
10
-8.697120
20
-61.996925
30
0.0
11
-6.452800
21
-63.052325
31
0.0
0
LINE
8
0
6
CONTINUOUS
10
-8.690900
20
-61.404385
30
0.0
11
-8.697120
21
-61.996925
31
0.0
0
LINE
8
0
6
CONTINUOUS
10
6.667080
20
-62.150825
30
0.0
11
6.673290
21
-61.558285
31
0.0
0
LINE
8
0
6
CONTINUOUS
10
4.410840
20
-63.161175
30
0.0
11
6.667080
21
-62.150825
31
0.0
0
LINE
8
0
6
CONTINUOUS
10
4.418690
20
-62.569005
30
0.0
11
4.410840
21
-63.161175
31
0.0
0
LINE
8
0
6
CONTINUOUS
10
-0.609840
20
-28.324965
30
0.0
11
4.826790
21
-27.753265
31
0.0
0
LINE
8
0
6
CONTINUOUS
10
-0.601680
20
-27.744855
30
0.0
11
-0.609840
21
-28.324965
31
0.0
0
LINE
8
0
6
CONTINUOUS
10
-8.158480
20
-17.548455
30
0.0
11
-8.166440
21
-18.127025
31
0.0
0
LINE
8
0
6
CONTINUOUS
10
-5.920590
20
-19.138235
30
0.0
11
-8.158480
21
-17.548455
31
0.0
0
LINE
8
0
6
CONTINUOUS
10
-5.931390
20
-19.717515
30
0.0
11
-5.920590
21
-19.138235
31
0.0
0
LINE
8
0
6
CONTINUOUS
10
7.089450
20
-26.224795
30
0.0
11
7.097400
21
-25.646225
31
0.0
0
LINE
8
0
6
CONTINUOUS
10
4.826790
20
-27.753265
30
0.0
11
7.089450
21
-26.224795
31
0.0
0
LINE
8
0
6
CONTINUOUS
10
4.832100
20
-27.173865
30
0.0
11
4.826790
21
-27.753265
31
0.0
0
LINE
8
0
6
CONTINUOUS
10
-1.537170
20
-191.736065
30
0.0
11
-1.536930
21
-191.132635
31
0.0
0
LINE
8
0
6
CONTINUOUS
10
-6.969440
20
-191.662025
30
0.0
11
-1.537170
21
-191.736065
31
0.0
0
LINE
8
0
6
CONTINUOUS
10
4.200780
20
-88.617605
30
0.0
11
-1.232190
21
-88.817705
31
0.0
0
LINE
8
0
6
CONTINUOUS
10
-1.289790
20
-97.573315
30
0.0
11
4.143170
21
-97.373195
31
0.0
0
LINE
8
0
6
CONTINUOUS
10
-1.285840
20
-96.972925
30
0.0
11
-1.289790
21
-97.573315
31
0.0
0
LINE
8
0
6
CONTINUOUS
10
-1.464610
20
-137.317875
30
0.0
11
-6.896830
21
-137.235605
31
0.0
0
LINE
8
0
6
CONTINUOUS
10
-1.466170
20
-137.921325
30
0.0
11
-1.464610
21
-137.317875
31
0.0
0
LINE
8
0
6
CONTINUOUS
10
-0.840640
20
-46.199795
30
0.0
11
4.594840
21
-45.731265
31
0.0
0
LINE
8
0
6
CONTINUOUS
10
4.698210
20
-37.180885
30
0.0
11
-0.737280
21
-37.649395
31
0.0
0
LINE
8
0
6
CONTINUOUS
10
-6.919630
20
-146.038095
30
0.0
11
-1.487390
21
-146.120355
31
0.0
0
LINE
8
0
6
CONTINUOUS
10
-1.533670
20
-182.934165
30
0.0
11
-6.965940
21
-182.860125
31
0.0
0
LINE
8
0
6
CONTINUOUS
10
6.853460
20
-44.472025
30
0.0
11
6.860550
21
-43.885495
31
0.0
0
LINE
8
0
6
CONTINUOUS
10
4.594840
20
-45.731265
30
0.0
11
6.853460
21
-44.472025
31
0.0
0
LINE
8
0
6
CONTINUOUS
10
4.601930
20
-45.144725
30
0.0
11
4.594840
21
-45.731265
31
0.0
0
LINE
8
0
6
CONTINUOUS
10
3.944870
20
-146.066225
30
0.0
11
3.946430
21
-145.462775
31
0.0
0
LINE
8
0
6
CONTINUOUS
10
-1.487390
20
-146.120355
30
0.0
11
3.944870
21
-146.066225
31
0.0
0
LINE
8
0
6
CONTINUOUS
10
-1.485830
20
-145.516905
30
0.0
11
-1.487390
21
-146.120355
31
0.0
0
LINE
8
0
6
CONTINUOUS
10
-6.721140
20
-97.302115
30
0.0
11
-6.717180
21
-96.701715
31
0.0
0
LINE
8
0
6
CONTINUOUS
10
-8.969260
20
-96.718385
30
0.0
11
-6.721140
21
-97.302115
31
0.0
0
LINE
8
0
6
CONTINUOUS
10
-8.965300
20
-96.117995
30
0.0
11
-8.969260
21
-96.718385
31
0.0
0
LINE
8
0
6
CONTINUOUS
10
-1.533670
20
-182.934165
30
0.0
11
-1.533910
21
-183.537595
31
0.0
0
LINE
8
0
6
CONTINUOUS
10
3.898590
20
-182.864475
30
0.0
11
-1.533670
21
-182.934165
31
0.0
0
LINE
8
0
6
CONTINUOUS
10
4.698210
20
-37.180885
30
0.0
11
4.691120
21
-37.767415
31
0.0
0
LINE
8
0
6
CONTINUOUS
10
6.956840
20
-35.921695
30
0.0
11
4.698210
21
-37.180885
31
0.0
0
LINE
8
0
6
CONTINUOUS
10
6.949750
20
-36.508225
30
0.0
11
6.956840
21
-35.921695
31
0.0
0
LINE
8
0
6
CONTINUOUS
10
-8.911650
20
-87.962825
30
0.0
11
-8.915600
21
-88.563225
31
0.0
0
LINE
8
0
6
CONTINUOUS
10
-6.663540
20
-88.546515
30
0.0
11
-8.911650
21
-87.962825
31
0.0
0
LINE
8
0
6
CONTINUOUS
10
-9.216070
20
-182.685795
30
0.0
11
-9.216310
21
-183.289225
31
0.0
0
LINE
8
0
6
CONTINUOUS
10
-6.965940
20
-182.860125
30
0.0
11
-9.216070
21
-182.685795
31
0.0
0
LINE
8
0
6
CONTINUOUS
10
-6.966180
20
-183.463555
30
0.0
11
-6.965940
21
-182.860125
31
0.0
0
LINE
8
0
6
CONTINUOUS
10
-9.146900
20
-137.065195
30
0.0
11
-9.148460
21
-137.668635
31
0.0
0
LINE
8
0
6
CONTINUOUS
10
-6.896830
20
-137.235605
30
0.0
11
-9.146900
21
-137.065195
31
0.0
0
LINE
8
0
6
CONTINUOUS
10
-6.898400
20
-137.839045
30
0.0
11
-6.896830
21
-137.235605
31
0.0
0
LINE
8
0
6
CONTINUOUS
10
-0.840640
20
-46.199795
30
0.0
11
-0.833550
21
-45.613265
31
0.0
0
LINE
8
0
6
CONTINUOUS
10
-6.268940
20
-45.603195
30
0.0
11
-0.840640
21
-46.199795
31
0.0
0
LINE
8
0
6
CONTINUOUS
10
-0.737280
20
-37.649395
30
0.0
11
-6.165570
21
-37.052815
31
0.0
0
LINE
8
0
6
CONTINUOUS
10
-0.744370
20
-38.235935
30
0.0
11
-0.737280
21
-37.649395
31
0.0
0
LINE
8
0
6
CONTINUOUS
10
6.395200
20
-96.818925
30
0.0
11
6.399140
21
-96.218525
31
0.0
0
LINE
8
0
6
CONTINUOUS
10
4.143170
20
-97.373195
30
0.0
11
6.395200
21
-96.818925
31
0.0
0
LINE
8
0
6
CONTINUOUS
10
4.147120
20
-96.772805
30
0.0
11
4.143170
21
-97.373195
31
0.0
0
LINE
8
0
6
CONTINUOUS
10
-6.268940
20
-45.603195
30
0.0
11
-6.261850
21
-45.016655
31
0.0
0
LINE
8
0
6
CONTINUOUS
10
-8.510250
20
-44.290885
30
0.0
11
-6.268940
21
-45.603195
31
0.0
0
LINE
8
0
6
CONTINUOUS
10
-8.503150
20
-43.704365
30
0.0
11
-8.510250
21
-44.290885
31
0.0
0
LINE
8
0
6
CONTINUOUS
10
4.200780
20
-88.617605
30
0.0
11
4.196830
21
-89.217995
31
0.0
0
LINE
8
0
6
CONTINUOUS
10
6.452800
20
-88.063365
30
0.0
11
4.200780
21
-88.617605
31
0.0
0
LINE
8
0
6
CONTINUOUS
10
6.448860
20
-88.663755
30
0.0
11
6.452800
21
-88.063365
31
0.0
0
LINE
8
0
6
CONTINUOUS
10
-8.406870
20
-35.740575
30
0.0
11
-8.413970
21
-36.327095
31
0.0
0
LINE
8
0
6
CONTINUOUS
10
-6.165570
20
-37.052815
30
0.0
11
-8.406870
21
-35.740575
31
0.0
0
LINE
8
0
6
CONTINUOUS
10
-6.172670
20
-37.639345
30
0.0
11
-6.165570
21
-37.052815
31
0.0
0
LINE
8
0
6
CONTINUOUS
10
-6.969440
20
-191.662025
30
0.0
11
-6.969210
21
-191.058595
31
0.0
0
LINE
8
0
6
CONTINUOUS
10
-9.219570
20
-191.487695
30
0.0
11
-6.969440
21
-191.662025
31
0.0
0
LINE
8
0
6
CONTINUOUS
10
-9.219330
20
-190.884265
30
0.0
11
-9.219570
21
-191.487695
31
0.0
0
LINE
8
0
6
CONTINUOUS
10
-6.919630
20
-146.038095
30
0.0
11
-6.918060
21
-145.434645
31
0.0
0
LINE
8
0
6
CONTINUOUS
10
-9.169700
20
-145.867675
30
0.0
11
-6.919630
21
-146.038095
31
0.0
0
LINE
8
0
6
CONTINUOUS
10
-9.168140
20
-145.264225
30
0.0
11
-9.169700
21
-145.867675
31
0.0
0
LINE
8
0
6
CONTINUOUS
10
6.145220
20
-191.493735
30
0.0
11
6.145460
21
-190.890315
31
0.0
0
LINE
8
0
6
CONTINUOUS
10
3.895090
20
-191.666375
30
0.0
11
6.145220
21
-191.493735
31
0.0
0
LINE
8
0
6
CONTINUOUS
10
3.895330
20
-191.062945
30
0.0
11
3.895090
21
-191.666375
31
0.0
0
LINE
8
0
6
CONTINUOUS
10
3.898590
20
-182.864475
30
0.0
11
3.898340
21
-183.467905
31
0.0
0
LINE
8
0
6
CONTINUOUS
10
6.148710
20
-182.691845
30
0.0
11
3.898590
21
-182.864475
31
0.0
0
LINE
8
0
6
CONTINUOUS
10
6.148470
20
-183.295265
30
0.0
11
6.148710
21
-182.691845
31
0.0
0
LINE
8
0
6
CONTINUOUS
10
-6.663540
20
-88.546515
30
0.0
11
-6.667490
21
-89.146905
31
0.0
0
LINE
8
0
6
CONTINUOUS
10
-1.232190
20
-88.817705
30
0.0
11
-6.663540
21
-88.546515
31
0.0
0
LINE
8
0
6
CONTINUOUS
10
-1.236140
20
-89.418095
30
0.0
11
-1.232190
21
-88.817705
31
0.0
0
LINE
8
0
6
CONTINUOUS
10
-8.834440
20
-38.645855
30
0.0
11
-8.441242
21
-38.583160
31
0.0
0
LINE
8
0
6
CONTINUOUS
10
-15.656890
20
15.716975
30
0.0
11
-15.656890
21
15.521045
31
0.0
0
LINE
8
0
6
CONTINUOUS
10
-15.097470
20
15.714875
30
0.0
11
-15.656890
21
15.716975
31
0.0
0
LINE
8
0
6
CONTINUOUS
10
-9.938250
20
3.459505
30
0.0
11
-9.940320
21
4.332355
31
0.0
0
LINE
8
0
6
CONTINUOUS
10
-14.863250
20
-41.315425
30
0.0
11
-14.209110
21
-41.669465
31
0.0
0
LINE
8
0
6
CONTINUOUS
10
-9.837130
20
-38.923263
30
0.0
11
-8.834440
21
-38.645855
31
0.0
0
LINE
8
0
6
CONTINUOUS
10
-15.663570
20
5.997805
30
0.0
11
-15.663210
21
5.121455
31
0.0
0
LINE
8
0
6
CONTINUOUS
10
-9.832100
20
-41.031385
30
0.0
11
-9.938250
21
3.459505
31
0.0
0
LINE
8
0
6
CONTINUOUS
10
-15.656890
20
5.542485
30
0.0
11
-15.656860
21
-39.168135
31
0.0
0
LINE
8
0
6
CONTINUOUS
10
-9.829670
20
-42.053105
30
0.0
11
-9.832100
21
-41.031385
31
0.0
0
LINE
8
0
6
CONTINUOUS
10
-10.073250
20
-42.077635
30
0.0
11
-9.829670
21
-42.053105
31
0.0
0
LINE
8
0
6
CONTINUOUS
10
-14.209110
20
-41.669465
30
0.0
11
-13.331530
21
-41.999895
31
0.0
0
LINE
8
0
6
CONTINUOUS
10
-13.331530
20
-41.999895
30
0.0
11
-12.325610
21
-42.247435
31
0.0
0
LINE
8
0
6
CONTINUOUS
10
-15.656860
20
-40.194895
30
0.0
11
-15.644300
21
-40.574345
31
0.0
0
LINE
8
0
6
CONTINUOUS
10
-15.656860
20
-39.168135
30
0.0
11
-15.656860
21
-40.194895
31
0.0
0
LINE
8
0
6
CONTINUOUS
10
-15.346100
20
-40.949025
30
0.0
11
-14.863250
21
-41.315425
31
0.0
0
LINE
8
0
6
CONTINUOUS
10
-15.644300
20
-40.574345
30
0.0
11
-15.346100
21
-40.949025
31
0.0
0
LINE
8
0
6
CONTINUOUS
10
-12.419320
20
5.384295
30
0.0
11
-12.543690
21
5.788875
31
0.0
0
LINE
8
0
6
CONTINUOUS
10
-15.656890
20
6.419635
30
0.0
11
-15.663570
21
5.997805
31
0.0
0
LINE
8
0
6
CONTINUOUS
10
-11.970700
20
4.995425
30
0.0
11
-12.419320
21
5.384295
31
0.0
0
LINE
8
0
6
CONTINUOUS
10
-12.160880
20
-42.287985
30
0.0
11
-11.891590
21
-42.260815
31
0.0
0
LINE
8
0
6
CONTINUOUS
10
-11.169810
20
4.631305
30
0.0
11
-11.970700
21
4.995425
31
0.0
0
LINE
8
0
6
CONTINUOUS
10
-15.656890
20
6.841465
30
0.0
11
-15.656890
21
6.419635
31
0.0
0
LINE
8
0
6
CONTINUOUS
10
-12.325610
20
-42.247435
30
0.0
11
-12.160880
21
-42.287985
31
0.0
0
LINE
8
0
6
CONTINUOUS
10
-10.113330
20
4.374425
30
0.0
11
-11.169810
21
4.631305
31
0.0
0
LINE
8
0
6
CONTINUOUS
10
-9.940320
20
4.332355
30
0.0
11
-10.113330
21
4.374425
31
0.0
0
LINE
8
0
6
CONTINUOUS
10
-11.891590
20
-42.260815
30
0.0
11
-10.073250
21
-42.077635
31
0.0
0
LINE
8
0
6
CONTINUOUS
10
-14.973235
20
15.714416
30
0.0
11
-15.097470
21
15.714875
31
0.0
0
LINE
8
0
6
CONTINUOUS
10
-15.656890
20
15.521045
30
0.0
11
-15.656890
21
6.841465
31
0.0
0
LINE
8
0
6
CONTINUOUS
10
6.925052
20
-38.550878
30
0.0
11
7.520710
21
-38.645855
31
0.0
0
LINE
8
0
6
CONTINUOUS
10
14.343150
20
15.716975
30
0.0
11
14.288027
21
15.716768
31
0.0
0
LINE
8
0
6
CONTINUOUS
10
14.343150
20
15.521045
30
0.0
11
14.343150
21
15.716975
31
0.0
0
LINE
8
0
6
CONTINUOUS
10
8.626590
20
4.332355
30
0.0
11
8.624510
21
3.459505
31
0.0
0
LINE
8
0
6
CONTINUOUS
10
12.895400
20
-41.669465
30
0.0
11
13.549500
21
-41.315425
31
0.0
0
LINE
8
0
6
CONTINUOUS
10
7.520710
20
-38.645855
30
0.0
11
8.523399
21
-38.923262
31
0.0
0
LINE
8
0
6
CONTINUOUS
10
14.349480
20
5.121455
30
0.0
11
14.349830
21
5.997805
31
0.0
0
LINE
8
0
6
CONTINUOUS
10
8.624510
20
3.459505
30
0.0
11
8.518370
21
-41.031385
31
0.0
0
LINE
8
0
6
CONTINUOUS
10
14.343110
20
-39.168135
30
0.0
11
14.343150
21
5.542485
31
0.0
0
LINE
8
0
6
CONTINUOUS
10
8.515930
20
-42.053105
30
0.0
11
8.759510
21
-42.077635
31
0.0
0
LINE
8
0
6
CONTINUOUS
10
8.518370
20
-41.031385
30
0.0
11
8.515930
21
-42.053105
31
0.0
0
LINE
8
0
6
CONTINUOUS
10
12.017790
20
-41.999895
30
0.0
11
12.895400
21
-41.669465
31
0.0
0
LINE
8
0
6
CONTINUOUS
10
11.011850
20
-42.247435
30
0.0
11
12.017790
21
-41.999895
31
0.0
0
LINE
8
0
6
CONTINUOUS
10
14.343110
20
-40.194895
30
0.0
11
14.343110
21
-39.168135
31
0.0
0
LINE
8
0
6
CONTINUOUS
10
14.330560
20
-40.574345
30
0.0
11
14.343110
21
-40.194895
31
0.0
0
LINE
8
0
6
CONTINUOUS
10
13.549500
20
-41.315425
30
0.0
11
14.032370
21
-40.949025
31
0.0
0
LINE
8
0
6
CONTINUOUS
10
14.032370
20
-40.949025
30
0.0
11
14.330560
21
-40.574345
31
0.0
0
LINE
8
0
6
CONTINUOUS
10
14.343150
20
-33.375245
30
0.0
11
14.343110
21
-38.787575
31
0.0
0
LINE
8
0
6
CONTINUOUS
10
14.343150
20
-34.476395
30
0.0
11
14.343150
21
-33.375245
31
0.0
0
LINE
8
0
6
CONTINUOUS
10
14.343110
20
-39.815295
30
0.0
11
14.343150
21
-34.476395
31
0.0
0
LINE
8
0
6
CONTINUOUS
10
11.229940
20
5.788875
30
0.0
11
11.105580
21
5.384295
31
0.0
0
LINE
8
0
6
CONTINUOUS
10
14.349830
20
5.997805
30
0.0
11
14.343150
21
6.419635
31
0.0
0
LINE
8
0
6
CONTINUOUS
10
11.105580
20
5.384295
30
0.0
11
10.656970
21
4.995425
31
0.0
0
LINE
8
0
6
CONTINUOUS
10
10.577850
20
-42.260815
30
0.0
11
10.847130
21
-42.287985
31
0.0
0
LINE
8
0
6
CONTINUOUS
10
10.656970
20
4.995425
30
0.0
11
9.856080
21
4.631305
31
0.0
0
LINE
8
0
6
CONTINUOUS
10
14.343150
20
6.419635
30
0.0
11
14.343150
21
6.841465
31
0.0
0
LINE
8
0
6
CONTINUOUS
10
10.847130
20
-42.287985
30
0.0
11
11.011850
21
-42.247435
31
0.0
0
LINE
8
0
6
CONTINUOUS
10
9.856080
20
4.631305
30
0.0
11
8.799600
21
4.374425
31
0.0
0
LINE
8
0
6
CONTINUOUS
10
8.799600
20
4.374425
30
0.0
11
8.626590
21
4.332355
31
0.0
0
LINE
8
0
6
CONTINUOUS
10
8.759510
20
-42.077635
30
0.0
11
10.577850
21
-42.260815
31
0.0
0
LINE
8
0
6
CONTINUOUS
10
14.343150
20
6.841465
30
0.0
11
14.343150
21
15.521045
31
0.0
0
LINE
8
0
6
CONTINUOUS
10
-43.435670
20
171.772165
30
0.0
11
-40.121000
21
179.106145
31
0.0
0
LINE
8
0
6
CONTINUOUS
10
-48.787050
20
160.334485
30
0.0
11
-48.332270
21
159.126925
31
0.0
0
LINE
8
0
6
CONTINUOUS
10
-50.019150
20
169.008665
30
0.0
11
-48.787050
21
160.334485
31
0.0
0
LINE
8
0
6
CONTINUOUS
10
-44.113540
20
172.269205
30
0.0
11
-45.268370
21
164.422865
31
0.0
0
LINE
8
0
6
CONTINUOUS
10
-44.153330
20
156.572795
30
0.0
11
-45.268370
21
164.422865
31
0.0
0
LINE
8
0
6
CONTINUOUS
10
-45.268370
20
164.422865
30
0.0
11
-44.153330
21
156.572795
31
0.0
0
LINE
8
0
6
CONTINUOUS
10
-44.153330
20
156.572795
30
0.0
11
-40.824330
21
149.112555
31
0.0
0
LINE
8
0
6
CONTINUOUS
10
-40.824330
20
149.112555
30
0.0
11
-35.448280
21
142.416345
31
0.0
0
LINE
8
0
6
CONTINUOUS
10
-19.722530
20
132.603865
30
0.0
11
-10.161380
21
129.979635
31
0.0
0
LINE
8
0
6
CONTINUOUS
10
-10.161380
20
129.979635
30
0.0
11
-0.090690
21
129.078775
31
0.0
0
LINE
8
0
6
CONTINUOUS
10
-0.090690
20
129.078775
30
0.0
11
9.984350
21
129.946515
31
0.0
0
LINE
8
0
6
CONTINUOUS
10
9.984350
20
129.946515
30
0.0
11
19.558730
21
132.539305
31
0.0
0
LINE
8
0
6
CONTINUOUS
10
19.558730
20
132.539305
30
0.0
11
28.152290
21
136.727125
31
0.0
0
LINE
8
0
6
CONTINUOUS
10
28.152290
20
136.727125
30
0.0
11
35.334090
21
142.300015
31
0.0
0
LINE
8
0
6
CONTINUOUS
10
40.744050
20
148.978495
30
0.0
11
44.110840
21
156.427675
31
0.0
0
LINE
8
0
6
CONTINUOUS
10
44.110840
20
156.427675
30
0.0
11
45.265690
21
164.274115
31
0.0
0
LINE
8
0
6
CONTINUOUS
10
45.265690
20
164.274115
30
0.0
11
44.150610
21
172.124205
31
0.0
0
LINE
8
0
6
CONTINUOUS
10
44.150610
20
172.124205
30
0.0
11
40.821600
21
179.584385
31
0.0
0
LINE
8
0
6
CONTINUOUS
10
0.088030
20
199.618165
30
0.0
11
-9.987090
21
198.750425
31
0.0
0
LINE
8
0
6
CONTINUOUS
10
-9.987090
20
198.750425
30
0.0
11
-19.561470
21
196.157625
31
0.0
0
LINE
8
0
6
CONTINUOUS
10
-19.561470
20
196.157625
30
0.0
11
-28.155010
21
191.969775
31
0.0
0
LINE
8
0
6
CONTINUOUS
10
-28.155010
20
191.969775
30
0.0
11
-35.336820
21
186.396905
31
0.0
0
LINE
8
0
6
CONTINUOUS
10
-43.618750
20
172.496105
30
0.0
11
-40.289720
21
179.861755
31
0.0
0
LINE
8
0
6
CONTINUOUS
10
-40.746740
20
179.718415
30
0.0
11
-44.113540
21
172.269205
31
0.0
0
LINE
8
0
6
CONTINUOUS
10
-40.746740
20
179.718415
30
0.0
11
-35.336820
21
186.396905
31
0.0
0
LINE
8
0
6
CONTINUOUS
10
-9.987090
20
198.750425
30
0.0
11
0.088030
21
199.618165
31
0.0
0
LINE
8
0
6
CONTINUOUS
10
28.292050
20
191.877045
30
0.0
11
35.445550
21
186.280615
31
0.0
0
LINE
8
0
6
CONTINUOUS
10
45.265690
20
164.274115
30
0.0
11
44.110840
21
156.427675
31
0.0
0
LINE
8
0
6
CONTINUOUS
10
-10.161380
20
129.979635
30
0.0
11
-19.722530
21
132.603865
31
0.0
0
LINE
8
0
6
CONTINUOUS
10
-44.113540
20
172.269205
30
0.0
11
-40.746740
21
179.718415
31
0.0
0
LINE
8
0
6
CONTINUOUS
10
-19.561470
20
196.157625
30
0.0
11
-9.987090
21
198.750425
31
0.0
0
LINE
8
0
6
CONTINUOUS
10
19.719780
20
196.093105
30
0.0
11
28.292050
21
191.877045
31
0.0
0
LINE
8
0
6
CONTINUOUS
10
44.150610
20
172.124205
30
0.0
11
45.265690
21
164.274115
31
0.0
0
LINE
8
0
6
CONTINUOUS
10
35.334090
20
142.300015
30
0.0
11
28.152290
21
136.727125
31
0.0
0
LINE
8
0
6
CONTINUOUS
10
-35.448280
20
142.416345
30
0.0
11
-40.824330
21
149.112555
31
0.0
0
LINE
8
0
6
CONTINUOUS
10
40.821600
20
179.584385
30
0.0
11
44.150610
21
172.124205
31
0.0
0
LINE
8
0
6
CONTINUOUS
10
-45.268370
20
164.422865
30
0.0
11
-44.113540
21
172.269205
31
0.0
0
LINE
8
0
6
CONTINUOUS
10
-28.155010
20
191.969775
30
0.0
11
-19.561470
21
196.157625
31
0.0
0
LINE
8
0
6
CONTINUOUS
10
10.158630
20
198.717305
30
0.0
11
19.719780
21
196.093105
31
0.0
0
LINE
8
0
6
CONTINUOUS
10
40.744050
20
148.978495
30
0.0
11
35.334090
21
142.300015
31
0.0
0
LINE
8
0
6
CONTINUOUS
10
-28.294790
20
136.819915
30
0.0
11
-35.448280
21
142.416345
31
0.0
0
LINE
8
0
6
CONTINUOUS
10
0.088030
20
199.618165
30
0.0
11
10.158630
21
198.717305
31
0.0
0
LINE
8
0
6
CONTINUOUS
10
35.445550
20
186.280615
30
0.0
11
40.821600
21
179.584385
31
0.0
0
LINE
8
0
6
CONTINUOUS
10
44.110840
20
156.427675
30
0.0
11
40.744050
21
148.978495
31
0.0
0
LINE
8
0
6
CONTINUOUS
10
-35.336820
20
186.396905
30
0.0
11
-28.155010
21
191.969775
31
0.0
0
LINE
8
0
6
CONTINUOUS
10
-19.722530
20
132.603865
30
0.0
11
-28.294790
21
136.819915
31
0.0
0
LINE
8
0
6
CONTINUOUS
10
27.816460
20
191.010665
30
0.0
11
34.850220
21
185.508425
31
0.0
0
LINE
8
0
6
CONTINUOUS
10
9.988190
20
197.737585
30
0.0
11
19.445100
21
195.318055
31
0.0
0
LINE
8
0
6
CONTINUOUS
10
-44.507930
20
164.017455
30
0.0
11
-43.435670
21
171.772165
31
0.0
0
LINE
8
0
6
CONTINUOUS
10
-43.618750
20
172.496105
30
0.0
11
-44.760640
21
164.737755
31
0.0
0
LINE
8
0
6
CONTINUOUS
10
-40.121000
20
179.106145
30
0.0
11
-34.794690
21
185.681095
31
0.0
0
LINE
8
0
6
CONTINUOUS
10
19.445100
20
195.318055
30
0.0
11
27.816460
21
191.010665
31
0.0
0
LINE
8
0
6
CONTINUOUS
10
-35.448280
20
142.416345
30
0.0
11
-28.294790
21
136.819915
31
0.0
0
LINE
8
0
6
CONTINUOUS
10
-28.294790
20
136.819915
30
0.0
11
-19.722530
21
132.603865
31
0.0
0
LINE
8
0
6
CONTINUOUS
10
35.334090
20
142.300015
30
0.0
11
40.744050
21
148.978495
31
0.0
0
LINE
8
0
6
CONTINUOUS
10
40.821600
20
179.584385
30
0.0
11
35.445550
21
186.280615
31
0.0
0
LINE
8
0
6
CONTINUOUS
10
27.974830
20
191.884045
30
0.0
11
35.048110
21
186.350365
31
0.0
0
LINE
8
0
6
CONTINUOUS
10
35.445550
20
186.280615
30
0.0
11
28.292050
21
191.877045
31
0.0
0
LINE
8
0
6
CONTINUOUS
10
19.498700
20
196.052805
30
0.0
11
27.974830
21
191.884045
31
0.0
0
LINE
8
0
6
CONTINUOUS
10
28.292050
20
191.877045
30
0.0
11
19.719780
21
196.093105
31
0.0
0
LINE
8
0
6
CONTINUOUS
10
10.044770
20
198.647615
30
0.0
11
19.498700
21
196.052805
31
0.0
0
LINE
8
0
6
CONTINUOUS
10
19.719780
20
196.093105
30
0.0
11
10.158630
21
198.717305
31
0.0
0
LINE
8
0
6
CONTINUOUS
10
10.158630
20
198.717305
30
0.0
11
0.088030
21
199.618165
31
0.0
0
LINE
8
0
6
CONTINUOUS
10
-40.289720
20
179.861755
30
0.0
11
-34.940470
21
186.465355
31
0.0
0
LINE
8
0
6
CONTINUOUS
10
-35.336820
20
186.396905
30
0.0
11
-40.746740
21
179.718415
31
0.0
0
LINE
8
0
6
CONTINUOUS
10
42.719420
20
197.135645
30
0.0
11
37.094030
21
204.142435
31
0.0
0
LINE
8
0
6
CONTINUOUS
10
43.156130
20
196.430375
30
0.0
11
42.719420
21
197.135645
31
0.0
0
LINE
8
0
6
CONTINUOUS
10
-42.632010
20
197.275885
30
0.0
11
-43.068350
21
196.572055
31
0.0
0
LINE
8
0
6
CONTINUOUS
10
-36.971170
20
204.264105
30
0.0
11
-42.632010
21
197.275885
31
0.0
0
LINE
8
0
6
CONTINUOUS
10
36.714800
20
204.539565
30
0.0
11
29.306080
21
210.335635
31
0.0
0
LINE
8
0
6
CONTINUOUS
10
37.094030
20
204.142435
30
0.0
11
36.714800
21
204.539565
31
0.0
0
LINE
8
0
6
CONTINUOUS
10
29.306080
20
210.335635
30
0.0
11
20.428020
21
214.702095
31
0.0
0
LINE
8
0
6
CONTINUOUS
10
20.428020
20
214.702095
30
0.0
11
10.525750
21
217.419985
31
0.0
0
LINE
8
0
6
CONTINUOUS
10
10.525750
20
217.419985
30
0.0
11
0.095880
21
218.352925
31
0.0
0
LINE
8
0
6
CONTINUOUS
10
0.095880
20
218.352925
30
0.0
11
-10.338680
21
217.454225
31
0.0
0
LINE
8
0
6
CONTINUOUS
10
-10.338680
20
217.454225
30
0.0
11
-20.254640
21
214.768905
31
0.0
0
LINE
8
0
6
CONTINUOUS
10
-20.254640
20
214.768905
30
0.0
11
-29.154750
21
210.431695
31
0.0
0
LINE
8
0
6
CONTINUOUS
10
-36.592790
20
204.659975
30
0.0
11
-36.971170
21
204.264105
31
0.0
0
LINE
8
0
6
CONTINUOUS
10
-29.154750
20
210.431695
30
0.0
11
-36.592790
21
204.659975
31
0.0
0
LINE
8
0
6
CONTINUOUS
10
-50.018920
20
169.843555
30
0.0
11
-50.008984
21
169.773605
31
0.0
0
LINE
8
0
6
CONTINUOUS
10
50.009141
20
169.611439
30
0.0
11
50.019110
21
169.679175
31
0.0
0
LINE
8
0
6
CONTINUOUS
10
45.108480
20
186.458985
30
0.0
11
39.168060
21
193.858105
31
0.0
0
LINE
8
0
6
CONTINUOUS
10
11.226600
20
207.600445
30
0.0
11
0.098830
21
208.595815
31
0.0
0
LINE
8
0
6
CONTINUOUS
10
-31.109100
20
200.144535
30
0.0
11
-39.044830
21
193.986625
31
0.0
0
LINE
8
0
6
CONTINUOUS
10
48.786970
20
178.215615
30
0.0
11
45.108480
21
186.458985
31
0.0
0
LINE
8
0
6
CONTINUOUS
10
21.791450
20
204.700685
30
0.0
11
11.226600
21
207.600445
31
0.0
0
LINE
8
0
6
CONTINUOUS
10
-21.613410
20
204.771995
30
0.0
11
-31.109100
21
200.144535
31
0.0
0
LINE
8
0
6
CONTINUOUS
10
-48.742900
20
178.375855
30
0.0
11
-50.018960
21
169.705825
31
0.0
0
LINE
8
0
6
CONTINUOUS
10
-50.018960
20
169.705825
30
0.0
11
-50.018990
21
169.627525
31
0.0
0
LINE
8
0
6
CONTINUOUS
10
-45.022670
20
186.607055
30
0.0
11
-48.742900
21
178.375855
31
0.0
0
LINE
8
0
6
CONTINUOUS
10
50.019080
20
169.541465
30
0.0
11
48.786970
21
178.215615
31
0.0
0
LINE
8
0
6
CONTINUOUS
10
50.019060
20
169.463165
30
0.0
11
50.019080
21
169.541465
31
0.0
0
LINE
8
0
6
CONTINUOUS
10
31.263600
20
200.042075
30
0.0
11
21.791450
21
204.700685
31
0.0
0
LINE
8
0
6
CONTINUOUS
10
-11.033950
20
207.636985
30
0.0
11
-21.613410
21
204.771995
31
0.0
0
LINE
8
0
6
CONTINUOUS
10
0.098830
20
208.595815
30
0.0
11
-11.033950
21
207.636985
31
0.0
0
LINE
8
0
6
CONTINUOUS
10
-39.044830
20
193.986625
30
0.0
11
-45.022670
21
186.607055
31
0.0
0
LINE
8
0
6
CONTINUOUS
10
39.168060
20
193.858105
30
0.0
11
31.263600
21
200.042075
31
0.0
0
LINE
8
0
6
CONTINUOUS
10
20.936240
20
132.163595
30
0.0
11
30.134770
21
136.646265
31
0.0
0
LINE
8
0
6
CONTINUOUS
10
48.287770
20
158.968115
30
0.0
11
48.742810
21
160.174185
31
0.0
0
LINE
8
0
6
CONTINUOUS
10
48.742810
20
160.174185
30
0.0
11
50.018890
21
168.844325
31
0.0
0
LINE
8
0
6
CONTINUOUS
10
-21.110390
20
132.232715
30
0.0
11
-10.876130
21
129.423725
31
0.0
0
LINE
8
0
6
CONTINUOUS
10
-48.332270
20
159.126925
30
0.0
11
-44.688120
21
150.960475
31
0.0
0
LINE
8
0
6
CONTINUOUS
10
30.134770
20
136.646265
30
0.0
11
37.822170
21
142.611455
31
0.0
0
LINE
8
0
6
CONTINUOUS
10
-10.876130
20
129.423725
30
0.0
11
-2.642391
21
128.687209
31
0.0
0
LINE
8
0
6
CONTINUOUS
10
-44.688120
20
150.960475
30
0.0
11
-38.803140
21
143.630325
31
0.0
0
LINE
8
0
6
CONTINUOUS
10
-38.803140
20
143.630325
30
0.0
11
-37.943230
21
142.736015
31
0.0
0
LINE
8
0
6
CONTINUOUS
10
2.449874
20
128.678787
30
0.0
11
10.687830
21
129.388305
31
0.0
0
LINE
8
0
6
CONTINUOUS
10
38.680150
20
143.502985
30
0.0
11
44.602230
21
150.813705
31
0.0
0
LINE
8
0
6
CONTINUOUS
10
37.822170
20
142.611455
30
0.0
11
38.680150
21
143.502985
31
0.0
0
LINE
8
0
6
CONTINUOUS
10
-37.943230
20
142.736015
30
0.0
11
-30.286120
21
136.745555
31
0.0
0
LINE
8
0
6
CONTINUOUS
10
44.602230
20
150.813705
30
0.0
11
48.287770
21
158.968115
31
0.0
0
LINE
8
0
6
CONTINUOUS
10
10.687830
20
129.388305
30
0.0
11
20.936240
21
132.163595
31
0.0
0
LINE
8
0
6
CONTINUOUS
10
-30.286120
20
136.745555
30
0.0
11
-21.110390
21
132.232715
31
0.0
0
LINE
8
0
6
CONTINUOUS
10
28.152290
20
136.727125
30
0.0
11
19.558730
21
132.539305
31
0.0
0
LINE
8
0
6
CONTINUOUS
10
-40.824330
20
149.112555
30
0.0
11
-44.153330
21
156.572795
31
0.0
0
LINE
8
0
6
CONTINUOUS
10
-0.090690
20
129.078775
30
0.0
11
-10.161380
21
129.979635
31
0.0
0
LINE
8
0
6
CONTINUOUS
10
9.984350
20
129.946515
30
0.0
11
-0.090690
21
129.078775
31
0.0
0
LINE
8
0
6
CONTINUOUS
10
19.558730
20
132.539305
30
0.0
11
9.984350
21
129.946515
31
0.0
0
LINE
8
0
6
CONTINUOUS
10
-44.760640
20
164.737755
30
0.0
11
-43.658100
21
156.975695
31
0.0
0
LINE
8
0
6
CONTINUOUS
10
-43.474150
20
156.318105
30
0.0
11
-44.507930
21
164.017455
31
0.0
0
LINE
8
0
6
CONTINUOUS
10
-43.658100
20
156.975695
30
0.0
11
-43.474150
21
156.318105
31
0.0
0
LINE
8
0
6
CONTINUOUS
10
50.018890
20
168.844325
30
0.0
11
50.019060
21
169.463165
31
0.0
0
LINE
8
0
6
CONTINUOUS
10
-50.018990
20
169.627525
30
0.0
11
-50.019150
21
169.008665
31
0.0
0
LINE
8
0
6
CONTINUOUS
10
-39.044790
20
194.124375
30
0.0
11
-31.109060
21
200.282265
31
0.0
0
LINE
8
0
6
CONTINUOUS
10
39.168100
20
193.995875
30
0.0
11
45.108510
21
186.596685
31
0.0
0
LINE
8
0
6
CONTINUOUS
10
0.098850
20
208.733545
30
0.0
11
11.226630
21
207.738135
31
0.0
0
LINE
8
0
6
CONTINUOUS
10
11.226630
20
207.738135
30
0.0
11
21.791490
21
204.838415
31
0.0
0
LINE
8
0
6
CONTINUOUS
10
-31.109060
20
200.282265
30
0.0
11
-21.613380
21
204.909725
31
0.0
0
LINE
8
0
6
CONTINUOUS
10
45.108510
20
186.596685
30
0.0
11
48.787000
21
178.353345
31
0.0
0
LINE
8
0
6
CONTINUOUS
10
-21.613380
20
204.909725
30
0.0
11
-11.033920
21
207.774695
31
0.0
0
LINE
8
0
6
CONTINUOUS
10
50.019110
20
169.679175
30
0.0
11
50.019150
21
169.832545
31
0.0
0
LINE
8
0
6
CONTINUOUS
10
48.787000
20
178.353345
30
0.0
11
50.019110
21
169.679175
31
0.0
0
LINE
8
0
6
CONTINUOUS
10
-50.018920
20
169.843555
30
0.0
11
-48.742860
21
178.513605
31
0.0
0
LINE
8
0
6
CONTINUOUS
10
-50.018880
20
169.996905
30
0.0
11
-50.018920
21
169.843555
31
0.0
0
LINE
8
0
6
CONTINUOUS
10
-48.742860
20
178.513605
30
0.0
11
-45.022640
21
186.744805
31
0.0
0
LINE
8
0
6
CONTINUOUS
10
21.791490
20
204.838415
30
0.0
11
31.263640
21
200.179805
31
0.0
0
LINE
8
0
6
CONTINUOUS
10
31.263640
20
200.179805
30
0.0
11
39.168100
21
193.995875
31
0.0
0
LINE
8
0
6
CONTINUOUS
10
-11.033920
20
207.774695
30
0.0
11
0.098850
21
208.733545
31
0.0
0
LINE
8
0
6
CONTINUOUS
10
-45.022640
20
186.744805
30
0.0
11
-39.044790
21
194.124375
31
0.0
0
LINE
8
0
6
CONTINUOUS
10
48.103920
20
184.713705
30
0.0
11
47.488250
21
186.658575
31
0.0
0
LINE
8
0
6
CONTINUOUS
10
-47.440740
20
186.814555
30
0.0
11
-48.056940
21
184.871695
31
0.0
0
LINE
8
0
6
CONTINUOUS
10
-49.762610
20
174.266955
30
0.0
11
-50.018880
21
169.996905
31
0.0
0
LINE
8
0
6
CONTINUOUS
10
-48.493060
20
182.892785
30
0.0
11
-49.762610
21
174.266955
31
0.0
0
LINE
8
0
6
CONTINUOUS
10
46.675200
20
188.544315
30
0.0
11
43.156130
21
196.430375
31
0.0
0
LINE
8
0
6
CONTINUOUS
10
47.488250
20
186.658575
30
0.0
11
46.675200
21
188.544315
31
0.0
0
LINE
8
0
6
CONTINUOUS
10
48.539340
20
182.733365
30
0.0
11
48.103920
21
184.713705
31
0.0
0
LINE
8
0
6
CONTINUOUS
10
-46.627310
20
188.697605
30
0.0
11
-47.440740
21
186.814555
31
0.0
0
LINE
8
0
6
CONTINUOUS
10
-43.068350
20
196.572055
30
0.0
11
-46.627310
21
188.697605
31
0.0
0
LINE
8
0
6
CONTINUOUS
10
-48.056940
20
184.871695
30
0.0
11
-48.493060
21
182.892785
31
0.0
0
LINE
8
0
6
CONTINUOUS
10
49.765160
20
174.103465
30
0.0
11
48.539340
21
182.733365
31
0.0
0
LINE
8
0
6
CONTINUOUS
10
50.019150
20
169.832545
30
0.0
11
49.765160
21
174.103465
31
0.0
0
LINE
8
0
6
CONTINUOUS
10
43.495970
20
156.203335
30
0.0
11
43.616210
21
156.832225
31
0.0
0
LINE
8
0
6
CONTINUOUS
10
44.505070
20
163.871205
30
0.0
11
43.495970
21
156.203335
31
0.0
0
LINE
8
0
6
CONTINUOUS
10
43.616210
20
156.832225
30
0.0
11
44.758100
21
164.590655
31
0.0
0
LINE
8
0
6
CONTINUOUS
10
44.758100
20
164.590655
30
0.0
11
43.655550
21
172.352705
31
0.0
0
LINE
8
0
6
CONTINUOUS
10
43.408750
20
171.589445
30
0.0
11
44.505070
21
163.871205
31
0.0
0
LINE
8
0
6
CONTINUOUS
10
43.655550
20
172.352705
30
0.0
11
40.363870
21
179.729275
31
0.0
0
LINE
8
0
6
CONTINUOUS
10
40.135600
20
178.924385
30
0.0
11
43.408750
21
171.589445
31
0.0
0
LINE
8
0
6
CONTINUOUS
10
40.363870
20
179.729275
30
0.0
11
35.048110
21
186.350365
31
0.0
0
LINE
8
0
6
CONTINUOUS
10
34.850220
20
185.508425
30
0.0
11
40.135600
21
178.924385
31
0.0
0
LINE
8
0
6
CONTINUOUS
10
0.086570
20
198.707945
30
0.0
11
9.988190
21
197.737585
31
0.0
0
LINE
8
0
6
CONTINUOUS
10
10.044770
20
198.647615
30
0.0
11
0.087120
21
199.538345
31
0.0
0
LINE
8
0
6
CONTINUOUS
10
-9.819770
20
197.770045
30
0.0
11
0.086570
21
198.707945
31
0.0
0
LINE
8
0
6
CONTINUOUS
10
0.087120
20
199.538345
30
0.0
11
-9.875020
21
198.680325
31
0.0
0
LINE
8
0
6
CONTINUOUS
10
-34.794690
20
185.681095
30
0.0
11
-27.682020
21
191.101855
31
0.0
0
LINE
8
0
6
CONTINUOUS
10
-27.839200
20
191.975725
30
0.0
11
-34.940470
21
186.465355
31
0.0
0
LINE
8
0
6
CONTINUOUS
10
-9.875020
20
198.680325
30
0.0
11
-19.342020
21
196.116605
31
0.0
0
LINE
8
0
6
CONTINUOUS
10
-19.233670
20
195.220775
30
0.0
11
-9.819770
21
197.770045
31
0.0
0
LINE
8
0
6
CONTINUOUS
10
-19.342020
20
196.116605
30
0.0
11
-27.839200
21
191.975725
31
0.0
0
LINE
8
0
6
CONTINUOUS
10
-27.682020
20
191.101855
30
0.0
11
-19.233670
21
195.220775
31
0.0
0
LINE
8
0
6
CONTINUOUS
10
14.287040
20
15.121685
30
0.0
11
14.458500
21
118.474195
31
0.0
0
LINE
8
0
6
CONTINUOUS
10
6.727920
20
116.437145
30
0.0
11
9.607100
21
116.955335
31
0.0
0
LINE
8
0
6
CONTINUOUS
10
10.776060
20
13.018305
30
0.0
11
11.275260
21
13.071925
31
0.0
0
LINE
8
0
6
CONTINUOUS
10
14.430970
20
120.477475
30
0.0
11
14.150040
21
124.737035
31
0.0
0
LINE
8
0
6
CONTINUOUS
10
14.461070
20
120.021085
30
0.0
11
14.430970
21
120.477475
31
0.0
0
LINE
8
0
6
CONTINUOUS
10
11.614840
20
120.324465
30
0.0
11
11.613530
21
119.910345
31
0.0
0
LINE
8
0
6
CONTINUOUS
10
12.873890
20
121.181775
30
0.0
11
12.877050
21
121.599955
31
0.0
0
LINE
8
0
6
CONTINUOUS
10
6.158770
20
118.877245
30
0.0
11
8.960650
21
119.269955
31
0.0
0
LINE
8
0
6
CONTINUOUS
10
3.328470
20
116.020145
30
0.0
11
6.727920
21
116.437145
31
0.0
0
LINE
8
0
6
CONTINUOUS
10
9.607100
20
116.955335
30
0.0
11
10.058510
21
117.036565
31
0.0
0
LINE
8
0
6
CONTINUOUS
10
10.058510
20
117.036565
30
0.0
11
13.046890
21
118.067345
31
0.0
0
LINE
8
0
6
CONTINUOUS
10
14.459130
20
118.847685
30
0.0
11
14.461070
21
120.021085
31
0.0
0
LINE
8
0
6
CONTINUOUS
10
13.046890
20
118.067345
30
0.0
11
13.054810
21
116.897745
31
0.0
0
LINE
8
0
6
CONTINUOUS
10
13.046890
20
118.067345
30
0.0
11
14.461070
21
120.021085
31
0.0
0
LINE
8
0
6
CONTINUOUS
10
14.150040
20
124.737035
30
0.0
11
14.121100
21
125.175795
31
0.0
0
LINE
8
0
6
CONTINUOUS
10
14.121100
20
125.175795
30
0.0
11
12.915845
21
126.710829
31
0.0
0
LINE
8
0
6
CONTINUOUS
10
3.699600
20
12.425555
30
0.0
11
7.591990
21
12.676235
31
0.0
0
LINE
8
0
6
CONTINUOUS
10
-0.339340
20
12.361055
30
0.0
11
3.699600
21
12.425555
31
0.0
0
LINE
8
0
6
CONTINUOUS
10
7.591990
20
12.676235
30
0.0
11
10.776060
21
13.018305
31
0.0
0
LINE
8
0
6
CONTINUOUS
10
11.275260
20
13.071925
30
0.0
11
13.754660
21
13.605855
31
0.0
0
LINE
8
0
6
CONTINUOUS
10
13.754660
20
13.605855
30
0.0
11
14.285850
21
14.397345
31
0.0
0
LINE
8
0
6
CONTINUOUS
10
13.749690
20
14.322645
30
0.0
11
13.754660
21
13.605855
31
0.0
0
LINE
8
0
6
CONTINUOUS
10
14.285850
20
14.397345
30
0.0
11
14.287040
21
15.121685
31
0.0
0
LINE
8
0
6
CONTINUOUS
10
14.458500
20
118.474195
30
0.0
11
14.459130
21
118.847685
31
0.0
0
LINE
8
0
6
CONTINUOUS
10
13.057310
20
116.528665
30
0.0
11
13.054810
21
116.897745
31
0.0
0
LINE
8
0
6
CONTINUOUS
10
6.158770
20
118.877245
30
0.0
11
2.976750
21
118.595135
31
0.0
0
LINE
8
0
6
CONTINUOUS
10
2.976750
20
118.595135
30
0.0
11
2.429494
21
118.576595
31
0.0
0
LINE
8
0
6
CONTINUOUS
10
9.399940
20
119.331515
30
0.0
11
8.960650
21
119.269955
31
0.0
0
LINE
8
0
6
CONTINUOUS
10
11.613530
20
119.910345
30
0.0
11
9.399940
21
119.331515
31
0.0
0
LINE
8
0
6
CONTINUOUS
10
12.877050
20
121.599955
30
0.0
11
12.940801
21
129.998414
31
0.0
0
LINE
8
0
6
CONTINUOUS
10
11.614840
20
120.324465
30
0.0
11
11.644415
21
129.647350
31
0.0
0
LINE
8
0
6
CONTINUOUS
10
-13.153601
20
130.048821
30
0.0
11
-13.126110
21
121.642675
31
0.0
0
LINE
8
0
6
CONTINUOUS
10
13.749690
20
14.322645
30
0.0
11
13.057310
21
116.528665
31
0.0
0
LINE
8
0
6
CONTINUOUS
10
-14.432790
20
14.368945
30
0.0
11
-13.319150
21
116.572015
31
0.0
0
LINE
8
0
6
CONTINUOUS
10
-14.719340
20
118.522135
30
0.0
11
-14.974580
21
15.169765
31
0.0
0
LINE
8
0
6
CONTINUOUS
10
-9.863210
20
116.987315
30
0.0
11
-6.984300
21
116.459675
31
0.0
0
LINE
8
0
6
CONTINUOUS
10
-11.958240
20
13.110105
30
0.0
11
-11.458720
21
13.054835
31
0.0
0
LINE
8
0
6
CONTINUOUS
10
-14.401980
20
124.783935
30
0.0
11
-14.685180
21
120.525295
31
0.0
0
LINE
8
0
6
CONTINUOUS
10
-14.685180
20
120.525295
30
0.0
11
-14.715520
21
120.069025
31
0.0
0
LINE
8
0
6
CONTINUOUS
10
-13.126110
20
121.642675
30
0.0
11
-13.124740
21
121.224505
31
0.0
0
LINE
8
0
6
CONTINUOUS
10
-11.865080
20
119.948895
30
0.0
11
-11.864590
21
120.363025
31
0.0
0
LINE
8
0
6
CONTINUOUS
10
-9.212570
20
119.299825
30
0.0
11
-6.410920
21
118.897895
31
0.0
0
LINE
8
0
6
CONTINUOUS
10
-6.984300
20
116.459675
30
0.0
11
-3.585090
21
116.031505
31
0.0
0
LINE
8
0
6
CONTINUOUS
10
-10.314570
20
117.070035
30
0.0
11
-9.863210
21
116.987315
31
0.0
0
LINE
8
0
6
CONTINUOUS
10
-13.302390
20
118.110605
30
0.0
11
-10.314570
21
117.070035
31
0.0
0
LINE
8
0
6
CONTINUOUS
10
-13.315130
20
116.941075
30
0.0
11
-13.302390
21
118.110605
31
0.0
0
LINE
8
0
6
CONTINUOUS
10
-14.715520
20
120.069025
30
0.0
11
-14.718420
21
118.895615
31
0.0
0
LINE
8
0
6
CONTINUOUS
10
-14.715520
20
120.069025
30
0.0
11
-13.302390
21
118.110605
31
0.0
0
LINE
8
0
6
CONTINUOUS
10
-14.372800
20
125.222605
30
0.0
11
-14.401980
21
124.783935
31
0.0
0
LINE
8
0
6
CONTINUOUS
10
-13.142923
20
126.783903
30
0.0
11
-14.372800
21
125.222605
31
0.0
0
LINE
8
0
6
CONTINUOUS
10
-8.272650
20
12.702305
30
0.0
11
-4.378740
21
12.438835
31
0.0
0
LINE
8
0
6
CONTINUOUS
10
-4.378740
20
12.438835
30
0.0
11
-0.339340
21
12.361055
31
0.0
0
LINE
8
0
6
CONTINUOUS
10
-11.458720
20
13.054835
30
0.0
11
-8.272650
21
12.702305
31
0.0
0
LINE
8
0
6
CONTINUOUS
10
-14.440710
20
13.652175
30
0.0
11
-11.958240
21
13.110105
31
0.0
0
LINE
8
0
6
CONTINUOUS
10
-14.974580
20
15.169765
30
0.0
11
-14.976370
21
14.445425
31
0.0
0
LINE
8
0
6
CONTINUOUS
10
-14.440710
20
13.652175
30
0.0
11
-14.432790
21
14.368945
31
0.0
0
LINE
8
0
6
CONTINUOUS
10
-14.976370
20
14.445425
30
0.0
11
-14.440710
21
13.652175
31
0.0
0
LINE
8
0
6
CONTINUOUS
10
-14.718420
20
118.895615
30
0.0
11
-14.719340
21
118.522135
31
0.0
0
LINE
8
0
6
CONTINUOUS
10
-13.315130
20
116.941075
30
0.0
11
-13.319150
21
116.572015
31
0.0
0
LINE
8
0
6
CONTINUOUS
10
-3.229080
20
118.605335
30
0.0
11
-6.410920
21
118.897895
31
0.0
0
LINE
8
0
6
CONTINUOUS
10
-9.212570
20
119.299825
30
0.0
11
-9.651830
21
119.362805
31
0.0
0
LINE
8
0
6
CONTINUOUS
10
-9.651830
20
119.362805
30
0.0
11
-11.865080
21
119.948895
31
0.0
0
LINE
8
0
6
CONTINUOUS
10
12.873890
20
121.181775
30
0.0
11
11.613530
21
119.910345
31
0.0
0
LINE
8
0
6
CONTINUOUS
10
-11.865080
20
119.948895
30
0.0
11
-13.124740
21
121.224505
31
0.0
0
LINE
8
0
6
CONTINUOUS
10
-11.853542
20
129.691995
30
0.0
11
-11.864590
21
120.363025
31
0.0
0
LINE
8
0
6
CONTINUOUS
10
2.444270
20
124.493025
30
0.0
11
2.447170
21
126.774175
31
0.0
0
LINE
8
0
6
CONTINUOUS
10
-2.638280
20
124.344295
30
0.0
11
-2.638080
21
124.501375
31
0.0
0
LINE
8
0
6
CONTINUOUS
10
2.450430
20
129.080755
30
0.0
11
2.450753
21
129.297664
31
0.0
0
LINE
8
0
6
CONTINUOUS
10
2.448880
20
127.960045
30
0.0
11
2.450430
21
129.080755
31
0.0
0
LINE
8
0
6
CONTINUOUS
10
2.447170
20
126.774175
30
0.0
11
2.448880
21
127.960045
31
0.0
0
LINE
8
0
6
CONTINUOUS
10
2.444080
20
124.335945
30
0.0
11
2.444270
21
124.493025
31
0.0
0
LINE
8
0
6
CONTINUOUS
10
-2.420890
20
115.838085
30
0.0
11
-1.363980
21
115.228005
31
0.0
0
LINE
8
0
6
CONTINUOUS
10
-1.363980
20
115.228005
30
0.0
11
-0.116860
21
115.012345
31
0.0
0
LINE
8
0
6
CONTINUOUS
10
-0.116860
20
115.012345
30
0.0
11
1.009330
21
115.224115
31
0.0
0
LINE
8
0
6
CONTINUOUS
10
1.009330
20
115.224115
30
0.0
11
2.188470
21
115.830495
31
0.0
0
LINE
8
0
6
CONTINUOUS
10
-2.645460
20
126.703245
30
0.0
11
-2.650190
21
123.057595
31
0.0
0
LINE
8
0
6
CONTINUOUS
10
-2.650190
20
123.057595
30
0.0
11
-2.654310
21
119.240455
31
0.0
0
LINE
8
0
6
CONTINUOUS
10
-2.654310
20
119.240455
30
0.0
11
-2.655800
21
117.509075
31
0.0
0
LINE
8
0
6
CONTINUOUS
10
-2.655900
20
117.389865
30
0.0
11
-2.420890
21
115.838085
31
0.0
0
LINE
8
0
6
CONTINUOUS
10
-2.420890
20
115.838085
30
0.0
11
-2.418510
21
116.775925
31
0.0
0
LINE
8
0
6
CONTINUOUS
10
-2.642391
20
128.687209
30
0.0
11
-2.645460
21
126.703245
31
0.0
0
LINE
8
0
6
CONTINUOUS
10
2.428810
20
118.306195
30
0.0
11
2.441960
21
123.503665
31
0.0
0
LINE
8
0
6
CONTINUOUS
10
2.444080
20
124.335945
30
0.0
11
2.206340
21
122.883905
31
0.0
0
LINE
8
0
6
CONTINUOUS
10
2.441960
20
123.503665
30
0.0
11
2.444080
21
124.335945
31
0.0
0
LINE
8
0
6
CONTINUOUS
10
2.190840
20
116.768355
30
0.0
11
2.204200
21
122.039755
31
0.0
0
LINE
8
0
6
CONTINUOUS
10
-2.418510
20
116.775925
30
0.0
11
-2.405150
21
122.047345
31
0.0
0
LINE
8
0
6
CONTINUOUS
10
2.426450
20
117.381515
30
0.0
11
2.428810
21
118.306195
31
0.0
0
LINE
8
0
6
CONTINUOUS
10
2.188470
20
115.830495
30
0.0
11
2.426450
21
117.381515
31
0.0
0
LINE
8
0
6
CONTINUOUS
10
2.190840
20
116.768355
30
0.0
11
2.188470
21
115.830495
31
0.0
0
LINE
8
0
6
CONTINUOUS
10
-1.346190
20
122.244945
30
0.0
11
-2.403020
21
122.891465
31
0.0
0
LINE
8
0
6
CONTINUOUS
10
-0.099110
20
122.016465
30
0.0
11
-1.346190
21
122.244945
31
0.0
0
LINE
8
0
6
CONTINUOUS
10
1.269630
20
122.240645
30
0.0
11
-0.099110
21
122.016465
31
0.0
0
LINE
8
0
6
CONTINUOUS
10
2.206340
20
122.883905
30
0.0
11
1.269630
21
122.240645
31
0.0
0
LINE
8
0
6
CONTINUOUS
10
2.204200
20
122.039755
30
0.0
11
2.206340
21
122.883905
31
0.0
0
LINE
8
0
6
CONTINUOUS
10
-2.633480
20
127.968395
30
0.0
11
-2.631940
21
129.089105
31
0.0
0
LINE
8
0
6
CONTINUOUS
10
-2.635190
20
126.782535
30
0.0
11
-2.633480
21
127.968395
31
0.0
0
LINE
8
0
6
CONTINUOUS
10
-2.638080
20
124.501375
30
0.0
11
-2.635190
21
126.782535
31
0.0
0
LINE
8
0
6
CONTINUOUS
10
-2.403020
20
122.891465
30
0.0
11
-2.638280
21
124.344295
31
0.0
0
LINE
8
0
6
CONTINUOUS
10
-2.405150
20
122.047345
30
0.0
11
-2.403020
21
122.891465
31
0.0
0
LINE
8
0
6
CONTINUOUS
10
-2.631940
20
129.089105
30
0.0
11
-2.631717
21
129.237097
31
0.0
0
LINE
8
0
6
CONTINUOUS
10
-13.414850
20
167.333535
30
0.0
11
-13.416971
21
167.945715
31
0.0
0
LINE
8
0
6
CONTINUOUS
10
-14.784330
20
167.965655
30
0.0
11
-13.414850
21
167.333535
31
0.0
0
LINE
8
0
6
CONTINUOUS
10
-14.784330
20
167.965655
30
0.0
11
-14.786563
21
168.610731
31
0.0
0
LINE
8
0
6
CONTINUOUS
10
-16.171440
20
167.357745
30
0.0
11
-14.784330
21
167.965655
31
0.0
0
LINE
8
0
6
CONTINUOUS
10
-16.171440
20
167.357745
30
0.0
11
-16.173823
21
168.045383
31
0.0
0
LINE
8
0
6
CONTINUOUS
10
-16.189100
20
166.117695
30
0.0
11
-16.171440
21
167.357745
31
0.0
0
LINE
8
0
6
CONTINUOUS
10
-16.191395
20
166.780480
30
0.0
11
-16.189100
21
166.117695
31
0.0
0
LINE
8
0
6
CONTINUOUS
10
-1.289900
20
191.584265
30
0.0
11
-0.620860
21
192.473055
31
0.0
0
LINE
8
0
6
CONTINUOUS
10
-1.282778
20
192.231814
30
0.0
11
-1.289900
21
191.584265
31
0.0
0
LINE
8
0
6
CONTINUOUS
10
-7.774730
20
191.600435
30
0.0
11
-7.121320
21
190.704495
31
0.0
0
LINE
8
0
6
CONTINUOUS
10
-9.097160
20
191.607625
30
0.0
11
-7.774730
21
191.600435
31
0.0
0
LINE
8
0
6
CONTINUOUS
10
-15.930620
20
189.284955
30
0.0
11
-15.277210
21
188.388975
31
0.0
0
LINE
8
0
6
CONTINUOUS
10
-17.922100
20
188.403355
30
0.0
11
-17.253060
21
189.292145
31
0.0
0
LINE
8
0
6
CONTINUOUS
10
-17.914612
20
189.084147
30
0.0
11
-17.922100
21
188.403355
31
0.0
0
LINE
8
0
6
CONTINUOUS
10
-17.253060
20
189.292145
30
0.0
11
-15.930620
21
189.284955
31
0.0
0
LINE
8
0
6
CONTINUOUS
10
-17.245187
20
190.007942
30
0.0
11
-17.253060
21
189.292145
31
0.0
0
LINE
8
0
6
CONTINUOUS
10
-18.425690
20
181.208405
30
0.0
11
-17.973320
21
180.240045
31
0.0
0
LINE
8
0
6
CONTINUOUS
10
-20.578110
20
180.598105
30
0.0
11
-19.728090
21
181.387385
31
0.0
0
LINE
8
0
6
CONTINUOUS
10
-20.570385
20
181.278943
30
0.0
11
-20.578110
21
180.598105
31
0.0
0
LINE
8
0
6
CONTINUOUS
10
-19.728090
20
181.387385
30
0.0
11
-18.425690
21
181.208405
31
0.0
0
LINE
8
0
6
CONTINUOUS
10
-19.720315
20
182.072877
30
0.0
11
-19.728090
21
181.387385
31
0.0
0
LINE
8
0
6
CONTINUOUS
10
-11.166830
20
184.801125
30
0.0
11
-10.714450
21
183.832795
31
0.0
0
LINE
8
0
6
CONTINUOUS
10
-13.319240
20
184.190885
30
0.0
11
-12.469220
21
184.980165
31
0.0
0
LINE
8
0
6
CONTINUOUS
10
-13.311712
20
184.854350
30
0.0
11
-13.319240
21
184.190885
31
0.0
0
LINE
8
0
6
CONTINUOUS
10
-12.469220
20
184.980165
30
0.0
11
-11.166830
21
184.801125
31
0.0
0
LINE
8
0
6
CONTINUOUS
10
-12.461387
20
185.670294
30
0.0
11
-12.469220
21
184.980165
31
0.0
0
LINE
8
0
6
CONTINUOUS
10
-2.822570
20
186.392385
30
0.0
11
-2.370210
21
185.424045
31
0.0
0
LINE
8
0
6
CONTINUOUS
10
-17.092560
20
175.587745
30
0.0
11
-16.101710
21
176.507775
31
0.0
0
LINE
8
0
6
CONTINUOUS
10
-17.083331
20
176.288169
30
0.0
11
-17.092560
21
175.587745
31
0.0
0
LINE
8
0
6
CONTINUOUS
10
-16.101710
20
176.507775
30
0.0
11
-14.583540
21
176.299095
31
0.0
0
LINE
8
0
6
CONTINUOUS
10
-16.092389
20
177.214971
30
0.0
11
-16.101710
21
176.507775
31
0.0
0
LINE
8
0
6
CONTINUOUS
10
-7.239590
20
179.803315
30
0.0
11
-6.712270
21
178.674545
31
0.0
0
LINE
8
0
6
CONTINUOUS
10
-9.748600
20
179.091935
30
0.0
11
-8.757760
21
180.011995
31
0.0
0
LINE
8
0
6
CONTINUOUS
10
-9.739704
20
179.767099
30
0.0
11
-9.748600
21
179.091935
31
0.0
0
LINE
8
0
6
CONTINUOUS
10
-8.757760
20
180.011995
30
0.0
11
-7.239590
21
179.803315
31
0.0
0
LINE
8
0
6
CONTINUOUS
10
-8.748350
20
180.725990
30
0.0
11
-8.757760
21
180.011995
31
0.0
0
LINE
8
0
6
CONTINUOUS
10
-8.745810
20
172.713955
30
0.0
11
-8.201400
21
171.548585
31
0.0
0
LINE
8
0
6
CONTINUOUS
10
-10.313220
20
172.929415
30
0.0
11
-8.745810
21
172.713955
31
0.0
0
LINE
8
0
6
CONTINUOUS
10
-0.933350
20
175.004375
30
0.0
11
-0.388940
21
173.839025
31
0.0
0
LINE
8
0
6
CONTINUOUS
10
-3.523750
20
174.269935
30
0.0
11
-2.500780
21
175.219835
31
0.0
0
LINE
8
0
6
CONTINUOUS
10
-3.514948
20
174.917414
30
0.0
11
-3.523750
21
174.269935
31
0.0
0
LINE
8
0
6
CONTINUOUS
10
-2.500780
20
175.219835
30
0.0
11
-0.933350
21
175.004375
31
0.0
0
LINE
8
0
6
CONTINUOUS
10
-2.491398
20
175.909704
30
0.0
11
-2.500780
21
175.219835
31
0.0
0
LINE
8
0
6
CONTINUOUS
10
1.045510
20
180.907095
30
0.0
11
1.572820
21
179.778305
31
0.0
0
LINE
8
0
6
CONTINUOUS
10
-1.463510
20
180.195675
30
0.0
11
-0.472650
21
181.115785
31
0.0
0
LINE
8
0
6
CONTINUOUS
10
-1.454824
20
180.854719
30
0.0
11
-1.463510
21
180.195675
31
0.0
0
LINE
8
0
6
CONTINUOUS
10
-0.472650
20
181.115785
30
0.0
11
1.045510
21
180.907095
31
0.0
0
LINE
8
0
6
CONTINUOUS
10
-0.463277
20
181.827147
30
0.0
11
-0.472650
21
181.115785
31
0.0
0
LINE
8
0
6
CONTINUOUS
10
6.111560
20
186.206665
30
0.0
11
6.563920
21
185.238325
31
0.0
0
LINE
8
0
6
CONTINUOUS
10
3.959150
20
185.596395
30
0.0
11
4.809170
21
186.385675
31
0.0
0
LINE
8
0
6
CONTINUOUS
10
3.966420
20
186.237460
30
0.0
11
3.959150
21
185.596395
31
0.0
0
LINE
8
0
6
CONTINUOUS
10
4.809170
20
186.385675
30
0.0
11
6.111560
21
186.206665
31
0.0
0
LINE
8
0
6
CONTINUOUS
10
4.816934
20
187.070172
30
0.0
11
4.809170
21
186.385675
31
0.0
0
LINE
8
0
6
CONTINUOUS
10
9.385540
20
191.468715
30
0.0
11
9.837920
21
190.500395
31
0.0
0
LINE
8
0
6
CONTINUOUS
10
17.662770
20
189.310345
30
0.0
11
18.115140
21
188.342015
31
0.0
0
LINE
8
0
6
CONTINUOUS
10
15.510360
20
188.700105
30
0.0
11
16.360370
21
189.489365
31
0.0
0
LINE
8
0
6
CONTINUOUS
10
15.517410
20
189.321819
30
0.0
11
15.510360
21
188.700105
31
0.0
0
LINE
8
0
6
CONTINUOUS
10
16.360370
20
189.489365
30
0.0
11
17.662770
21
189.310345
31
0.0
0
LINE
8
0
6
CONTINUOUS
10
16.368113
20
190.171977
30
0.0
11
16.360370
21
189.489365
31
0.0
0
LINE
8
0
6
CONTINUOUS
10
7.349220
20
174.332385
30
0.0
11
7.893640
21
173.166995
31
0.0
0
LINE
8
0
6
CONTINUOUS
10
5.781820
20
174.547855
30
0.0
11
7.349220
21
174.332385
31
0.0
0
LINE
8
0
6
CONTINUOUS
10
27.988870
20
143.445575
30
0.0
11
28.059110
21
142.416635
31
0.0
0
LINE
8
0
6
CONTINUOUS
10
36.580860
20
155.032725
30
0.0
11
36.651110
21
154.003725
31
0.0
0
LINE
8
0
6
CONTINUOUS
10
27.540880
20
154.904625
30
0.0
11
27.691990
21
155.928295
31
0.0
0
LINE
8
0
6
CONTINUOUS
10
27.535833
20
155.500963
30
0.0
11
27.540880
21
154.904625
31
0.0
0
LINE
8
0
6
CONTINUOUS
10
28.905350
20
156.338035
30
0.0
11
29.967610
21
155.724075
31
0.0
0
LINE
8
0
6
CONTINUOUS
10
27.691990
20
155.928295
30
0.0
11
28.905350
21
156.338035
31
0.0
0
LINE
8
0
6
CONTINUOUS
10
27.687044
20
156.513137
30
0.0
11
27.691990
21
155.928295
31
0.0
0
LINE
8
0
6
CONTINUOUS
10
23.576290
20
148.821235
30
0.0
11
23.727410
21
149.844885
31
0.0
0
LINE
8
0
6
CONTINUOUS
10
23.571172
20
149.426239
30
0.0
11
23.576290
21
148.821235
31
0.0
0
LINE
8
0
6
CONTINUOUS
10
24.940760
20
150.254585
30
0.0
11
26.003020
21
149.640645
31
0.0
0
LINE
8
0
6
CONTINUOUS
10
23.727410
20
149.844885
30
0.0
11
24.940760
21
150.254585
31
0.0
0
LINE
8
0
6
CONTINUOUS
10
23.722482
20
150.427476
30
0.0
11
23.727410
21
149.844885
31
0.0
0
LINE
8
0
6
CONTINUOUS
10
17.821660
20
143.941585
30
0.0
11
17.972780
21
144.965225
31
0.0
0
LINE
8
0
6
CONTINUOUS
10
17.816401
20
144.563424
30
0.0
11
17.821660
21
143.941585
31
0.0
0
LINE
8
0
6
CONTINUOUS
10
19.186140
20
145.374915
30
0.0
11
20.248390
21
144.760985
31
0.0
0
LINE
8
0
6
CONTINUOUS
10
17.972780
20
144.965225
30
0.0
11
19.186140
21
145.374915
31
0.0
0
LINE
8
0
6
CONTINUOUS
10
17.967849
20
145.548153
30
0.0
11
17.972780
21
144.965225
31
0.0
0
LINE
8
0
6
CONTINUOUS
10
20.845680
20
156.657435
30
0.0
11
21.021840
21
157.850675
31
0.0
0
LINE
8
0
6
CONTINUOUS
10
20.839944
20
157.236046
30
0.0
11
20.845680
21
156.657435
31
0.0
0
LINE
8
0
6
CONTINUOUS
10
21.021840
20
157.850675
30
0.0
11
22.436210
21
158.328255
31
0.0
0
LINE
8
0
6
CONTINUOUS
10
21.016267
20
158.412597
30
0.0
11
21.021840
21
157.850675
31
0.0
0
LINE
8
0
6
CONTINUOUS
10
14.854680
20
158.172845
30
0.0
11
16.133090
21
157.433975
31
0.0
0
LINE
8
0
6
CONTINUOUS
10
13.394420
20
157.679775
30
0.0
11
14.854680
21
158.172845
31
0.0
0
LINE
8
0
6
CONTINUOUS
10
8.155150
20
151.235405
30
0.0
11
8.337010
21
152.467335
31
0.0
0
LINE
8
0
6
CONTINUOUS
10
8.148713
20
151.863744
30
0.0
11
8.155150
21
151.235405
31
0.0
0
LINE
8
0
6
CONTINUOUS
10
8.337010
20
152.467335
30
0.0
11
9.797260
21
152.960445
31
0.0
0
LINE
8
0
6
CONTINUOUS
10
8.330838
20
153.069859
30
0.0
11
8.337010
21
152.467335
31
0.0
0
LINE
8
0
6
CONTINUOUS
10
10.603870
20
146.304965
30
0.0
11
10.780020
21
147.498235
31
0.0
0
LINE
8
0
6
CONTINUOUS
10
10.597704
20
146.927109
30
0.0
11
10.603870
21
146.304965
31
0.0
0
LINE
8
0
6
CONTINUOUS
10
12.194400
20
147.975815
30
0.0
11
13.432650
21
147.260185
31
0.0
0
LINE
8
0
6
CONTINUOUS
10
10.780020
20
147.498235
30
0.0
11
12.194400
21
147.975815
31
0.0
0
LINE
8
0
6
CONTINUOUS
10
10.774437
20
148.061569
30
0.0
11
10.780020
21
147.498235
31
0.0
0
LINE
8
0
6
CONTINUOUS
10
10.680990
20
140.492105
30
0.0
11
10.832100
21
141.515785
31
0.0
0
LINE
8
0
6
CONTINUOUS
10
10.675597
20
141.129841
30
0.0
11
10.680990
21
140.492105
31
0.0
0
LINE
8
0
6
CONTINUOUS
10
12.045460
20
141.925465
30
0.0
11
13.107720
21
141.311555
31
0.0
0
LINE
8
0
6
CONTINUOUS
10
10.832100
20
141.515785
30
0.0
11
12.045460
21
141.925465
31
0.0
0
LINE
8
0
6
CONTINUOUS
10
10.827101
20
142.106916
30
0.0
11
10.832100
21
141.515785
31
0.0
0
LINE
8
0
6
CONTINUOUS
10
11.476170
20
135.210605
30
0.0
11
11.627290
21
136.234255
31
0.0
0
LINE
8
0
6
CONTINUOUS
10
11.470761
20
135.849979
30
0.0
11
11.476170
21
135.210605
31
0.0
0
LINE
8
0
6
CONTINUOUS
10
11.627290
20
136.234255
30
0.0
11
12.840640
21
136.643975
31
0.0
0
LINE
8
0
6
CONTINUOUS
10
11.622377
20
136.814780
30
0.0
11
11.627290
21
136.234255
31
0.0
0
LINE
8
0
6
CONTINUOUS
10
2.662890
20
143.971395
30
0.0
11
2.839060
21
145.164635
31
0.0
0
LINE
8
0
6
CONTINUOUS
10
2.656396
20
144.626676
30
0.0
11
2.662890
21
143.971395
31
0.0
0
LINE
8
0
6
CONTINUOUS
10
4.253430
20
145.642215
30
0.0
11
5.491680
21
144.926555
31
0.0
0
LINE
8
0
6
CONTINUOUS
10
2.839060
20
145.164635
30
0.0
11
4.253430
21
145.642215
31
0.0
0
LINE
8
0
6
CONTINUOUS
10
2.833289
20
145.746561
30
0.0
11
2.839060
21
145.164635
31
0.0
0
LINE
8
0
6
CONTINUOUS
10
2.240340
20
138.751315
30
0.0
11
2.391460
21
139.774995
31
0.0
0
LINE
8
0
6
CONTINUOUS
10
2.234852
20
139.400355
30
0.0
11
2.240340
21
138.751315
31
0.0
0
LINE
8
0
6
CONTINUOUS
10
3.604810
20
140.184685
30
0.0
11
4.667070
21
139.570745
31
0.0
0
LINE
8
0
6
CONTINUOUS
10
2.391460
20
139.774995
30
0.0
11
3.604810
21
140.184685
31
0.0
0
LINE
8
0
6
CONTINUOUS
10
2.386396
20
140.373603
30
0.0
11
2.391460
21
139.774995
31
0.0
0
LINE
8
0
6
CONTINUOUS
10
3.035530
20
133.481385
30
0.0
11
3.186650
21
134.505065
31
0.0
0
LINE
8
0
6
CONTINUOUS
10
3.029982
20
134.137247
30
0.0
11
3.035530
21
133.481385
31
0.0
0
LINE
8
0
6
CONTINUOUS
10
4.400000
20
134.914765
30
0.0
11
5.462250
21
134.300815
31
0.0
0
LINE
8
0
6
CONTINUOUS
10
4.400000
20
134.914765
30
0.0
11
4.392383
21
135.815220
31
0.0
0
LINE
8
0
6
CONTINUOUS
10
3.186650
20
134.505065
30
0.0
11
4.400000
21
134.914765
31
0.0
0
LINE
8
0
6
CONTINUOUS
10
3.181714
20
135.088539
30
0.0
11
3.186650
21
134.505065
31
0.0
0
LINE
8
0
6
CONTINUOUS
10
0.381230
20
148.904525
30
0.0
11
0.563090
21
150.136505
31
0.0
0
LINE
8
0
6
CONTINUOUS
10
0.374644
20
149.547434
30
0.0
11
0.381230
21
148.904525
31
0.0
0
LINE
8
0
6
CONTINUOUS
10
0.563090
20
150.136505
30
0.0
11
2.023350
21
150.629565
31
0.0
0
LINE
8
0
6
CONTINUOUS
10
0.556834
20
150.747193
30
0.0
11
0.563090
21
150.136505
31
0.0
0
LINE
8
0
6
CONTINUOUS
10
35.322190
20
167.960405
30
0.0
11
36.342950
21
168.615445
31
0.0
0
LINE
8
0
6
CONTINUOUS
10
35.325072
20
168.537551
30
0.0
11
35.322190
21
167.960405
31
0.0
0
LINE
8
0
6
CONTINUOUS
10
36.342950
20
168.615445
30
0.0
11
37.581550
21
168.254175
31
0.0
0
LINE
8
0
6
CONTINUOUS
10
36.346078
20
169.242647
30
0.0
11
36.342950
21
168.615445
31
0.0
0
LINE
8
0
6
CONTINUOUS
10
37.581550
20
168.254175
30
0.0
11
37.799410
21
167.237845
31
0.0
0
LINE
8
0
6
CONTINUOUS
10
37.584990
20
168.943962
30
0.0
11
37.581550
21
168.254175
31
0.0
0
LINE
8
0
6
CONTINUOUS
10
32.781240
20
174.311455
30
0.0
11
33.802000
21
174.966515
31
0.0
0
LINE
8
0
6
CONTINUOUS
10
32.784162
20
174.897434
30
0.0
11
32.781240
21
174.311455
31
0.0
0
LINE
8
0
6
CONTINUOUS
10
33.802000
20
174.966515
30
0.0
11
35.040590
21
174.605205
31
0.0
0
LINE
8
0
6
CONTINUOUS
10
33.805202
20
175.609050
30
0.0
11
33.802000
21
174.966515
31
0.0
0
LINE
8
0
6
CONTINUOUS
10
35.040590
20
174.605205
30
0.0
11
35.258440
21
173.588895
31
0.0
0
LINE
8
0
6
CONTINUOUS
10
35.044060
20
175.301088
30
0.0
11
35.040590
21
174.605205
31
0.0
0
LINE
8
0
6
CONTINUOUS
10
28.451720
20
180.171545
30
0.0
11
29.472480
21
180.826625
31
0.0
0
LINE
8
0
6
CONTINUOUS
10
28.454694
20
180.767429
30
0.0
11
28.451720
21
180.171545
31
0.0
0
LINE
8
0
6
CONTINUOUS
10
30.711080
20
180.465375
30
0.0
11
30.928940
21
179.449005
31
0.0
0
LINE
8
0
6
CONTINUOUS
10
23.596730
20
185.735955
30
0.0
11
24.835330
21
185.374665
31
0.0
0
LINE
8
0
6
CONTINUOUS
10
24.835330
20
185.374665
30
0.0
11
25.053190
21
184.358335
31
0.0
0
LINE
8
0
6
CONTINUOUS
10
24.838831
20
186.076171
30
0.0
11
24.835330
21
185.374665
31
0.0
0
LINE
8
0
6
CONTINUOUS
10
18.919440
20
180.238135
30
0.0
11
20.066200
21
180.751265
31
0.0
0
LINE
8
0
6
CONTINUOUS
10
18.921436
20
180.857134
30
0.0
11
18.919440
21
180.238135
31
0.0
0
LINE
8
0
6
CONTINUOUS
10
20.066200
20
180.751265
30
0.0
11
21.210090
21
180.234015
31
0.0
0
LINE
8
0
6
CONTINUOUS
10
20.068354
20
181.420079
30
0.0
11
20.066200
21
180.751265
31
0.0
0
LINE
8
0
6
CONTINUOUS
10
21.210090
20
180.234015
30
0.0
11
21.207220
21
179.203605
31
0.0
0
LINE
8
0
6
CONTINUOUS
10
21.212287
20
180.916160
30
0.0
11
21.210090
21
180.234015
31
0.0
0
LINE
8
0
6
CONTINUOUS
10
24.475010
20
175.126815
30
0.0
11
25.621790
21
175.639945
31
0.0
0
LINE
8
0
6
CONTINUOUS
10
24.476971
20
175.734996
30
0.0
11
24.475010
21
175.126815
31
0.0
0
LINE
8
0
6
CONTINUOUS
10
25.621790
20
175.639945
30
0.0
11
26.765660
21
175.122715
31
0.0
0
LINE
8
0
6
CONTINUOUS
10
25.623913
20
176.299677
30
0.0
11
25.621790
21
175.639945
31
0.0
0
LINE
8
0
6
CONTINUOUS
10
27.765740
20
168.968195
30
0.0
11
28.912510
21
169.481345
31
0.0
0
LINE
8
0
6
CONTINUOUS
10
27.767668
20
169.566742
30
0.0
11
27.765740
21
168.968195
31
0.0
0
LINE
8
0
6
CONTINUOUS
10
28.912510
20
169.481345
30
0.0
11
30.056390
21
168.964115
31
0.0
0
LINE
8
0
6
CONTINUOUS
10
28.914601
20
170.130570
30
0.0
11
28.912510
21
169.481345
31
0.0
0
LINE
8
0
6
CONTINUOUS
10
30.056390
20
168.964115
30
0.0
11
30.053510
21
167.933705
31
0.0
0
LINE
8
0
6
CONTINUOUS
10
30.058590
20
169.646965
30
0.0
11
30.056390
21
168.964115
31
0.0
0
LINE
8
0
6
CONTINUOUS
10
15.539150
20
176.560665
30
0.0
11
16.872540
21
175.957735
31
0.0
0
LINE
8
0
6
CONTINUOUS
10
16.872540
20
175.957735
30
0.0
11
16.869190
21
174.756635
31
0.0
0
LINE
8
0
6
CONTINUOUS
10
16.875156
20
176.661670
30
0.0
11
16.872540
21
175.957735
31
0.0
0
LINE
8
0
6
CONTINUOUS
10
20.572330
20
171.303475
30
0.0
11
21.905720
21
170.700525
31
0.0
0
LINE
8
0
6
CONTINUOUS
10
21.905720
20
170.700525
30
0.0
11
21.902360
21
169.499385
31
0.0
0
LINE
8
0
6
CONTINUOUS
10
21.908345
20
171.406864
30
0.0
11
21.905720
21
170.700525
31
0.0
0
LINE
8
0
6
CONTINUOUS
10
11.479610
20
169.906355
30
0.0
11
12.859730
21
170.523945
31
0.0
0
LINE
8
0
6
CONTINUOUS
10
11.481987
20
170.526989
30
0.0
11
11.479610
21
169.906355
31
0.0
0
LINE
8
0
6
CONTINUOUS
10
12.859730
20
170.523945
30
0.0
11
14.236370
21
169.901435
31
0.0
0
LINE
8
0
6
CONTINUOUS
10
12.862259
20
171.184282
30
0.0
11
12.859730
21
170.523945
31
0.0
0
LINE
8
0
6
CONTINUOUS
10
35.749010
20
161.430335
30
0.0
11
36.895770
21
161.943505
31
0.0
0
LINE
8
0
6
CONTINUOUS
10
35.750869
20
162.007323
30
0.0
11
35.749010
21
161.430335
31
0.0
0
LINE
8
0
6
CONTINUOUS
10
36.895770
20
161.943505
30
0.0
11
38.039660
21
161.426235
31
0.0
0
LINE
8
0
6
CONTINUOUS
10
36.897780
20
162.567579
30
0.0
11
36.895770
21
161.943505
31
0.0
0
LINE
8
0
6
CONTINUOUS
10
38.039660
20
161.426235
30
0.0
11
38.036780
21
160.395845
31
0.0
0
LINE
8
0
6
CONTINUOUS
10
38.041876
20
162.114793
30
0.0
11
38.039660
21
161.426235
31
0.0
0
LINE
8
0
6
CONTINUOUS
10
38.039653
20
161.424109
30
0.0
11
38.213460
21
161.345515
31
0.0
0
LINE
8
0
6
CONTINUOUS
10
38.213460
20
161.345515
30
0.0
11
38.210580
21
160.315125
31
0.0
0
LINE
8
0
6
CONTINUOUS
10
38.215674
20
162.034091
30
0.0
11
38.213460
21
161.345515
31
0.0
0
LINE
8
0
6
CONTINUOUS
10
28.909120
20
162.370825
30
0.0
11
30.055900
21
162.883995
31
0.0
0
LINE
8
0
6
CONTINUOUS
10
28.911007
20
162.955910
30
0.0
11
28.909120
21
162.370825
31
0.0
0
LINE
8
0
6
CONTINUOUS
10
30.055900
20
162.883995
30
0.0
11
31.199780
21
162.366745
31
0.0
0
LINE
8
0
6
CONTINUOUS
10
30.057935
20
163.516345
30
0.0
11
30.055900
21
162.883995
31
0.0
0
LINE
8
0
6
CONTINUOUS
10
31.199780
20
162.366745
30
0.0
11
31.196900
21
161.336335
31
0.0
0
LINE
8
0
6
CONTINUOUS
10
31.201951
20
163.040584
30
0.0
11
31.199780
21
162.366745
31
0.0
0
LINE
8
0
6
CONTINUOUS
10
21.623800
20
164.310145
30
0.0
11
22.960550
21
164.908305
31
0.0
0
LINE
8
0
6
CONTINUOUS
10
21.625923
20
164.881000
30
0.0
11
21.623800
21
164.310145
31
0.0
0
LINE
8
0
6
CONTINUOUS
10
22.960550
20
164.908305
30
0.0
11
24.293950
21
164.305355
31
0.0
0
LINE
8
0
6
CONTINUOUS
10
22.962927
20
165.547896
30
0.0
11
22.960550
21
164.908305
31
0.0
0
LINE
8
0
6
CONTINUOUS
10
14.646450
20
163.824545
30
0.0
11
16.026560
21
164.442115
31
0.0
0
LINE
8
0
6
CONTINUOUS
10
14.648765
20
164.429084
30
0.0
11
14.646450
21
163.824545
31
0.0
0
LINE
8
0
6
CONTINUOUS
10
16.026560
20
164.442115
30
0.0
11
17.403190
21
163.819605
31
0.0
0
LINE
8
0
6
CONTINUOUS
10
16.028989
20
165.076836
30
0.0
11
16.026560
21
164.442115
31
0.0
0
LINE
8
0
6
CONTINUOUS
10
17.403190
20
163.819605
30
0.0
11
17.399730
21
162.579525
31
0.0
0
LINE
8
0
6
CONTINUOUS
10
17.405813
20
164.503763
30
0.0
11
17.403190
21
163.819605
31
0.0
0
LINE
8
0
6
CONTINUOUS
10
0.690960
20
169.781425
30
0.0
11
1.621960
21
168.775545
31
0.0
0
LINE
8
0
6
CONTINUOUS
10
-0.892500
20
169.656225
30
0.0
11
0.690960
21
169.781425
31
0.0
0
LINE
8
0
6
CONTINUOUS
10
-1.544950
20
168.525175
30
0.0
11
-0.892500
21
169.656225
31
0.0
0
LINE
8
0
6
CONTINUOUS
10
-1.551437
20
169.166936
30
0.0
11
-1.544950
21
168.525175
31
0.0
0
LINE
8
0
6
CONTINUOUS
10
-4.793900
20
156.216425
30
0.0
11
-3.210440
21
156.341625
31
0.0
0
LINE
8
0
6
CONTINUOUS
10
-5.446340
20
155.085405
30
0.0
11
-4.793900
21
156.216425
31
0.0
0
LINE
8
0
6
CONTINUOUS
10
-5.453033
20
155.747359
30
0.0
11
-5.446340
21
155.085405
31
0.0
0
LINE
8
0
6
CONTINUOUS
10
4.250700
20
156.533275
30
0.0
11
5.429400
21
155.699815
31
0.0
0
LINE
8
0
6
CONTINUOUS
10
2.735150
20
156.154775
30
0.0
11
4.250700
21
156.533275
31
0.0
0
LINE
8
0
6
CONTINUOUS
10
2.398280
20
154.942805
30
0.0
11
2.735150
21
156.154775
31
0.0
0
LINE
8
0
6
CONTINUOUS
10
2.391306
20
155.575667
30
0.0
11
2.398280
21
154.942805
31
0.0
0
LINE
8
0
6
CONTINUOUS
10
-8.129170
20
161.132445
30
0.0
11
-7.198170
21
160.126605
31
0.0
0
LINE
8
0
6
CONTINUOUS
10
-9.712630
20
161.007265
30
0.0
11
-8.129170
21
161.132445
31
0.0
0
LINE
8
0
6
CONTINUOUS
10
-10.365060
20
159.876225
30
0.0
11
-9.712630
21
161.007265
31
0.0
0
LINE
8
0
6
CONTINUOUS
10
-10.371882
20
160.550937
30
0.0
11
-10.365060
21
159.876225
31
0.0
0
LINE
8
0
6
CONTINUOUS
10
6.833810
20
167.229755
30
0.0
11
8.343550
21
166.837075
31
0.0
0
LINE
8
0
6
CONTINUOUS
10
8.343550
20
166.837075
30
0.0
11
8.662130
21
165.622035
31
0.0
0
LINE
8
0
6
CONTINUOUS
10
8.352700
20
167.507093
30
0.0
11
8.343550
21
166.837075
31
0.0
0
LINE
8
0
6
CONTINUOUS
10
-5.984760
20
166.956335
30
0.0
11
-5.346510
21
165.820245
31
0.0
0
LINE
8
0
6
CONTINUOUS
10
-7.566600
20
167.093855
30
0.0
11
-5.984760
21
166.956335
31
0.0
0
LINE
8
0
6
CONTINUOUS
10
-8.510160
20
166.095345
30
0.0
11
-7.566600
21
167.093855
31
0.0
0
LINE
8
0
6
CONTINUOUS
10
-8.506780
20
166.768946
30
0.0
11
-8.510160
21
166.095345
31
0.0
0
LINE
8
0
6
CONTINUOUS
10
7.454700
20
160.628695
30
0.0
11
8.834820
21
161.246275
31
0.0
0
LINE
8
0
6
CONTINUOUS
10
7.457002
20
161.229329
30
0.0
11
7.454700
21
160.628695
31
0.0
0
LINE
8
0
6
CONTINUOUS
10
8.834820
20
161.246275
30
0.0
11
10.211450
21
160.623785
31
0.0
0
LINE
8
0
6
CONTINUOUS
10
8.837220
20
161.873404
30
0.0
11
8.834820
21
161.246275
31
0.0
0
LINE
8
0
6
CONTINUOUS
10
10.211450
20
160.623785
30
0.0
11
10.207990
21
159.383685
31
0.0
0
LINE
8
0
6
CONTINUOUS
10
10.213965
20
161.281094
30
0.0
11
10.211450
21
160.623785
31
0.0
0
LINE
8
0
6
CONTINUOUS
10
-25.848640
20
143.402565
30
0.0
11
-25.844261
21
143.978935
31
0.0
0
LINE
8
0
6
CONTINUOUS
10
-26.947540
20
143.975935
30
0.0
11
-25.848640
21
143.402565
31
0.0
0
LINE
8
0
6
CONTINUOUS
10
-28.221990
20
142.493025
30
0.0
11
-28.134220
21
143.521125
31
0.0
0
LINE
8
0
6
CONTINUOUS
10
-28.216690
20
143.190556
30
0.0
11
-28.221990
21
142.493025
31
0.0
0
LINE
8
0
6
CONTINUOUS
10
-30.922740
20
148.795045
30
0.0
11
-30.918371
21
149.369792
31
0.0
0
LINE
8
0
6
CONTINUOUS
10
-32.021630
20
149.368415
30
0.0
11
-30.922740
21
148.795045
31
0.0
0
LINE
8
0
6
CONTINUOUS
10
-33.296080
20
147.885525
30
0.0
11
-33.208330
21
148.913665
31
0.0
0
LINE
8
0
6
CONTINUOUS
10
-33.290756
20
148.586248
30
0.0
11
-33.296080
21
147.885525
31
0.0
0
LINE
8
0
6
CONTINUOUS
10
-36.649280
20
155.048035
30
0.0
11
-35.462590
21
155.502765
31
0.0
0
LINE
8
0
6
CONTINUOUS
10
-34.363690
20
154.929405
30
0.0
11
-34.359329
21
155.503141
31
0.0
0
LINE
8
0
6
CONTINUOUS
10
-35.462590
20
155.502765
30
0.0
11
-34.363690
21
154.929405
31
0.0
0
LINE
8
0
6
CONTINUOUS
10
-35.457982
20
156.109253
30
0.0
11
-35.462590
21
155.502765
31
0.0
0
LINE
8
0
6
CONTINUOUS
10
-36.649280
20
155.048035
30
0.0
11
-36.644149
21
155.723110
31
0.0
0
LINE
8
0
6
CONTINUOUS
10
-36.737040
20
154.019885
30
0.0
11
-36.649280
21
155.048035
31
0.0
0
LINE
8
0
6
CONTINUOUS
10
-36.731708
20
154.721694
30
0.0
11
-36.737040
21
154.019885
31
0.0
0
LINE
8
0
6
CONTINUOUS
10
-27.806530
20
155.843665
30
0.0
11
-27.801218
21
156.440242
31
0.0
0
LINE
8
0
6
CONTINUOUS
10
-27.940200
20
156.868815
30
0.0
11
-27.806530
21
155.843665
31
0.0
0
LINE
8
0
6
CONTINUOUS
10
-30.219080
20
156.688585
30
0.0
11
-29.146460
21
157.291255
31
0.0
0
LINE
8
0
6
CONTINUOUS
10
-30.213101
20
157.360342
30
0.0
11
-30.219080
21
156.688585
31
0.0
0
LINE
8
0
6
CONTINUOUS
10
-24.382040
20
149.753195
30
0.0
11
-24.376652
21
150.358553
31
0.0
0
LINE
8
0
6
CONTINUOUS
10
-24.515720
20
150.778365
30
0.0
11
-24.382040
21
149.753195
31
0.0
0
LINE
8
0
6
CONTINUOUS
10
-26.794600
20
150.598195
30
0.0
11
-25.721980
21
151.200815
31
0.0
0
LINE
8
0
6
CONTINUOUS
10
-26.788700
20
151.261035
30
0.0
11
-26.794600
21
150.598195
31
0.0
0
LINE
8
0
6
CONTINUOUS
10
-24.515720
20
150.778365
30
0.0
11
-24.510534
21
151.360873
31
0.0
0
LINE
8
0
6
CONTINUOUS
10
-25.721980
20
151.200815
30
0.0
11
-24.515720
21
150.778365
31
0.0
0
LINE
8
0
6
CONTINUOUS
10
-25.716538
20
151.812072
30
0.0
11
-25.721980
21
151.200815
31
0.0
0
LINE
8
0
6
CONTINUOUS
10
-18.874510
20
144.655925
30
0.0
11
-18.869029
21
145.271490
31
0.0
0
LINE
8
0
6
CONTINUOUS
10
-19.008170
20
145.681145
30
0.0
11
-18.874510
21
144.655925
31
0.0
0
LINE
8
0
6
CONTINUOUS
10
-21.287070
20
145.500895
30
0.0
11
-20.214450
21
146.103585
31
0.0
0
LINE
8
0
6
CONTINUOUS
10
-21.281261
20
146.153371
30
0.0
11
-21.287070
21
145.500895
31
0.0
0
LINE
8
0
6
CONTINUOUS
10
-19.008170
20
145.681145
30
0.0
11
-19.002983
21
146.264082
31
0.0
0
LINE
8
0
6
CONTINUOUS
10
-20.214450
20
146.103585
30
0.0
11
-19.008170
21
145.681145
31
0.0
0
LINE
8
0
6
CONTINUOUS
10
-20.209095
20
146.704986
30
0.0
11
-20.214450
21
146.103585
31
0.0
0
LINE
8
0
6
CONTINUOUS
10
-20.676460
20
156.609525
30
0.0
11
-20.670473
21
157.188569
31
0.0
0
LINE
8
0
6
CONTINUOUS
10
-20.832280
20
157.804555
30
0.0
11
-20.676460
21
156.609525
31
0.0
0
LINE
8
0
6
CONTINUOUS
10
-20.832280
20
157.804555
30
0.0
11
-20.826471
21
158.366200
31
0.0
0
LINE
8
0
6
CONTINUOUS
10
-22.238400
20
158.296975
30
0.0
11
-20.832280
21
157.804555
31
0.0
0
LINE
8
0
6
CONTINUOUS
10
-17.027590
20
150.811015
30
0.0
11
-17.021386
21
151.410835
31
0.0
0
LINE
8
0
6
CONTINUOUS
10
-17.183400
20
152.006005
30
0.0
11
-17.027590
21
150.811015
31
0.0
0
LINE
8
0
6
CONTINUOUS
10
-17.183400
20
152.006005
30
0.0
11
-17.177623
21
152.564551
31
0.0
0
LINE
8
0
6
CONTINUOUS
10
-18.589520
20
152.498465
30
0.0
11
-17.183400
21
152.006005
31
0.0
0
LINE
8
0
6
CONTINUOUS
10
-14.523740
20
159.763285
30
0.0
11
-14.517285
21
160.368252
31
0.0
0
LINE
8
0
6
CONTINUOUS
10
-14.684620
20
160.997055
30
0.0
11
-14.523740
21
159.763285
31
0.0
0
LINE
8
0
6
CONTINUOUS
10
-17.427220
20
160.780155
30
0.0
11
-16.136340
21
161.505485
31
0.0
0
LINE
8
0
6
CONTINUOUS
10
-17.419955
20
161.461080
30
0.0
11
-17.427220
21
160.780155
31
0.0
0
LINE
8
0
6
CONTINUOUS
10
-14.684620
20
160.997055
30
0.0
11
-14.678167
21
161.601725
31
0.0
0
LINE
8
0
6
CONTINUOUS
10
-16.136340
20
161.505485
30
0.0
11
-14.684620
21
160.997055
31
0.0
0
LINE
8
0
6
CONTINUOUS
10
-16.129585
20
162.138606
30
0.0
11
-16.136340
21
161.505485
31
0.0
0
LINE
8
0
6
CONTINUOUS
10
-14.313650
20
154.791495
30
0.0
11
-13.022770
21
155.516845
31
0.0
0
LINE
8
0
6
CONTINUOUS
10
-14.306668
20
155.445913
30
0.0
11
-14.313650
21
154.791495
31
0.0
0
LINE
8
0
6
CONTINUOUS
10
-10.611130
20
146.410975
30
0.0
11
-10.604691
21
147.033739
31
0.0
0
LINE
8
0
6
CONTINUOUS
10
-10.766950
20
147.605965
30
0.0
11
-10.611130
21
146.410975
31
0.0
0
LINE
8
0
6
CONTINUOUS
10
-13.423390
20
147.395865
30
0.0
11
-12.173070
21
148.098445
31
0.0
0
LINE
8
0
6
CONTINUOUS
10
-13.416733
20
148.039745
30
0.0
11
-13.423390
21
147.395865
31
0.0
0
LINE
8
0
6
CONTINUOUS
10
-10.766950
20
147.605965
30
0.0
11
-10.761122
21
148.169512
31
0.0
0
LINE
8
0
6
CONTINUOUS
10
-12.173070
20
148.098445
30
0.0
11
-10.766950
21
147.605965
31
0.0
0
LINE
8
0
6
CONTINUOUS
10
-12.167131
20
148.672528
30
0.0
11
-12.173070
21
148.098445
31
0.0
0
LINE
8
0
6
CONTINUOUS
10
-14.206680
20
141.647575
30
0.0
11
-13.134060
21
142.250265
31
0.0
0
LINE
8
0
6
CONTINUOUS
10
-14.200985
20
142.287451
30
0.0
11
-14.206680
21
141.647575
31
0.0
0
LINE
8
0
6
CONTINUOUS
10
-13.134060
20
142.250265
30
0.0
11
-11.927790
21
141.827805
31
0.0
0
LINE
8
0
6
CONTINUOUS
10
-13.128790
20
142.842161
30
0.0
11
-13.134060
21
142.250265
31
0.0
0
LINE
8
0
6
CONTINUOUS
10
-11.682110
20
135.328965
30
0.0
11
-11.676410
21
135.969167
31
0.0
0
LINE
8
0
6
CONTINUOUS
10
-11.815790
20
136.354115
30
0.0
11
-11.682110
21
135.328965
31
0.0
0
LINE
8
0
6
CONTINUOUS
10
-2.710550
20
143.998485
30
0.0
11
-2.703769
21
144.654348
31
0.0
0
LINE
8
0
6
CONTINUOUS
10
-2.866370
20
145.193475
30
0.0
11
-2.710550
21
143.998485
31
0.0
0
LINE
8
0
6
CONTINUOUS
10
-5.522810
20
144.983395
30
0.0
11
-4.272480
21
145.685915
31
0.0
0
LINE
8
0
6
CONTINUOUS
10
-5.516447
20
145.598581
30
0.0
11
-5.522810
21
144.983395
31
0.0
0
LINE
8
0
6
CONTINUOUS
10
-2.866370
20
145.193475
30
0.0
11
-2.860347
21
145.775854
31
0.0
0
LINE
8
0
6
CONTINUOUS
10
-4.272480
20
145.685915
30
0.0
11
-2.866370
21
145.193475
31
0.0
0
LINE
8
0
6
CONTINUOUS
10
-4.266693
20
146.245476
30
0.0
11
-4.272480
21
145.685915
31
0.0
0
LINE
8
0
6
CONTINUOUS
10
-3.718500
20
138.783465
30
0.0
11
-3.712718
21
139.432918
31
0.0
0
LINE
8
0
6
CONTINUOUS
10
-3.852180
20
139.808645
30
0.0
11
-3.718500
21
138.783465
31
0.0
0
LINE
8
0
6
CONTINUOUS
10
-3.271900
20
133.514015
30
0.0
11
-3.266058
21
134.170340
31
0.0
0
LINE
8
0
6
CONTINUOUS
10
-3.405570
20
134.539175
30
0.0
11
-3.271900
21
133.514015
31
0.0
0
LINE
8
0
6
CONTINUOUS
10
-5.684460
20
134.358965
30
0.0
11
-4.611840
21
134.961645
31
0.0
0
LINE
8
0
6
CONTINUOUS
10
-5.679028
20
134.969279
30
0.0
11
-5.684460
21
134.358965
31
0.0
0
LINE
8
0
6
CONTINUOUS
10
-3.405570
20
134.539175
30
0.0
11
-3.400371
21
135.123286
31
0.0
0
LINE
8
0
6
CONTINUOUS
10
-4.611840
20
134.961645
30
0.0
11
-3.405570
21
134.539175
31
0.0
0
LINE
8
0
6
CONTINUOUS
10
-4.606779
20
135.530065
30
0.0
11
-4.611840
21
134.961645
31
0.0
0
LINE
8
0
6
CONTINUOUS
10
-4.832620
20
149.782725
30
0.0
11
-4.825833
21
150.418653
31
0.0
0
LINE
8
0
6
CONTINUOUS
10
-4.993490
20
151.016515
30
0.0
11
-4.832620
21
149.782725
31
0.0
0
LINE
8
0
6
CONTINUOUS
10
-7.736090
20
150.799605
30
0.0
11
-6.445210
21
151.524915
31
0.0
0
LINE
8
0
6
CONTINUOUS
10
-7.729323
20
151.433870
30
0.0
11
-7.736090
21
150.799605
31
0.0
0
LINE
8
0
6
CONTINUOUS
10
-4.993490
20
151.016515
30
0.0
11
-4.987024
21
151.622532
31
0.0
0
LINE
8
0
6
CONTINUOUS
10
-6.445210
20
151.524915
30
0.0
11
-4.993490
21
151.016515
31
0.0
0
LINE
8
0
6
CONTINUOUS
10
-6.438768
20
152.128524
30
0.0
11
-6.445210
21
151.524915
31
0.0
0
LINE
8
0
6
CONTINUOUS
10
-35.237460
20
168.094745
30
0.0
11
-35.240107
21
168.672046
31
0.0
0
LINE
8
0
6
CONTINUOUS
10
-36.246980
20
168.760485
30
0.0
11
-35.237460
21
168.094745
31
0.0
0
LINE
8
0
6
CONTINUOUS
10
-36.246980
20
168.760485
30
0.0
11
-36.249853
21
169.387598
31
0.0
0
LINE
8
0
6
CONTINUOUS
10
-37.491610
20
168.412335
30
0.0
11
-36.246980
21
168.760485
31
0.0
0
LINE
8
0
6
CONTINUOUS
10
-37.491610
20
168.412335
30
0.0
11
-37.494765
21
169.100031
31
0.0
0
LINE
8
0
6
CONTINUOUS
10
-37.726760
20
167.398325
30
0.0
11
-37.491610
21
168.412335
31
0.0
0
LINE
8
0
6
CONTINUOUS
10
-37.729943
20
168.093073
30
0.0
11
-37.726760
21
167.398325
31
0.0
0
LINE
8
0
6
CONTINUOUS
10
-32.706270
20
174.544425
30
0.0
11
-32.708960
21
175.130775
31
0.0
0
LINE
8
0
6
CONTINUOUS
10
-33.715780
20
175.210215
30
0.0
11
-32.706270
21
174.544425
31
0.0
0
LINE
8
0
6
CONTINUOUS
10
-33.715780
20
175.210215
30
0.0
11
-33.718728
21
175.853203
31
0.0
0
LINE
8
0
6
CONTINUOUS
10
-34.960430
20
174.862055
30
0.0
11
-33.715780
21
175.210215
31
0.0
0
LINE
8
0
6
CONTINUOUS
10
-34.960430
20
174.862055
30
0.0
11
-34.963610
21
175.556151
31
0.0
0
LINE
8
0
6
CONTINUOUS
10
-35.195560
20
173.848065
30
0.0
11
-34.960430
21
174.862055
31
0.0
0
LINE
8
0
6
CONTINUOUS
10
-35.198696
20
174.531628
30
0.0
11
-35.195560
21
173.848065
31
0.0
0
LINE
8
0
6
CONTINUOUS
10
-28.378830
20
180.297685
30
0.0
11
-28.381559
21
180.892874
31
0.0
0
LINE
8
0
6
CONTINUOUS
10
-29.388340
20
180.963455
30
0.0
11
-28.378830
21
180.297685
31
0.0
0
LINE
8
0
6
CONTINUOUS
10
-30.868110
20
179.601265
30
0.0
11
-30.632970
21
180.615255
31
0.0
0
LINE
8
0
6
CONTINUOUS
10
-30.871198
20
180.274461
30
0.0
11
-30.868110
21
179.601265
31
0.0
0
LINE
8
0
6
CONTINUOUS
10
-22.433040
20
185.191785
30
0.0
11
-22.435832
21
185.800400
31
0.0
0
LINE
8
0
6
CONTINUOUS
10
-23.442560
20
185.857585
30
0.0
11
-22.433040
21
185.191785
31
0.0
0
LINE
8
0
6
CONTINUOUS
10
-23.442560
20
185.857585
30
0.0
11
-23.445681
21
186.538753
31
0.0
0
LINE
8
0
6
CONTINUOUS
10
-24.687200
20
185.509375
30
0.0
11
-23.442560
21
185.857585
31
0.0
0
LINE
8
0
6
CONTINUOUS
10
-24.687200
20
185.509375
30
0.0
11
-24.690451
21
186.219100
31
0.0
0
LINE
8
0
6
CONTINUOUS
10
-24.922330
20
184.495435
30
0.0
11
-24.687200
21
185.509375
31
0.0
0
LINE
8
0
6
CONTINUOUS
10
-24.925384
20
185.161109
30
0.0
11
-24.922330
21
184.495435
31
0.0
0
LINE
8
0
6
CONTINUOUS
10
-23.659840
20
175.964395
30
0.0
11
-23.661561
21
176.572178
31
0.0
0
LINE
8
0
6
CONTINUOUS
10
-24.797780
20
176.489605
30
0.0
11
-23.659840
21
175.964395
31
0.0
0
LINE
8
0
6
CONTINUOUS
10
-24.797780
20
176.489605
30
0.0
11
-24.799643
21
177.148929
31
0.0
0
LINE
8
0
6
CONTINUOUS
10
-25.950360
20
175.984455
30
0.0
11
-24.797780
21
176.489605
31
0.0
0
LINE
8
0
6
CONTINUOUS
10
-27.455810
20
170.024555
30
0.0
11
-27.457504
21
170.622765
31
0.0
0
LINE
8
0
6
CONTINUOUS
10
-28.593740
20
170.549745
30
0.0
11
-27.455810
21
170.024555
31
0.0
0
LINE
8
0
6
CONTINUOUS
10
-19.411130
20
170.922255
30
0.0
11
-19.413125
21
171.518073
31
0.0
0
LINE
8
0
6
CONTINUOUS
10
-20.737590
20
171.534415
30
0.0
11
-19.411130
21
170.922255
31
0.0
0
LINE
8
0
6
CONTINUOUS
10
-20.737590
20
171.534415
30
0.0
11
-20.739834
21
172.205189
31
0.0
0
LINE
8
0
6
CONTINUOUS
10
-22.081130
20
170.945595
30
0.0
11
-20.737590
21
171.534415
31
0.0
0
LINE
8
0
6
CONTINUOUS
10
-2.473240
20
161.346775
30
0.0
11
-1.458910
21
163.105215
31
0.0
0
LINE
8
0
6
CONTINUOUS
10
-2.483422
20
161.990776
30
0.0
11
-2.473240
21
161.346775
31
0.0
0
LINE
8
0
6
CONTINUOUS
10
-35.748350
20
161.618035
30
0.0
11
-35.749983
21
162.195385
31
0.0
0
LINE
8
0
6
CONTINUOUS
10
-36.886290
20
162.143255
30
0.0
11
-35.748350
21
161.618035
31
0.0
0
LINE
8
0
6
CONTINUOUS
10
-36.886290
20
162.143255
30
0.0
11
-36.888049
21
162.766770
31
0.0
0
LINE
8
0
6
CONTINUOUS
10
-38.038870
20
161.638115
30
0.0
11
-36.886290
21
162.143255
31
0.0
0
LINE
8
0
6
CONTINUOUS
10
-28.845690
20
163.458015
30
0.0
11
-28.847360
21
164.048341
31
0.0
0
LINE
8
0
6
CONTINUOUS
10
-29.983610
20
163.983185
30
0.0
11
-28.845690
21
163.458015
31
0.0
0
LINE
8
0
6
CONTINUOUS
10
-29.983610
20
163.983185
30
0.0
11
-29.985413
21
164.620602
31
0.0
0
LINE
8
0
6
CONTINUOUS
10
-31.136190
20
163.478045
30
0.0
11
-29.983610
21
163.983185
31
0.0
0
LINE
8
0
6
CONTINUOUS
10
-31.136190
20
163.478045
30
0.0
11
-31.138111
21
164.157243
31
0.0
0
LINE
8
0
6
CONTINUOUS
10
-31.150860
20
162.447715
30
0.0
11
-31.136190
21
163.478045
31
0.0
0
LINE
8
0
6
CONTINUOUS
10
-31.152768
20
163.121498
30
0.0
11
-31.150860
21
162.447715
31
0.0
0
LINE
8
0
6
CONTINUOUS
10
0.701580
20
192.465845
30
0.0
11
1.354980
21
191.569905
31
0.0
0
LINE
8
0
6
CONTINUOUS
10
-0.620860
20
192.473055
30
0.0
11
0.701580
21
192.465845
31
0.0
0
LINE
8
0
6
CONTINUOUS
10
-0.613063
20
193.181994
30
0.0
11
-0.620860
21
192.473055
31
0.0
0
LINE
8
0
6
CONTINUOUS
10
-9.766200
20
190.718885
30
0.0
11
-9.097160
21
191.607625
31
0.0
0
LINE
8
0
6
CONTINUOUS
10
-9.758895
20
191.383269
30
0.0
11
-9.766200
21
190.718885
31
0.0
0
LINE
8
0
6
CONTINUOUS
10
-4.975000
20
185.782075
30
0.0
11
-4.124980
21
186.571405
31
0.0
0
LINE
8
0
6
CONTINUOUS
10
-4.967595
20
186.434728
30
0.0
11
-4.975000
21
185.782075
31
0.0
0
LINE
8
0
6
CONTINUOUS
10
-4.124980
20
186.571405
30
0.0
11
-2.822570
21
186.392385
31
0.0
0
LINE
8
0
6
CONTINUOUS
10
-4.117165
20
187.259989
30
0.0
11
-4.124980
21
186.571405
31
0.0
0
LINE
8
0
6
CONTINUOUS
10
-14.583540
20
176.299095
30
0.0
11
-14.056230
21
175.170355
31
0.0
0
LINE
8
0
6
CONTINUOUS
10
-14.575036
20
176.944332
30
0.0
11
-14.583540
21
176.299095
31
0.0
0
LINE
8
0
6
CONTINUOUS
10
-11.336210
20
171.979515
30
0.0
11
-10.313220
21
172.929415
31
0.0
0
LINE
8
0
6
CONTINUOUS
10
-11.326984
20
172.658017
30
0.0
11
-11.336210
21
171.979515
31
0.0
0
LINE
8
0
6
CONTINUOUS
10
7.233130
20
190.858425
30
0.0
11
8.083150
21
191.647755
31
0.0
0
LINE
8
0
6
CONTINUOUS
10
7.240375
20
191.497144
30
0.0
11
7.233130
21
190.858425
31
0.0
0
LINE
8
0
6
CONTINUOUS
10
8.083150
20
191.647755
30
0.0
11
9.385540
21
191.468715
31
0.0
0
LINE
8
0
6
CONTINUOUS
10
8.091125
20
192.350619
30
0.0
11
8.083150
21
191.647755
31
0.0
0
LINE
8
0
6
CONTINUOUS
10
9.321170
20
179.713305
30
0.0
11
9.848480
21
178.584555
31
0.0
0
LINE
8
0
6
CONTINUOUS
10
6.812150
20
179.001945
30
0.0
11
7.802990
21
179.922005
31
0.0
0
LINE
8
0
6
CONTINUOUS
10
6.820391
20
179.627404
30
0.0
11
6.812150
21
179.001945
31
0.0
0
LINE
8
0
6
CONTINUOUS
10
7.802990
20
179.922005
30
0.0
11
9.321170
21
179.713305
31
0.0
0
LINE
8
0
6
CONTINUOUS
10
7.812168
20
180.618411
30
0.0
11
7.802990
21
179.922005
31
0.0
0
LINE
8
0
6
CONTINUOUS
10
13.954610
20
184.379615
30
0.0
11
14.406980
21
183.411295
31
0.0
0
LINE
8
0
6
CONTINUOUS
10
11.802200
20
183.769365
30
0.0
11
12.652210
21
184.558645
31
0.0
0
LINE
8
0
6
CONTINUOUS
10
11.809336
20
184.398686
30
0.0
11
11.802200
21
183.769365
31
0.0
0
LINE
8
0
6
CONTINUOUS
10
12.652210
20
184.558645
30
0.0
11
13.954610
21
184.379615
31
0.0
0
LINE
8
0
6
CONTINUOUS
10
12.659903
20
185.236706
30
0.0
11
12.652210
21
184.558645
31
0.0
0
LINE
8
0
6
CONTINUOUS
10
4.758840
20
173.597915
30
0.0
11
5.781820
21
174.547855
31
0.0
0
LINE
8
0
6
CONTINUOUS
10
4.767439
20
174.230486
30
0.0
11
4.758840
21
173.597915
31
0.0
0
LINE
8
0
6
CONTINUOUS
10
20.344760
20
139.564545
30
0.0
11
21.523580
21
139.097325
31
0.0
0
LINE
8
0
6
CONTINUOUS
10
19.236180
20
139.002815
30
0.0
11
20.344760
21
139.564545
31
0.0
0
LINE
8
0
6
CONTINUOUS
10
19.232057
20
139.577835
30
0.0
11
19.236180
21
139.002815
31
0.0
0
LINE
8
0
6
CONTINUOUS
10
21.523580
20
139.097325
30
0.0
11
21.593830
21
138.068355
31
0.0
0
LINE
8
0
6
CONTINUOUS
10
21.519033
20
139.731526
30
0.0
11
21.523580
21
139.097325
31
0.0
0
LINE
8
0
6
CONTINUOUS
10
26.810030
20
143.912825
30
0.0
11
27.988870
21
143.445575
31
0.0
0
LINE
8
0
6
CONTINUOUS
10
25.701470
20
143.351065
30
0.0
11
26.810030
21
143.912825
31
0.0
0
LINE
8
0
6
CONTINUOUS
10
25.697361
20
143.923706
30
0.0
11
25.701470
21
143.351065
31
0.0
0
LINE
8
0
6
CONTINUOUS
10
31.976900
20
149.341195
30
0.0
11
33.155730
21
148.873965
31
0.0
0
LINE
8
0
6
CONTINUOUS
10
30.868330
20
148.779455
30
0.0
11
31.976900
21
149.341195
31
0.0
0
LINE
8
0
6
CONTINUOUS
10
30.864201
20
149.355377
30
0.0
11
30.868330
21
148.779455
31
0.0
0
LINE
8
0
6
CONTINUOUS
10
33.155730
20
148.873965
30
0.0
11
33.225990
21
147.844995
31
0.0
0
LINE
8
0
6
CONTINUOUS
10
33.150988
20
149.535016
30
0.0
11
33.155730
21
148.873965
31
0.0
0
LINE
8
0
6
CONTINUOUS
10
35.402020
20
155.499965
30
0.0
11
36.580860
21
155.032725
31
0.0
0
LINE
8
0
6
CONTINUOUS
10
34.293470
20
154.938235
30
0.0
11
35.402020
21
155.499965
31
0.0
0
LINE
8
0
6
CONTINUOUS
10
34.289338
20
155.514325
30
0.0
11
34.293470
21
154.938235
31
0.0
0
LINE
8
0
6
CONTINUOUS
10
22.436210
20
158.328255
30
0.0
11
23.674450
21
157.612605
31
0.0
0
LINE
8
0
6
CONTINUOUS
10
22.430053
20
158.949074
30
0.0
11
22.436210
21
158.328255
31
0.0
0
LINE
8
0
6
CONTINUOUS
10
16.931340
20
150.886395
30
0.0
11
17.107500
21
152.079635
31
0.0
0
LINE
8
0
6
CONTINUOUS
10
16.925411
20
151.484432
30
0.0
11
16.931340
21
150.886395
31
0.0
0
LINE
8
0
6
CONTINUOUS
10
18.521870
20
152.557235
30
0.0
11
19.760120
21
151.841595
31
0.0
0
LINE
8
0
6
CONTINUOUS
10
17.107500
20
152.079635
30
0.0
11
18.521870
21
152.557235
31
0.0
0
LINE
8
0
6
CONTINUOUS
10
17.101962
20
152.638289
30
0.0
11
17.107500
21
152.079635
31
0.0
0
LINE
8
0
6
CONTINUOUS
10
13.212560
20
156.447805
30
0.0
11
13.394420
21
157.679775
31
0.0
0
LINE
8
0
6
CONTINUOUS
10
13.206300
20
157.058762
30
0.0
11
13.212560
21
156.447805
31
0.0
0
LINE
8
0
6
CONTINUOUS
10
9.797260
20
152.960445
30
0.0
11
11.075670
21
152.221575
31
0.0
0
LINE
8
0
6
CONTINUOUS
10
9.791006
20
153.570910
30
0.0
11
9.797260
21
152.960445
31
0.0
0
LINE
8
0
6
CONTINUOUS
10
12.840640
20
136.643975
30
0.0
11
13.902890
21
136.030025
31
0.0
0
LINE
8
0
6
CONTINUOUS
10
12.835761
20
137.220661
30
0.0
11
12.840640
21
136.643975
31
0.0
0
LINE
8
0
6
CONTINUOUS
10
2.023350
20
150.629565
30
0.0
11
3.301750
21
149.890705
31
0.0
0
LINE
8
0
6
CONTINUOUS
10
2.017192
20
151.230537
30
0.0
11
2.023350
21
150.629565
31
0.0
0
LINE
8
0
6
CONTINUOUS
10
29.472480
20
180.826625
30
0.0
11
30.711080
21
180.465375
31
0.0
0
LINE
8
0
6
CONTINUOUS
10
29.475742
20
181.481101
30
0.0
11
29.472480
21
180.826625
31
0.0
0
LINE
8
0
6
CONTINUOUS
10
22.575970
20
185.080895
30
0.0
11
23.596730
21
185.735955
31
0.0
0
LINE
8
0
6
CONTINUOUS
10
22.579006
20
185.689211
30
0.0
11
22.575970
21
185.080895
31
0.0
0
LINE
8
0
6
CONTINUOUS
10
26.765660
20
175.122715
30
0.0
11
26.762790
21
174.092325
31
0.0
0
LINE
8
0
6
CONTINUOUS
10
26.767863
20
175.806516
30
0.0
11
26.765660
21
175.122715
31
0.0
0
LINE
8
0
6
CONTINUOUS
10
14.202390
20
175.962505
30
0.0
11
15.539150
21
176.560665
31
0.0
0
LINE
8
0
6
CONTINUOUS
10
14.204669
20
176.575209
30
0.0
11
14.202390
21
175.962505
31
0.0
0
LINE
8
0
6
CONTINUOUS
10
19.235570
20
170.705305
30
0.0
11
20.572330
21
171.303475
31
0.0
0
LINE
8
0
6
CONTINUOUS
10
19.237786
20
171.301727
30
0.0
11
19.235570
21
170.705305
31
0.0
0
LINE
8
0
6
CONTINUOUS
10
14.236370
20
169.901435
30
0.0
11
14.232910
21
168.661355
31
0.0
0
LINE
8
0
6
CONTINUOUS
10
14.239002
20
170.589087
30
0.0
11
14.236370
21
169.901435
31
0.0
0
LINE
8
0
6
CONTINUOUS
10
24.293950
20
164.305355
30
0.0
11
24.290600
21
163.104235
31
0.0
0
LINE
8
0
6
CONTINUOUS
10
24.296549
20
165.005262
30
0.0
11
24.293950
21
164.305355
31
0.0
0
LINE
8
0
6
CONTINUOUS
10
-3.210440
20
156.341625
30
0.0
11
-2.279450
21
155.335785
31
0.0
0
LINE
8
0
6
CONTINUOUS
10
-3.216591
20
156.950024
30
0.0
11
-3.210440
21
156.341625
31
0.0
0
LINE
8
0
6
CONTINUOUS
10
5.642650
20
166.407405
30
0.0
11
6.833810
21
167.229755
31
0.0
0
LINE
8
0
6
CONTINUOUS
10
5.651145
20
167.029294
30
0.0
11
5.642650
21
166.407405
31
0.0
0
LINE
8
0
6
CONTINUOUS
10
-21.662590
20
139.312315
30
0.0
11
-20.475920
21
139.767075
31
0.0
0
LINE
8
0
6
CONTINUOUS
10
-19.377010
20
139.193705
30
0.0
11
-19.372581
21
139.776684
31
0.0
0
LINE
8
0
6
CONTINUOUS
10
-20.475920
20
139.767075
30
0.0
11
-19.377010
21
139.193705
31
0.0
0
LINE
8
0
6
CONTINUOUS
10
-20.471499
20
140.348654
30
0.0
11
-20.475920
21
139.767075
31
0.0
0
LINE
8
0
6
CONTINUOUS
10
-21.662590
20
139.312315
30
0.0
11
-21.657799
21
139.943176
31
0.0
0
LINE
8
0
6
CONTINUOUS
10
-21.750350
20
138.284195
30
0.0
11
-21.662590
21
139.312315
31
0.0
0
LINE
8
0
6
CONTINUOUS
10
-21.745115
20
138.973557
30
0.0
11
-21.750350
21
138.284195
31
0.0
0
LINE
8
0
6
CONTINUOUS
10
-26.947540
20
143.975935
30
0.0
11
-26.943086
21
144.562429
31
0.0
0
LINE
8
0
6
CONTINUOUS
10
-28.134220
20
143.521125
30
0.0
11
-26.947540
21
143.975935
31
0.0
0
LINE
8
0
6
CONTINUOUS
10
-28.129307
20
144.167788
30
0.0
11
-28.134220
21
143.521125
31
0.0
0
LINE
8
0
6
CONTINUOUS
10
-32.021630
20
149.368415
30
0.0
11
-32.017103
21
149.964303
31
0.0
0
LINE
8
0
6
CONTINUOUS
10
-33.208330
20
148.913665
30
0.0
11
-32.021630
21
149.368415
31
0.0
0
LINE
8
0
6
CONTINUOUS
10
-33.203305
20
149.574793
30
0.0
11
-33.208330
21
148.913665
31
0.0
0
LINE
8
0
6
CONTINUOUS
10
-27.940200
20
156.868815
30
0.0
11
-27.934995
21
157.453446
31
0.0
0
LINE
8
0
6
CONTINUOUS
10
-29.146460
20
157.291255
30
0.0
11
-27.940200
21
156.868815
31
0.0
0
LINE
8
0
6
CONTINUOUS
10
-29.140917
20
157.913865
30
0.0
11
-29.146460
21
157.291255
31
0.0
0
LINE
8
0
6
CONTINUOUS
10
-22.238400
20
158.296975
30
0.0
11
-22.232006
21
158.915171
31
0.0
0
LINE
8
0
6
CONTINUOUS
10
-23.488720
20
157.594445
30
0.0
11
-22.238400
21
158.296975
31
0.0
0
LINE
8
0
6
CONTINUOUS
10
-23.481601
20
158.282795
30
0.0
11
-23.488720
21
157.594445
31
0.0
0
LINE
8
0
6
CONTINUOUS
10
-18.589520
20
152.498465
30
0.0
11
-18.583311
21
153.098793
31
0.0
0
LINE
8
0
6
CONTINUOUS
10
-19.839840
20
151.795935
30
0.0
11
-18.589520
21
152.498465
31
0.0
0
LINE
8
0
6
CONTINUOUS
10
-19.832857
20
152.471307
30
0.0
11
-19.839840
21
151.795935
31
0.0
0
LINE
8
0
6
CONTINUOUS
10
-11.410180
20
153.774655
30
0.0
11
-11.403574
21
154.393957
31
0.0
0
LINE
8
0
6
CONTINUOUS
10
-11.571050
20
155.008405
30
0.0
11
-11.410180
21
153.774655
31
0.0
0
LINE
8
0
6
CONTINUOUS
10
-11.571050
20
155.008405
30
0.0
11
-11.564645
21
155.608771
31
0.0
0
LINE
8
0
6
CONTINUOUS
10
-13.022770
20
155.516845
30
0.0
11
-11.571050
21
155.008405
31
0.0
0
LINE
8
0
6
CONTINUOUS
10
-13.016167
20
156.135567
30
0.0
11
-13.022770
21
155.516845
31
0.0
0
LINE
8
0
6
CONTINUOUS
10
-11.794120
20
140.802655
30
0.0
11
-11.788440
21
141.440810
31
0.0
0
LINE
8
0
6
CONTINUOUS
10
-11.927790
20
141.827805
30
0.0
11
-11.794120
21
140.802655
31
0.0
0
LINE
8
0
6
CONTINUOUS
10
-11.922525
20
142.419164
30
0.0
11
-11.927790
21
141.827805
31
0.0
0
LINE
8
0
6
CONTINUOUS
10
-14.094680
20
136.173885
30
0.0
11
-13.022050
21
136.776595
31
0.0
0
LINE
8
0
6
CONTINUOUS
10
-14.089095
20
136.801195
30
0.0
11
-14.094680
21
136.173885
31
0.0
0
LINE
8
0
6
CONTINUOUS
10
-11.815790
20
136.354115
30
0.0
11
-11.810610
21
136.935874
31
0.0
0
LINE
8
0
6
CONTINUOUS
10
-13.022050
20
136.776595
30
0.0
11
-11.815790
21
136.354115
31
0.0
0
LINE
8
0
6
CONTINUOUS
10
-13.016911
20
137.354026
30
0.0
11
-13.022050
21
136.776595
31
0.0
0
LINE
8
0
6
CONTINUOUS
10
-6.131060
20
139.628425
30
0.0
11
-5.058440
21
140.231085
31
0.0
0
LINE
8
0
6
CONTINUOUS
10
-6.125559
20
140.246497
30
0.0
11
-6.131060
21
139.628425
31
0.0
0
LINE
8
0
6
CONTINUOUS
10
-3.852180
20
139.808645
30
0.0
11
-3.846846
21
140.407549
31
0.0
0
LINE
8
0
6
CONTINUOUS
10
-5.058440
20
140.231085
30
0.0
11
-3.852180
21
139.808645
31
0.0
0
LINE
8
0
6
CONTINUOUS
10
-5.053249
20
140.814317
30
0.0
11
-5.058440
21
140.231085
31
0.0
0
LINE
8
0
6
CONTINUOUS
10
-29.388340
20
180.963455
30
0.0
11
-29.391391
21
181.629522
31
0.0
0
LINE
8
0
6
CONTINUOUS
10
-30.632970
20
180.615255
30
0.0
11
-29.388340
21
180.963455
31
0.0
0
LINE
8
0
6
CONTINUOUS
10
-30.636215
20
181.323190
30
0.0
11
-30.632970
21
180.615255
31
0.0
0
LINE
8
0
6
CONTINUOUS
10
-25.950360
20
175.984455
30
0.0
11
-25.952296
21
176.668301
31
0.0
0
LINE
8
0
6
CONTINUOUS
10
-25.965040
20
174.954085
30
0.0
11
-25.950360
21
175.984455
31
0.0
0
LINE
8
0
6
CONTINUOUS
10
-25.966895
20
175.610911
30
0.0
11
-25.965040
21
174.954085
31
0.0
0
LINE
8
0
6
CONTINUOUS
10
-28.593740
20
170.549745
30
0.0
11
-28.595573
21
171.198539
31
0.0
0
LINE
8
0
6
CONTINUOUS
10
-29.746320
20
170.044625
30
0.0
11
-28.593740
21
170.549745
31
0.0
0
LINE
8
0
6
CONTINUOUS
10
-29.746320
20
170.044625
30
0.0
11
-29.748253
21
170.727401
31
0.0
0
LINE
8
0
6
CONTINUOUS
10
-29.761000
20
169.014295
30
0.0
11
-29.746320
21
170.044625
31
0.0
0
LINE
8
0
6
CONTINUOUS
10
-29.762884
20
169.680479
30
0.0
11
-29.761000
21
169.014295
31
0.0
0
LINE
8
0
6
CONTINUOUS
10
-22.081130
20
170.945595
30
0.0
11
-22.083491
21
171.651991
31
0.0
0
LINE
8
0
6
CONTINUOUS
10
-22.098230
20
169.744575
30
0.0
11
-22.081130
21
170.945595
31
0.0
0
LINE
8
0
6
CONTINUOUS
10
-22.100490
20
170.420221
30
0.0
11
-22.098230
21
169.744575
31
0.0
0
LINE
8
0
6
CONTINUOUS
10
-1.458910
20
163.105215
30
0.0
11
1.002850
21
163.299795
31
0.0
0
LINE
8
0
6
CONTINUOUS
10
-1.469091
20
163.749195
30
0.0
11
-1.458910
21
163.105215
31
0.0
0
LINE
8
0
6
CONTINUOUS
10
1.002850
20
163.299795
30
0.0
11
2.450230
21
161.736025
31
0.0
0
LINE
8
0
6
CONTINUOUS
10
0.992668
20
163.943798
30
0.0
11
1.002850
21
163.299795
31
0.0
0
LINE
8
0
6
CONTINUOUS
10
-38.038870
20
161.638115
30
0.0
11
-38.040815
21
162.325937
31
0.0
0
LINE
8
0
6
CONTINUOUS
10
-38.053540
20
160.607765
30
0.0
11
-38.038870
21
161.638115
31
0.0
0
LINE
8
0
6
CONTINUOUS
10
-38.055509
20
161.303818
30
0.0
11
-38.053540
21
160.607765
31
0.0
0
LINE
8
0
6
CONTINUOUS
10
-21.657590
20
164.541735
30
0.0
11
-21.659500
21
165.112199
31
0.0
0
LINE
8
0
6
CONTINUOUS
10
-22.984050
20
165.153935
30
0.0
11
-21.657590
21
164.541735
31
0.0
0
LINE
8
0
6
CONTINUOUS
10
-22.984050
20
165.153935
30
0.0
11
-22.986187
21
165.792846
31
0.0
0
LINE
8
0
6
CONTINUOUS
10
-24.327590
20
164.565075
30
0.0
11
-22.984050
21
165.153935
31
0.0
0
LINE
8
0
6
CONTINUOUS
10
-24.327590
20
164.565075
30
0.0
11
-24.329930
21
165.264728
31
0.0
0
LINE
8
0
6
CONTINUOUS
10
-24.344690
20
163.364055
30
0.0
11
-24.327590
21
164.565075
31
0.0
0
LINE
8
0
6
CONTINUOUS
10
-24.347007
20
164.055980
30
0.0
11
-24.344690
21
163.364055
31
0.0
0
LINE
8
0
6
CONTINUOUS
10
-35.763010
20
160.587725
30
0.0
11
-35.748350
21
161.618035
31
0.0
0
LINE
8
0
6
CONTINUOUS
10
-36.915620
20
160.082575
30
0.0
11
-35.763010
21
160.587725
31
0.0
0
LINE
8
0
6
CONTINUOUS
10
-38.053540
20
160.607765
30
0.0
11
-36.915620
21
160.082575
31
0.0
0
LINE
8
0
6
CONTINUOUS
10
-38.038870
20
161.638115
30
0.0
11
-38.053540
21
160.607765
31
0.0
0
LINE
8
0
6
CONTINUOUS
10
-36.886290
20
162.143255
30
0.0
11
-38.038870
21
161.638115
31
0.0
0
LINE
8
0
6
CONTINUOUS
10
-35.748350
20
161.618035
30
0.0
11
-36.886290
21
162.143255
31
0.0
0
LINE
8
0
6
CONTINUOUS
10
-20.214450
20
146.103585
30
0.0
11
-21.287070
21
145.500895
31
0.0
0
LINE
8
0
6
CONTINUOUS
10
-19.008170
20
145.681145
30
0.0
11
-20.214450
21
146.103585
31
0.0
0
LINE
8
0
6
CONTINUOUS
10
-18.874510
20
144.655925
30
0.0
11
-19.008170
21
145.681145
31
0.0
0
LINE
8
0
6
CONTINUOUS
10
-19.947120
20
144.053275
30
0.0
11
-18.874510
21
144.655925
31
0.0
0
LINE
8
0
6
CONTINUOUS
10
-21.153400
20
144.475715
30
0.0
11
-19.947120
21
144.053275
31
0.0
0
LINE
8
0
6
CONTINUOUS
10
-21.287070
20
145.500895
30
0.0
11
-21.153400
21
144.475715
31
0.0
0
LINE
8
0
6
CONTINUOUS
10
5.315520
20
143.733345
30
0.0
11
5.491680
21
144.926555
31
0.0
0
LINE
8
0
6
CONTINUOUS
10
3.901140
20
143.255725
30
0.0
11
5.315520
21
143.733345
31
0.0
0
LINE
8
0
6
CONTINUOUS
10
2.662890
20
143.971395
30
0.0
11
3.901140
21
143.255725
31
0.0
0
LINE
8
0
6
CONTINUOUS
10
2.839060
20
145.164635
30
0.0
11
2.662890
21
143.971395
31
0.0
0
LINE
8
0
6
CONTINUOUS
10
4.253430
20
145.642215
30
0.0
11
2.839060
21
145.164635
31
0.0
0
LINE
8
0
6
CONTINUOUS
10
5.491680
20
144.926555
30
0.0
11
4.253430
21
145.642215
31
0.0
0
LINE
8
0
6
CONTINUOUS
10
30.050140
20
160.823185
30
0.0
11
31.196900
21
161.336335
31
0.0
0
LINE
8
0
6
CONTINUOUS
10
28.906230
20
161.340455
30
0.0
11
30.050140
21
160.823185
31
0.0
0
LINE
8
0
6
CONTINUOUS
10
28.909120
20
162.370825
30
0.0
11
28.906230
21
161.340455
31
0.0
0
LINE
8
0
6
CONTINUOUS
10
30.055900
20
162.883995
30
0.0
11
28.909120
21
162.370825
31
0.0
0
LINE
8
0
6
CONTINUOUS
10
31.199780
20
162.366745
30
0.0
11
30.055900
21
162.883995
31
0.0
0
LINE
8
0
6
CONTINUOUS
10
31.196900
20
161.336335
30
0.0
11
31.199780
21
162.366745
31
0.0
0
LINE
8
0
6
CONTINUOUS
10
20.060430
20
178.690435
30
0.0
11
21.207220
21
179.203605
31
0.0
0
LINE
8
0
6
CONTINUOUS
10
18.916540
20
179.207725
30
0.0
11
20.060430
21
178.690435
31
0.0
0
LINE
8
0
6
CONTINUOUS
10
18.919440
20
180.238135
30
0.0
11
18.916540
21
179.207725
31
0.0
0
LINE
8
0
6
CONTINUOUS
10
20.066200
20
180.751265
30
0.0
11
18.919440
21
180.238135
31
0.0
0
LINE
8
0
6
CONTINUOUS
10
21.210090
20
180.234015
30
0.0
11
20.066200
21
180.751265
31
0.0
0
LINE
8
0
6
CONTINUOUS
10
21.207220
20
179.203605
30
0.0
11
21.210090
21
180.234015
31
0.0
0
LINE
8
0
6
CONTINUOUS
10
-31.010500
20
147.766885
30
0.0
11
-30.922740
21
148.795045
31
0.0
0
LINE
8
0
6
CONTINUOUS
10
-32.197180
20
147.312115
30
0.0
11
-31.010500
21
147.766885
31
0.0
0
LINE
8
0
6
CONTINUOUS
10
-33.296080
20
147.885525
30
0.0
11
-32.197180
21
147.312115
31
0.0
0
LINE
8
0
6
CONTINUOUS
10
-33.208330
20
148.913665
30
0.0
11
-33.296080
21
147.885525
31
0.0
0
LINE
8
0
6
CONTINUOUS
10
-32.021630
20
149.368415
30
0.0
11
-33.208330
21
148.913665
31
0.0
0
LINE
8
0
6
CONTINUOUS
10
-30.922740
20
148.795045
30
0.0
11
-32.021630
21
149.368415
31
0.0
0
LINE
8
0
6
CONTINUOUS
10
-10.313220
20
172.929415
30
0.0
11
-11.336210
21
171.979515
31
0.0
0
LINE
8
0
6
CONTINUOUS
10
-8.745810
20
172.713955
30
0.0
11
-10.313220
21
172.929415
31
0.0
0
LINE
8
0
6
CONTINUOUS
10
-8.201400
20
171.548585
30
0.0
11
-8.745810
21
172.713955
31
0.0
0
LINE
8
0
6
CONTINUOUS
10
-9.224390
20
170.598665
30
0.0
11
-8.201400
21
171.548585
31
0.0
0
LINE
8
0
6
CONTINUOUS
10
-10.791780
20
170.814125
30
0.0
11
-9.224390
21
170.598665
31
0.0
0
LINE
8
0
6
CONTINUOUS
10
-11.336210
20
171.979515
30
0.0
11
-10.791780
21
170.814125
31
0.0
0
LINE
8
0
6
CONTINUOUS
10
11.842120
20
145.589325
30
0.0
11
13.256500
21
146.066905
31
0.0
0
LINE
8
0
6
CONTINUOUS
10
10.603870
20
146.304965
30
0.0
11
11.842120
21
145.589325
31
0.0
0
LINE
8
0
6
CONTINUOUS
10
10.780020
20
147.498235
30
0.0
11
10.603870
21
146.304965
31
0.0
0
LINE
8
0
6
CONTINUOUS
10
12.194400
20
147.975815
30
0.0
11
10.780020
21
147.498235
31
0.0
0
LINE
8
0
6
CONTINUOUS
10
13.432650
20
147.260185
30
0.0
11
12.194400
21
147.975815
31
0.0
0
LINE
8
0
6
CONTINUOUS
10
13.256500
20
146.066905
30
0.0
11
13.432650
21
147.260185
31
0.0
0
LINE
8
0
6
CONTINUOUS
10
3.119890
20
148.658765
30
0.0
11
3.301750
21
149.890705
31
0.0
0
LINE
8
0
6
CONTINUOUS
10
1.659630
20
148.165695
30
0.0
11
3.119890
21
148.658765
31
0.0
0
LINE
8
0
6
CONTINUOUS
10
0.381230
20
148.904525
30
0.0
11
1.659630
21
148.165695
31
0.0
0
LINE
8
0
6
CONTINUOUS
10
0.563090
20
150.136505
30
0.0
11
0.381230
21
148.904525
31
0.0
0
LINE
8
0
6
CONTINUOUS
10
2.023350
20
150.629565
30
0.0
11
0.563090
21
150.136505
31
0.0
0
LINE
8
0
6
CONTINUOUS
10
3.301750
20
149.890705
30
0.0
11
2.023350
21
150.629565
31
0.0
0
LINE
8
0
6
CONTINUOUS
10
-0.613920
20
167.519315
30
0.0
11
0.969510
21
167.644495
31
0.0
0
LINE
8
0
6
CONTINUOUS
10
-1.544950
20
168.525175
30
0.0
11
-0.613920
21
167.519315
31
0.0
0
LINE
8
0
6
CONTINUOUS
10
-0.892500
20
169.656225
30
0.0
11
-1.544950
21
168.525175
31
0.0
0
LINE
8
0
6
CONTINUOUS
10
0.690960
20
169.781425
30
0.0
11
-0.892500
21
169.656225
31
0.0
0
LINE
8
0
6
CONTINUOUS
10
1.621960
20
168.775545
30
0.0
11
0.690960
21
169.781425
31
0.0
0
LINE
8
0
6
CONTINUOUS
10
0.969510
20
167.644495
30
0.0
11
1.621960
21
168.775545
31
0.0
0
LINE
8
0
6
CONTINUOUS
10
-4.344510
20
132.911325
30
0.0
11
-3.271900
21
133.514015
31
0.0
0
LINE
8
0
6
CONTINUOUS
10
-5.550790
20
133.333805
30
0.0
11
-4.344510
21
132.911325
31
0.0
0
LINE
8
0
6
CONTINUOUS
10
-5.684460
20
134.358965
30
0.0
11
-5.550790
21
133.333805
31
0.0
0
LINE
8
0
6
CONTINUOUS
10
-4.611840
20
134.961645
30
0.0
11
-5.684460
21
134.358965
31
0.0
0
LINE
8
0
6
CONTINUOUS
10
-3.405570
20
134.539175
30
0.0
11
-4.611840
21
134.961645
31
0.0
0
LINE
8
0
6
CONTINUOUS
10
-3.271900
20
133.514015
30
0.0
11
-3.405570
21
134.539175
31
0.0
0
LINE
8
0
6
CONTINUOUS
10
-6.445210
20
151.524915
30
0.0
11
-7.736090
21
150.799605
31
0.0
0
LINE
8
0
6
CONTINUOUS
10
-4.993490
20
151.016515
30
0.0
11
-6.445210
21
151.524915
31
0.0
0
LINE
8
0
6
CONTINUOUS
10
-4.832620
20
149.782725
30
0.0
11
-4.993490
21
151.016515
31
0.0
0
LINE
8
0
6
CONTINUOUS
10
-6.123480
20
149.057395
30
0.0
11
-4.832620
21
149.782725
31
0.0
0
LINE
8
0
6
CONTINUOUS
10
-7.575210
20
149.565855
30
0.0
11
-6.123480
21
149.057395
31
0.0
0
LINE
8
0
6
CONTINUOUS
10
-7.736090
20
150.799605
30
0.0
11
-7.575210
21
149.565855
31
0.0
0
LINE
8
0
6
CONTINUOUS
10
-32.941390
20
173.530495
30
0.0
11
-32.706270
21
174.544425
31
0.0
0
LINE
8
0
6
CONTINUOUS
10
-34.186050
20
173.182285
30
0.0
11
-32.941390
21
173.530495
31
0.0
0
LINE
8
0
6
CONTINUOUS
10
-35.195560
20
173.848065
30
0.0
11
-34.186050
21
173.182285
31
0.0
0
LINE
8
0
6
CONTINUOUS
10
-34.960430
20
174.862055
30
0.0
11
-35.195560
21
173.848065
31
0.0
0
LINE
8
0
6
CONTINUOUS
10
-33.715780
20
175.210215
30
0.0
11
-34.960430
21
174.862055
31
0.0
0
LINE
8
0
6
CONTINUOUS
10
-32.706270
20
174.544425
30
0.0
11
-33.715780
21
175.210215
31
0.0
0
LINE
8
0
6
CONTINUOUS
10
37.581550
20
168.254175
30
0.0
11
36.342950
21
168.615445
31
0.0
0
LINE
8
0
6
CONTINUOUS
10
37.799410
20
167.237845
30
0.0
11
37.581550
21
168.254175
31
0.0
0
LINE
8
0
6
CONTINUOUS
10
36.778640
20
166.582765
30
0.0
11
37.799410
21
167.237845
31
0.0
0
LINE
8
0
6
CONTINUOUS
10
35.540020
20
166.944055
30
0.0
11
36.778640
21
166.582765
31
0.0
0
LINE
8
0
6
CONTINUOUS
10
35.322190
20
167.960405
30
0.0
11
35.540020
21
166.944055
31
0.0
0
LINE
8
0
6
CONTINUOUS
10
36.342950
20
168.615445
30
0.0
11
35.322190
21
167.960405
31
0.0
0
LINE
8
0
6
CONTINUOUS
10
-28.623070
20
168.489085
30
0.0
11
-27.470470
21
168.994265
31
0.0
0
LINE
8
0
6
CONTINUOUS
10
-29.761000
20
169.014295
30
0.0
11
-28.623070
21
168.489085
31
0.0
0
LINE
8
0
6
CONTINUOUS
10
-29.746320
20
170.044625
30
0.0
11
-29.761000
21
169.014295
31
0.0
0
LINE
8
0
6
CONTINUOUS
10
-28.593740
20
170.549745
30
0.0
11
-29.746320
21
170.044625
31
0.0
0
LINE
8
0
6
CONTINUOUS
10
-27.455810
20
170.024555
30
0.0
11
-28.593740
21
170.549745
31
0.0
0
LINE
8
0
6
CONTINUOUS
10
-27.470470
20
168.994265
30
0.0
11
-27.455810
21
170.024555
31
0.0
0
LINE
8
0
6
CONTINUOUS
10
15.539150
20
176.560665
30
0.0
11
14.202390
21
175.962505
31
0.0
0
LINE
8
0
6
CONTINUOUS
10
16.872540
20
175.957735
30
0.0
11
15.539150
21
176.560665
31
0.0
0
LINE
8
0
6
CONTINUOUS
10
16.869190
20
174.756635
30
0.0
11
16.872540
21
175.957735
31
0.0
0
LINE
8
0
6
CONTINUOUS
10
15.532430
20
174.158455
30
0.0
11
16.869190
21
174.756635
31
0.0
0
LINE
8
0
6
CONTINUOUS
10
14.199020
20
174.761425
30
0.0
11
15.532430
21
174.158455
31
0.0
0
LINE
8
0
6
CONTINUOUS
10
14.202390
20
175.962505
30
0.0
11
14.199020
21
174.761425
31
0.0
0
LINE
8
0
6
CONTINUOUS
10
-29.858590
20
178.935525
30
0.0
11
-28.613940
21
179.283695
31
0.0
0
LINE
8
0
6
CONTINUOUS
10
-30.868110
20
179.601265
30
0.0
11
-29.858590
21
178.935525
31
0.0
0
LINE
8
0
6
CONTINUOUS
10
-30.632970
20
180.615255
30
0.0
11
-30.868110
21
179.601265
31
0.0
0
LINE
8
0
6
CONTINUOUS
10
-29.388340
20
180.963455
30
0.0
11
-30.632970
21
180.615255
31
0.0
0
LINE
8
0
6
CONTINUOUS
10
-28.378830
20
180.297685
30
0.0
11
-29.388340
21
180.963455
31
0.0
0
LINE
8
0
6
CONTINUOUS
10
-28.613940
20
179.283695
30
0.0
11
-28.378830
21
180.297685
31
0.0
0
LINE
8
0
6
CONTINUOUS
10
9.321170
20
179.713305
30
0.0
11
7.802990
21
179.922005
31
0.0
0
LINE
8
0
6
CONTINUOUS
10
9.848480
20
178.584555
30
0.0
11
9.321170
21
179.713305
31
0.0
0
LINE
8
0
6
CONTINUOUS
10
8.857610
20
177.664495
30
0.0
11
9.848480
21
178.584555
31
0.0
0
LINE
8
0
6
CONTINUOUS
10
7.339470
20
177.873215
30
0.0
11
8.857610
21
177.664495
31
0.0
0
LINE
8
0
6
CONTINUOUS
10
6.812150
20
179.001945
30
0.0
11
7.339470
21
177.873215
31
0.0
0
LINE
8
0
6
CONTINUOUS
10
7.802990
20
179.922005
30
0.0
11
6.812150
21
179.001945
31
0.0
0
LINE
8
0
6
CONTINUOUS
10
26.810030
20
143.912825
30
0.0
11
25.701470
21
143.351065
31
0.0
0
LINE
8
0
6
CONTINUOUS
10
27.988870
20
143.445575
30
0.0
11
26.810030
21
143.912825
31
0.0
0
LINE
8
0
6
CONTINUOUS
10
28.059110
20
142.416635
30
0.0
11
27.988870
21
143.445575
31
0.0
0
LINE
8
0
6
CONTINUOUS
10
26.950550
20
141.854875
30
0.0
11
28.059110
21
142.416635
31
0.0
0
LINE
8
0
6
CONTINUOUS
10
25.771720
20
142.322115
30
0.0
11
26.950550
21
141.854875
31
0.0
0
LINE
8
0
6
CONTINUOUS
10
25.701470
20
143.351065
30
0.0
11
25.771720
21
142.322115
31
0.0
0
LINE
8
0
6
CONTINUOUS
10
-20.651450
20
137.710795
30
0.0
11
-19.464780
21
138.165555
31
0.0
0
LINE
8
0
6
CONTINUOUS
10
-21.750350
20
138.284195
30
0.0
11
-20.651450
21
137.710795
31
0.0
0
LINE
8
0
6
CONTINUOUS
10
-21.662590
20
139.312315
30
0.0
11
-21.750350
21
138.284195
31
0.0
0
LINE
8
0
6
CONTINUOUS
10
-20.475920
20
139.767075
30
0.0
11
-21.662590
21
139.312315
31
0.0
0
LINE
8
0
6
CONTINUOUS
10
-19.377010
20
139.193705
30
0.0
11
-20.475920
21
139.767075
31
0.0
0
LINE
8
0
6
CONTINUOUS
10
-19.464780
20
138.165555
30
0.0
11
-19.377010
21
139.193705
31
0.0
0
LINE
8
0
6
CONTINUOUS
10
7.470950
20
164.799665
30
0.0
11
8.662130
21
165.622035
31
0.0
0
LINE
8
0
6
CONTINUOUS
10
5.961240
20
165.192385
30
0.0
11
7.470950
21
164.799665
31
0.0
0
LINE
8
0
6
CONTINUOUS
10
5.642650
20
166.407405
30
0.0
11
5.961240
21
165.192385
31
0.0
0
LINE
8
0
6
CONTINUOUS
10
6.833810
20
167.229755
30
0.0
11
5.642650
21
166.407405
31
0.0
0
LINE
8
0
6
CONTINUOUS
10
8.343550
20
166.837075
30
0.0
11
6.833810
21
167.229755
31
0.0
0
LINE
8
0
6
CONTINUOUS
10
8.662130
20
165.622035
30
0.0
11
8.343550
21
166.837075
31
0.0
0
LINE
8
0
6
CONTINUOUS
10
32.117410
20
147.283255
30
0.0
11
33.225990
21
147.844995
31
0.0
0
LINE
8
0
6
CONTINUOUS
10
30.938580
20
147.750505
30
0.0
11
32.117410
21
147.283255
31
0.0
0
LINE
8
0
6
CONTINUOUS
10
30.868330
20
148.779455
30
0.0
11
30.938580
21
147.750505
31
0.0
0
LINE
8
0
6
CONTINUOUS
10
31.976900
20
149.341195
30
0.0
11
30.868330
21
148.779455
31
0.0
0
LINE
8
0
6
CONTINUOUS
10
33.155730
20
148.873965
30
0.0
11
31.976900
21
149.341195
31
0.0
0
LINE
8
0
6
CONTINUOUS
10
33.225990
20
147.844995
30
0.0
11
33.155730
21
148.873965
31
0.0
0
LINE
8
0
6
CONTINUOUS
10
-2.500780
20
175.219835
30
0.0
11
-3.523750
21
174.269935
31
0.0
0
LINE
8
0
6
CONTINUOUS
10
-0.933350
20
175.004375
30
0.0
11
-2.500780
21
175.219835
31
0.0
0
LINE
8
0
6
CONTINUOUS
10
-0.388940
20
173.839025
30
0.0
11
-0.933350
21
175.004375
31
0.0
0
LINE
8
0
6
CONTINUOUS
10
-1.411950
20
172.889105
30
0.0
11
-0.388940
21
173.839025
31
0.0
0
LINE
8
0
6
CONTINUOUS
10
-2.979330
20
173.104585
30
0.0
11
-1.411950
21
172.889105
31
0.0
0
LINE
8
0
6
CONTINUOUS
10
-3.523750
20
174.269935
30
0.0
11
-2.979330
21
173.104585
31
0.0
0
LINE
8
0
6
CONTINUOUS
10
-28.860330
20
162.427685
30
0.0
11
-28.845690
21
163.458015
31
0.0
0
LINE
8
0
6
CONTINUOUS
10
-30.012930
20
161.922545
30
0.0
11
-28.860330
21
162.427685
31
0.0
0
LINE
8
0
6
CONTINUOUS
10
-31.150860
20
162.447715
30
0.0
11
-30.012930
21
161.922545
31
0.0
0
LINE
8
0
6
CONTINUOUS
10
-31.136190
20
163.478045
30
0.0
11
-31.150860
21
162.447715
31
0.0
0
LINE
8
0
6
CONTINUOUS
10
-29.983610
20
163.983185
30
0.0
11
-31.136190
21
163.478045
31
0.0
0
LINE
8
0
6
CONTINUOUS
10
-28.845690
20
163.458015
30
0.0
11
-29.983610
21
163.983185
31
0.0
0
LINE
8
0
6
CONTINUOUS
10
-35.638140
20
153.446495
30
0.0
11
-34.451450
21
153.901245
31
0.0
0
LINE
8
0
6
CONTINUOUS
10
-36.737040
20
154.019885
30
0.0
11
-35.638140
21
153.446495
31
0.0
0
LINE
8
0
6
CONTINUOUS
10
-36.649280
20
155.048035
30
0.0
11
-36.737040
21
154.019885
31
0.0
0
LINE
8
0
6
CONTINUOUS
10
-35.462590
20
155.502765
30
0.0
11
-36.649280
21
155.048035
31
0.0
0
LINE
8
0
6
CONTINUOUS
10
-34.363690
20
154.929405
30
0.0
11
-35.462590
21
155.502765
31
0.0
0
LINE
8
0
6
CONTINUOUS
10
-34.451450
20
153.901245
30
0.0
11
-34.363690
21
154.929405
31
0.0
0
LINE
8
0
6
CONTINUOUS
10
35.542550
20
153.441975
30
0.0
11
36.651110
21
154.003725
31
0.0
0
LINE
8
0
6
CONTINUOUS
10
34.363730
20
153.909235
30
0.0
11
35.542550
21
153.441975
31
0.0
0
LINE
8
0
6
CONTINUOUS
10
34.293470
20
154.938235
30
0.0
11
34.363730
21
153.909235
31
0.0
0
LINE
8
0
6
CONTINUOUS
10
35.402020
20
155.499965
30
0.0
11
34.293470
21
154.938235
31
0.0
0
LINE
8
0
6
CONTINUOUS
10
36.580860
20
155.032725
30
0.0
11
35.402020
21
155.499965
31
0.0
0
LINE
8
0
6
CONTINUOUS
10
36.651110
20
154.003725
30
0.0
11
36.580860
21
155.032725
31
0.0
0
LINE
8
0
6
CONTINUOUS
10
-8.129170
20
161.132445
30
0.0
11
-9.712630
21
161.007265
31
0.0
0
LINE
8
0
6
CONTINUOUS
10
-7.198170
20
160.126605
30
0.0
11
-8.129170
21
161.132445
31
0.0
0
LINE
8
0
6
CONTINUOUS
10
-7.850610
20
158.995545
30
0.0
11
-7.198170
21
160.126605
31
0.0
0
LINE
8
0
6
CONTINUOUS
10
-9.434050
20
158.870345
30
0.0
11
-7.850610
21
158.995545
31
0.0
0
LINE
8
0
6
CONTINUOUS
10
-10.365060
20
159.876225
30
0.0
11
-9.434050
21
158.870345
31
0.0
0
LINE
8
0
6
CONTINUOUS
10
-9.712630
20
161.007265
30
0.0
11
-10.365060
21
159.876225
31
0.0
0
LINE
8
0
6
CONTINUOUS
10
-6.290090
20
164.821715
30
0.0
11
-5.346510
21
165.820245
31
0.0
0
LINE
8
0
6
CONTINUOUS
10
-7.871920
20
164.959255
30
0.0
11
-6.290090
21
164.821715
31
0.0
0
LINE
8
0
6
CONTINUOUS
10
-8.510160
20
166.095345
30
0.0
11
-7.871920
21
164.959255
31
0.0
0
LINE
8
0
6
CONTINUOUS
10
-7.566600
20
167.093855
30
0.0
11
-8.510160
21
166.095345
31
0.0
0
LINE
8
0
6
CONTINUOUS
10
-5.984760
20
166.956335
30
0.0
11
-7.566600
21
167.093855
31
0.0
0
LINE
8
0
6
CONTINUOUS
10
-5.346510
20
165.820245
30
0.0
11
-5.984760
21
166.956335
31
0.0
0
LINE
8
0
6
CONTINUOUS
10
-23.018230
20
162.751835
30
0.0
11
-21.674680
21
163.340695
31
0.0
0
LINE
8
0
6
CONTINUOUS
10
-24.344690
20
163.364055
30
0.0
11
-23.018230
21
162.751835
31
0.0
0
LINE
8
0
6
CONTINUOUS
10
-24.327590
20
164.565075
30
0.0
11
-24.344690
21
163.364055
31
0.0
0
LINE
8
0
6
CONTINUOUS
10
-22.984050
20
165.153935
30
0.0
11
-24.327590
21
164.565075
31
0.0
0
LINE
8
0
6
CONTINUOUS
10
-21.657590
20
164.541735
30
0.0
11
-22.984050
21
165.153935
31
0.0
0
LINE
8
0
6
CONTINUOUS
10
-21.674680
20
163.340695
30
0.0
11
-21.657590
21
164.541735
31
0.0
0
LINE
8
0
6
CONTINUOUS
10
30.711080
20
180.465375
30
0.0
11
29.472480
21
180.826625
31
0.0
0
LINE
8
0
6
CONTINUOUS
10
30.928940
20
179.449005
30
0.0
11
30.711080
21
180.465375
31
0.0
0
LINE
8
0
6
CONTINUOUS
10
29.908170
20
178.793945
30
0.0
11
30.928940
21
179.449005
31
0.0
0
LINE
8
0
6
CONTINUOUS
10
28.669560
20
179.155235
30
0.0
11
29.908170
21
178.793945
31
0.0
0
LINE
8
0
6
CONTINUOUS
10
28.451720
20
180.171545
30
0.0
11
28.669560
21
179.155235
31
0.0
0
LINE
8
0
6
CONTINUOUS
10
29.472480
20
180.826625
30
0.0
11
28.451720
21
180.171545
31
0.0
0
LINE
8
0
6
CONTINUOUS
10
16.026560
20
164.442115
30
0.0
11
14.646450
21
163.824545
31
0.0
0
LINE
8
0
6
CONTINUOUS
10
17.403190
20
163.819605
30
0.0
11
16.026560
21
164.442115
31
0.0
0
LINE
8
0
6
CONTINUOUS
10
17.399730
20
162.579525
30
0.0
11
17.403190
21
163.819605
31
0.0
0
LINE
8
0
6
CONTINUOUS
10
16.019610
20
161.961965
30
0.0
11
17.399730
21
162.579525
31
0.0
0
LINE
8
0
6
CONTINUOUS
10
14.642960
20
162.584485
30
0.0
11
16.019610
21
161.961965
31
0.0
0
LINE
8
0
6
CONTINUOUS
10
14.646450
20
163.824545
30
0.0
11
14.642960
21
162.584485
31
0.0
0
LINE
8
0
6
CONTINUOUS
10
-13.432490
20
166.093585
30
0.0
11
-13.414850
21
167.333535
31
0.0
0
LINE
8
0
6
CONTINUOUS
10
-14.819620
20
165.485675
30
0.0
11
-13.432490
21
166.093585
31
0.0
0
LINE
8
0
6
CONTINUOUS
10
-16.189100
20
166.117695
30
0.0
11
-14.819620
21
165.485675
31
0.0
0
LINE
8
0
6
CONTINUOUS
10
-16.171440
20
167.357745
30
0.0
11
-16.189100
21
166.117695
31
0.0
0
LINE
8
0
6
CONTINUOUS
10
-14.784330
20
167.965655
30
0.0
11
-16.171440
21
167.357745
31
0.0
0
LINE
8
0
6
CONTINUOUS
10
-13.414850
20
167.333535
30
0.0
11
-14.784330
21
167.965655
31
0.0
0
LINE
8
0
6
CONTINUOUS
10
38.210580
20
160.315125
30
0.0
11
38.213460
21
161.345515
31
0.0
0
LINE
8
0
6
CONTINUOUS
10
37.063800
20
159.801985
30
0.0
11
38.210580
21
160.315125
31
0.0
0
LINE
8
0
6
CONTINUOUS
10
38.213460
20
161.345515
30
0.0
11
38.039653
21
161.424109
31
0.0
0
LINE
8
0
6
CONTINUOUS
10
6.870640
20
172.217095
30
0.0
11
7.893640
21
173.166995
31
0.0
0
LINE
8
0
6
CONTINUOUS
10
5.303260
20
172.432545
30
0.0
11
6.870640
21
172.217095
31
0.0
0
LINE
8
0
6
CONTINUOUS
10
4.758840
20
173.597915
30
0.0
11
5.303260
21
172.432545
31
0.0
0
LINE
8
0
6
CONTINUOUS
10
5.781820
20
174.547855
30
0.0
11
4.758840
21
173.597915
31
0.0
0
LINE
8
0
6
CONTINUOUS
10
7.349220
20
174.332385
30
0.0
11
5.781820
21
174.547855
31
0.0
0
LINE
8
0
6
CONTINUOUS
10
7.893640
20
173.166995
30
0.0
11
7.349220
21
174.332385
31
0.0
0
LINE
8
0
6
CONTINUOUS
10
-20.832280
20
157.804555
30
0.0
11
-22.238400
21
158.296975
31
0.0
0
LINE
8
0
6
CONTINUOUS
10
-20.676460
20
156.609525
30
0.0
11
-20.832280
21
157.804555
31
0.0
0
LINE
8
0
6
CONTINUOUS
10
-21.926780
20
155.906995
30
0.0
11
-20.676460
21
156.609525
31
0.0
0
LINE
8
0
6
CONTINUOUS
10
-23.332900
20
156.399475
30
0.0
11
-21.926780
21
155.906995
31
0.0
0
LINE
8
0
6
CONTINUOUS
10
-23.488720
20
157.594445
30
0.0
11
-23.332900
21
156.399475
31
0.0
0
LINE
8
0
6
CONTINUOUS
10
-22.238400
20
158.296975
30
0.0
11
-23.488720
21
157.594445
31
0.0
0
LINE
8
0
6
CONTINUOUS
10
3.604810
20
140.184685
30
0.0
11
2.391460
21
139.774995
31
0.0
0
LINE
8
0
6
CONTINUOUS
10
4.667070
20
139.570745
30
0.0
11
3.604810
21
140.184685
31
0.0
0
LINE
8
0
6
CONTINUOUS
10
4.515950
20
138.547105
30
0.0
11
4.667070
21
139.570745
31
0.0
0
LINE
8
0
6
CONTINUOUS
10
3.302600
20
138.137375
30
0.0
11
4.515950
21
138.547105
31
0.0
0
LINE
8
0
6
CONTINUOUS
10
2.240340
20
138.751315
30
0.0
11
3.302600
21
138.137375
31
0.0
0
LINE
8
0
6
CONTINUOUS
10
2.391460
20
139.774995
30
0.0
11
2.240340
21
138.751315
31
0.0
0
LINE
8
0
6
CONTINUOUS
10
20.344760
20
139.564545
30
0.0
11
19.236180
21
139.002815
31
0.0
0
LINE
8
0
6
CONTINUOUS
10
21.523580
20
139.097325
30
0.0
11
20.344760
21
139.564545
31
0.0
0
LINE
8
0
6
CONTINUOUS
10
21.593830
20
138.068355
30
0.0
11
21.523580
21
139.097325
31
0.0
0
LINE
8
0
6
CONTINUOUS
10
20.485260
20
137.506605
30
0.0
11
21.593830
21
138.068355
31
0.0
0
LINE
8
0
6
CONTINUOUS
10
19.306440
20
137.973845
30
0.0
11
20.485260
21
137.506605
31
0.0
0
LINE
8
0
6
CONTINUOUS
10
19.236180
20
139.002815
30
0.0
11
19.306440
21
137.973845
31
0.0
0
LINE
8
0
6
CONTINUOUS
10
-7.774730
20
191.600435
30
0.0
11
-9.097160
21
191.607625
31
0.0
0
LINE
8
0
6
CONTINUOUS
10
-7.121320
20
190.704495
30
0.0
11
-7.774730
21
191.600435
31
0.0
0
LINE
8
0
6
CONTINUOUS
10
-7.790360
20
189.815755
30
0.0
11
-7.121320
21
190.704495
31
0.0
0
LINE
8
0
6
CONTINUOUS
10
-9.112790
20
189.822905
30
0.0
11
-7.790360
21
189.815755
31
0.0
0
LINE
8
0
6
CONTINUOUS
10
-9.766200
20
190.718885
30
0.0
11
-9.112790
21
189.822905
31
0.0
0
LINE
8
0
6
CONTINUOUS
10
-9.097160
20
191.607625
30
0.0
11
-9.766200
21
190.718885
31
0.0
0
LINE
8
0
6
CONTINUOUS
10
20.565610
20
168.901265
30
0.0
11
21.902360
21
169.499385
31
0.0
0
LINE
8
0
6
CONTINUOUS
10
19.232190
20
169.504215
30
0.0
11
20.565610
21
168.901265
31
0.0
0
LINE
8
0
6
CONTINUOUS
10
19.235570
20
170.705305
30
0.0
11
19.232190
21
169.504215
31
0.0
0
LINE
8
0
6
CONTINUOUS
10
20.572330
20
171.303475
30
0.0
11
19.235570
21
170.705305
31
0.0
0
LINE
8
0
6
CONTINUOUS
10
21.905720
20
170.700525
30
0.0
11
20.572330
21
171.303475
31
0.0
0
LINE
8
0
6
CONTINUOUS
10
21.902360
20
169.499385
30
0.0
11
21.905720
21
170.700525
31
0.0
0
LINE
8
0
6
CONTINUOUS
10
-15.047090
20
174.250285
30
0.0
11
-14.056230
21
175.170355
31
0.0
0
LINE
8
0
6
CONTINUOUS
10
-16.565240
20
174.458955
30
0.0
11
-15.047090
21
174.250285
31
0.0
0
LINE
8
0
6
CONTINUOUS
10
-17.092560
20
175.587745
30
0.0
11
-16.565240
21
174.458955
31
0.0
0
LINE
8
0
6
CONTINUOUS
10
-16.101710
20
176.507775
30
0.0
11
-17.092560
21
175.587745
31
0.0
0
LINE
8
0
6
CONTINUOUS
10
-14.583540
20
176.299095
30
0.0
11
-16.101710
21
176.507775
31
0.0
0
LINE
8
0
6
CONTINUOUS
10
-14.056230
20
175.170355
30
0.0
11
-14.583540
21
176.299095
31
0.0
0
LINE
8
0
6
CONTINUOUS
10
10.893810
20
150.989615
30
0.0
11
11.075670
21
152.221575
31
0.0
0
LINE
8
0
6
CONTINUOUS
10
9.433560
20
150.496535
30
0.0
11
10.893810
21
150.989615
31
0.0
0
LINE
8
0
6
CONTINUOUS
10
8.155150
20
151.235405
30
0.0
11
9.433560
21
150.496535
31
0.0
0
LINE
8
0
6
CONTINUOUS
10
8.337010
20
152.467335
30
0.0
11
8.155150
21
151.235405
31
0.0
0
LINE
8
0
6
CONTINUOUS
10
9.797260
20
152.960445
30
0.0
11
8.337010
21
152.467335
31
0.0
0
LINE
8
0
6
CONTINUOUS
10
11.075670
20
152.221575
30
0.0
11
9.797260
21
152.960445
31
0.0
0
LINE
8
0
6
CONTINUOUS
10
28.912510
20
169.481345
30
0.0
11
27.765740
21
168.968195
31
0.0
0
LINE
8
0
6
CONTINUOUS
10
30.056390
20
168.964115
30
0.0
11
28.912510
21
169.481345
31
0.0
0
LINE
8
0
6
CONTINUOUS
10
30.053510
20
167.933705
30
0.0
11
30.056390
21
168.964115
31
0.0
0
LINE
8
0
6
CONTINUOUS
10
28.906750
20
167.420535
30
0.0
11
30.053510
21
167.933705
31
0.0
0
LINE
8
0
6
CONTINUOUS
10
27.762840
20
167.937785
30
0.0
11
28.906750
21
167.420535
31
0.0
0
LINE
8
0
6
CONTINUOUS
10
27.765740
20
168.968195
30
0.0
11
27.762840
21
167.937785
31
0.0
0
LINE
8
0
6
CONTINUOUS
10
15.951230
20
156.202045
30
0.0
11
16.133090
21
157.433975
31
0.0
0
LINE
8
0
6
CONTINUOUS
10
14.490960
20
155.708935
30
0.0
11
15.951230
21
156.202045
31
0.0
0
LINE
8
0
6
CONTINUOUS
10
13.212560
20
156.447805
30
0.0
11
14.490960
21
155.708935
31
0.0
0
LINE
8
0
6
CONTINUOUS
10
13.394420
20
157.679775
30
0.0
11
13.212560
21
156.447805
31
0.0
0
LINE
8
0
6
CONTINUOUS
10
14.854680
20
158.172845
30
0.0
11
13.394420
21
157.679775
31
0.0
0
LINE
8
0
6
CONTINUOUS
10
16.133090
20
157.433975
30
0.0
11
14.854680
21
158.172845
31
0.0
0
LINE
8
0
6
CONTINUOUS
10
-4.515330
20
154.079525
30
0.0
11
-2.931890
21
154.204685
31
0.0
0
LINE
8
0
6
CONTINUOUS
10
-5.446340
20
155.085405
30
0.0
11
-4.515330
21
154.079525
31
0.0
0
LINE
8
0
6
CONTINUOUS
10
-4.793900
20
156.216425
30
0.0
11
-5.446340
21
155.085405
31
0.0
0
LINE
8
0
6
CONTINUOUS
10
-3.210440
20
156.341625
30
0.0
11
-4.793900
21
156.216425
31
0.0
0
LINE
8
0
6
CONTINUOUS
10
-2.279450
20
155.335785
30
0.0
11
-3.210440
21
156.341625
31
0.0
0
LINE
8
0
6
CONTINUOUS
10
-2.931890
20
154.204685
30
0.0
11
-2.279450
21
155.335785
31
0.0
0
LINE
8
0
6
CONTINUOUS
10
-11.571050
20
155.008405
30
0.0
11
-13.022770
21
155.516845
31
0.0
0
LINE
8
0
6
CONTINUOUS
10
-11.410180
20
153.774655
30
0.0
11
-11.571050
21
155.008405
31
0.0
0
LINE
8
0
6
CONTINUOUS
10
-12.701050
20
153.049305
30
0.0
11
-11.410180
21
153.774655
31
0.0
0
LINE
8
0
6
CONTINUOUS
10
-14.152780
20
153.557745
30
0.0
11
-12.701050
21
153.049305
31
0.0
0
LINE
8
0
6
CONTINUOUS
10
-14.313650
20
154.791495
30
0.0
11
-14.152780
21
153.557745
31
0.0
0
LINE
8
0
6
CONTINUOUS
10
-13.022770
20
155.516845
30
0.0
11
-14.313650
21
154.791495
31
0.0
0
LINE
8
0
6
CONTINUOUS
10
-13.022050
20
136.776595
30
0.0
11
-14.094680
21
136.173885
31
0.0
0
LINE
8
0
6
CONTINUOUS
10
-11.815790
20
136.354115
30
0.0
11
-13.022050
21
136.776595
31
0.0
0
LINE
8
0
6
CONTINUOUS
10
-11.682110
20
135.328965
30
0.0
11
-11.815790
21
136.354115
31
0.0
0
LINE
8
0
6
CONTINUOUS
10
-12.754730
20
134.726245
30
0.0
11
-11.682110
21
135.328965
31
0.0
0
LINE
8
0
6
CONTINUOUS
10
-13.961010
20
135.148755
30
0.0
11
-12.754730
21
134.726245
31
0.0
0
LINE
8
0
6
CONTINUOUS
10
-14.094680
20
136.173885
30
0.0
11
-13.961010
21
135.148755
31
0.0
0
LINE
8
0
6
CONTINUOUS
10
-2.822570
20
186.392385
30
0.0
11
-4.124980
21
186.571405
31
0.0
0
LINE
8
0
6
CONTINUOUS
10
-2.370210
20
185.424045
30
0.0
11
-2.822570
21
186.392385
31
0.0
0
LINE
8
0
6
CONTINUOUS
10
-3.220250
20
184.634725
30
0.0
11
-2.370210
21
185.424045
31
0.0
0
LINE
8
0
6
CONTINUOUS
10
-4.522630
20
184.813745
30
0.0
11
-3.220250
21
184.634725
31
0.0
0
LINE
8
0
6
CONTINUOUS
10
-4.975000
20
185.782075
30
0.0
11
-4.522630
21
184.813745
31
0.0
0
LINE
8
0
6
CONTINUOUS
10
-4.124980
20
186.571405
30
0.0
11
-4.975000
21
185.782075
31
0.0
0
LINE
8
0
6
CONTINUOUS
10
-28.879140
20
155.240945
30
0.0
11
-27.806530
21
155.843665
31
0.0
0
LINE
8
0
6
CONTINUOUS
10
-30.085410
20
155.663425
30
0.0
11
-28.879140
21
155.240945
31
0.0
0
LINE
8
0
6
CONTINUOUS
10
-30.219080
20
156.688585
30
0.0
11
-30.085410
21
155.663425
31
0.0
0
LINE
8
0
6
CONTINUOUS
10
-29.146460
20
157.291255
30
0.0
11
-30.219080
21
156.688585
31
0.0
0
LINE
8
0
6
CONTINUOUS
10
-27.940200
20
156.868815
30
0.0
11
-29.146460
21
157.291255
31
0.0
0
LINE
8
0
6
CONTINUOUS
10
-27.806530
20
155.843665
30
0.0
11
-27.940200
21
156.868815
31
0.0
0
LINE
8
0
6
CONTINUOUS
10
1.435910
20
159.977585
30
0.0
11
2.450230
21
161.736025
31
0.0
0
LINE
8
0
6
CONTINUOUS
10
-1.025820
20
159.782995
30
0.0
11
1.435910
21
159.977585
31
0.0
0
LINE
8
0
6
CONTINUOUS
10
-2.473240
20
161.346775
30
0.0
11
-1.025820
21
159.782995
31
0.0
0
LINE
8
0
6
CONTINUOUS
10
-1.458910
20
163.105215
30
0.0
11
-2.473240
21
161.346775
31
0.0
0
LINE
8
0
6
CONTINUOUS
10
1.002850
20
163.299795
30
0.0
11
-1.458910
21
163.105215
31
0.0
0
LINE
8
0
6
CONTINUOUS
10
2.450230
20
161.736025
30
0.0
11
1.002850
21
163.299795
31
0.0
0
LINE
8
0
6
CONTINUOUS
10
25.851910
20
148.616995
30
0.0
11
26.003020
21
149.640645
31
0.0
0
LINE
8
0
6
CONTINUOUS
10
24.638540
20
148.207295
30
0.0
11
25.851910
21
148.616995
31
0.0
0
LINE
8
0
6
CONTINUOUS
10
23.576290
20
148.821235
30
0.0
11
24.638540
21
148.207295
31
0.0
0
LINE
8
0
6
CONTINUOUS
10
23.727410
20
149.844885
30
0.0
11
23.576290
21
148.821235
31
0.0
0
LINE
8
0
6
CONTINUOUS
10
24.940760
20
150.254585
30
0.0
11
23.727410
21
149.844885
31
0.0
0
LINE
8
0
6
CONTINUOUS
10
26.003020
20
149.640645
30
0.0
11
24.940760
21
150.254585
31
0.0
0
LINE
8
0
6
CONTINUOUS
10
-35.472570
20
167.080755
30
0.0
11
-35.237460
21
168.094745
31
0.0
0
LINE
8
0
6
CONTINUOUS
10
-36.717240
20
166.732555
30
0.0
11
-35.472570
21
167.080755
31
0.0
0
LINE
8
0
6
CONTINUOUS
10
-37.726760
20
167.398325
30
0.0
11
-36.717240
21
166.732555
31
0.0
0
LINE
8
0
6
CONTINUOUS
10
-37.491610
20
168.412335
30
0.0
11
-37.726760
21
167.398325
31
0.0
0
LINE
8
0
6
CONTINUOUS
10
-36.246980
20
168.760485
30
0.0
11
-37.491610
21
168.412335
31
0.0
0
LINE
8
0
6
CONTINUOUS
10
-35.237460
20
168.094745
30
0.0
11
-36.246980
21
168.760485
31
0.0
0
LINE
8
0
6
CONTINUOUS
10
-23.442560
20
185.857585
30
0.0
11
-24.687200
21
185.509375
31
0.0
0
LINE
8
0
6
CONTINUOUS
10
-22.433040
20
185.191785
30
0.0
11
-23.442560
21
185.857585
31
0.0
0
LINE
8
0
6
CONTINUOUS
10
-22.668160
20
184.177855
30
0.0
11
-22.433040
21
185.191785
31
0.0
0
LINE
8
0
6
CONTINUOUS
10
-23.912810
20
183.829655
30
0.0
11
-22.668160
21
184.177855
31
0.0
0
LINE
8
0
6
CONTINUOUS
10
-24.922330
20
184.495435
30
0.0
11
-23.912810
21
183.829655
31
0.0
0
LINE
8
0
6
CONTINUOUS
10
-24.687200
20
185.509375
30
0.0
11
-24.922330
21
184.495435
31
0.0
0
LINE
8
0
6
CONTINUOUS
10
29.816490
20
154.700425
30
0.0
11
29.967610
21
155.724075
31
0.0
0
LINE
8
0
6
CONTINUOUS
10
28.603130
20
154.290685
30
0.0
11
29.816490
21
154.700425
31
0.0
0
LINE
8
0
6
CONTINUOUS
10
27.540880
20
154.904625
30
0.0
11
28.603130
21
154.290685
31
0.0
0
LINE
8
0
6
CONTINUOUS
10
27.691990
20
155.928295
30
0.0
11
27.540880
21
154.904625
31
0.0
0
LINE
8
0
6
CONTINUOUS
10
28.905350
20
156.338035
30
0.0
11
27.691990
21
155.928295
31
0.0
0
LINE
8
0
6
CONTINUOUS
10
29.967610
20
155.724075
30
0.0
11
28.905350
21
156.338035
31
0.0
0
LINE
8
0
6
CONTINUOUS
10
20.097280
20
143.737325
30
0.0
11
20.248390
21
144.760985
31
0.0
0
LINE
8
0
6
CONTINUOUS
10
18.883920
20
143.327585
30
0.0
11
20.097280
21
143.737325
31
0.0
0
LINE
8
0
6
CONTINUOUS
10
17.821660
20
143.941585
30
0.0
11
18.883920
21
143.327585
31
0.0
0
LINE
8
0
6
CONTINUOUS
10
17.972780
20
144.965225
30
0.0
11
17.821660
21
143.941585
31
0.0
0
LINE
8
0
6
CONTINUOUS
10
19.186140
20
145.374915
30
0.0
11
17.972780
21
144.965225
31
0.0
0
LINE
8
0
6
CONTINUOUS
10
20.248390
20
144.760985
30
0.0
11
19.186140
21
145.374915
31
0.0
0
LINE
8
0
6
CONTINUOUS
10
13.954610
20
184.379615
30
0.0
11
12.652210
21
184.558645
31
0.0
0
LINE
8
0
6
CONTINUOUS
10
14.406980
20
183.411295
30
0.0
11
13.954610
21
184.379615
31
0.0
0
LINE
8
0
6
CONTINUOUS
10
13.556940
20
182.621975
30
0.0
11
14.406980
21
183.411295
31
0.0
0
LINE
8
0
6
CONTINUOUS
10
12.254560
20
182.800995
30
0.0
11
13.556940
21
182.621975
31
0.0
0
LINE
8
0
6
CONTINUOUS
10
11.802200
20
183.769365
30
0.0
11
12.254560
21
182.800995
31
0.0
0
LINE
8
0
6
CONTINUOUS
10
12.652210
20
184.558645
30
0.0
11
11.802200
21
183.769365
31
0.0
0
LINE
8
0
6
CONTINUOUS
10
-18.425690
20
181.208405
30
0.0
11
-19.728090
21
181.387385
31
0.0
0
LINE
8
0
6
CONTINUOUS
10
-17.973320
20
180.240045
30
0.0
11
-18.425690
21
181.208405
31
0.0
0
LINE
8
0
6
CONTINUOUS
10
-18.823360
20
179.450745
30
0.0
11
-17.973320
21
180.240045
31
0.0
0
LINE
8
0
6
CONTINUOUS
10
-20.125740
20
179.629785
30
0.0
11
-18.823360
21
179.450745
31
0.0
0
LINE
8
0
6
CONTINUOUS
10
-20.578110
20
180.598105
30
0.0
11
-20.125740
21
179.629785
31
0.0
0
LINE
8
0
6
CONTINUOUS
10
-19.728090
20
181.387385
30
0.0
11
-20.578110
21
180.598105
31
0.0
0
LINE
8
0
6
CONTINUOUS
10
-14.684620
20
160.997055
30
0.0
11
-16.136340
21
161.505485
31
0.0
0
LINE
8
0
6
CONTINUOUS
10
-14.523740
20
159.763285
30
0.0
11
-14.684620
21
160.997055
31
0.0
0
LINE
8
0
6
CONTINUOUS
10
-15.814610
20
159.037945
30
0.0
11
-14.523740
21
159.763285
31
0.0
0
LINE
8
0
6
CONTINUOUS
10
-17.266340
20
159.546405
30
0.0
11
-15.814610
21
159.037945
31
0.0
0
LINE
8
0
6
CONTINUOUS
10
-17.427220
20
160.780155
30
0.0
11
-17.266340
21
159.546405
31
0.0
0
LINE
8
0
6
CONTINUOUS
10
-16.136340
20
161.505485
30
0.0
11
-17.427220
21
160.780155
31
0.0
0
LINE
8
0
6
CONTINUOUS
10
-0.620860
20
192.473055
30
0.0
11
-1.289900
21
191.584265
31
0.0
0
LINE
8
0
6
CONTINUOUS
10
0.701580
20
192.465845
30
0.0
11
-0.620860
21
192.473055
31
0.0
0
LINE
8
0
6
CONTINUOUS
10
1.354980
20
191.569905
30
0.0
11
0.701580
21
192.465845
31
0.0
0
LINE
8
0
6
CONTINUOUS
10
0.685940
20
190.681095
30
0.0
11
1.354980
21
191.569905
31
0.0
0
LINE
8
0
6
CONTINUOUS
10
-0.636490
20
190.688325
30
0.0
11
0.685940
21
190.681095
31
0.0
0
LINE
8
0
6
CONTINUOUS
10
-1.289900
20
191.584265
30
0.0
11
-0.636490
21
190.688325
31
0.0
0
LINE
8
0
6
CONTINUOUS
10
4.250700
20
156.533275
30
0.0
11
2.735150
21
156.154775
31
0.0
0
LINE
8
0
6
CONTINUOUS
10
5.429400
20
155.699815
30
0.0
11
4.250700
21
156.533275
31
0.0
0
LINE
8
0
6
CONTINUOUS
10
5.092540
20
154.487845
30
0.0
11
5.429400
21
155.699815
31
0.0
0
LINE
8
0
6
CONTINUOUS
10
3.576970
20
154.109355
30
0.0
11
5.092540
21
154.487845
31
0.0
0
LINE
8
0
6
CONTINUOUS
10
2.398280
20
154.942805
30
0.0
11
3.576970
21
154.109355
31
0.0
0
LINE
8
0
6
CONTINUOUS
10
2.735150
20
156.154775
30
0.0
11
2.398280
21
154.942805
31
0.0
0
LINE
8
0
6
CONTINUOUS
10
18.169580
20
150.170735
30
0.0
11
19.583980
21
150.648335
31
0.0
0
LINE
8
0
6
CONTINUOUS
10
16.931340
20
150.886395
30
0.0
11
18.169580
21
150.170735
31
0.0
0
LINE
8
0
6
CONTINUOUS
10
17.107500
20
152.079635
30
0.0
11
16.931340
21
150.886395
31
0.0
0
LINE
8
0
6
CONTINUOUS
10
18.521870
20
152.557235
30
0.0
11
17.107500
21
152.079635
31
0.0
0
LINE
8
0
6
CONTINUOUS
10
19.760120
20
151.841595
30
0.0
11
18.521870
21
152.557235
31
0.0
0
LINE
8
0
6
CONTINUOUS
10
19.583980
20
150.648335
30
0.0
11
19.760120
21
151.841595
31
0.0
0
LINE
8
0
6
CONTINUOUS
10
8.987880
20
189.711055
30
0.0
11
9.837920
21
190.500395
31
0.0
0
LINE
8
0
6
CONTINUOUS
10
7.685500
20
189.890095
30
0.0
11
8.987880
21
189.711055
31
0.0
0
LINE
8
0
6
CONTINUOUS
10
7.233130
20
190.858425
30
0.0
11
7.685500
21
189.890095
31
0.0
0
LINE
8
0
6
CONTINUOUS
10
8.083150
20
191.647755
30
0.0
11
7.233130
21
190.858425
31
0.0
0
LINE
8
0
6
CONTINUOUS
10
9.385540
20
191.468715
30
0.0
11
8.083150
21
191.647755
31
0.0
0
LINE
8
0
6
CONTINUOUS
10
9.837920
20
190.500395
30
0.0
11
9.385540
21
191.468715
31
0.0
0
LINE
8
0
6
CONTINUOUS
10
8.827870
20
158.766145
30
0.0
11
10.207990
21
159.383685
31
0.0
0
LINE
8
0
6
CONTINUOUS
10
7.451210
20
159.388645
30
0.0
11
8.827870
21
158.766145
31
0.0
0
LINE
8
0
6
CONTINUOUS
10
7.454700
20
160.628695
30
0.0
11
7.451210
21
159.388645
31
0.0
0
LINE
8
0
6
CONTINUOUS
10
8.834820
20
161.246275
30
0.0
11
7.454700
21
160.628695
31
0.0
0
LINE
8
0
6
CONTINUOUS
10
10.211450
20
160.623785
30
0.0
11
8.834820
21
161.246275
31
0.0
0
LINE
8
0
6
CONTINUOUS
10
10.207990
20
159.383685
30
0.0
11
10.211450
21
160.623785
31
0.0
0
LINE
8
0
6
CONTINUOUS
10
-26.947540
20
143.975935
30
0.0
11
-28.134220
21
143.521125
31
0.0
0
LINE
8
0
6
CONTINUOUS
10
-25.848640
20
143.402565
30
0.0
11
-26.947540
21
143.975935
31
0.0
0
LINE
8
0
6
CONTINUOUS
10
-25.936400
20
142.374395
30
0.0
11
-25.848640
21
143.402565
31
0.0
0
LINE
8
0
6
CONTINUOUS
10
-27.123090
20
141.919645
30
0.0
11
-25.936400
21
142.374395
31
0.0
0
LINE
8
0
6
CONTINUOUS
10
-28.221990
20
142.493025
30
0.0
11
-27.123090
21
141.919645
31
0.0
0
LINE
8
0
6
CONTINUOUS
10
-28.134220
20
143.521125
30
0.0
11
-28.221990
21
142.493025
31
0.0
0
LINE
8
0
6
CONTINUOUS
10
16.360370
20
189.489365
30
0.0
11
15.510360
21
188.700105
31
0.0
0
LINE
8
0
6
CONTINUOUS
10
17.662770
20
189.310345
30
0.0
11
16.360370
21
189.489365
31
0.0
0
LINE
8
0
6
CONTINUOUS
10
18.115140
20
188.342015
30
0.0
11
17.662770
21
189.310345
31
0.0
0
LINE
8
0
6
CONTINUOUS
10
17.265100
20
187.552735
30
0.0
11
18.115140
21
188.342015
31
0.0
0
LINE
8
0
6
CONTINUOUS
10
15.962730
20
187.731765
30
0.0
11
17.265100
21
187.552735
31
0.0
0
LINE
8
0
6
CONTINUOUS
10
15.510360
20
188.700105
30
0.0
11
15.962730
21
187.731765
31
0.0
0
LINE
8
0
6
CONTINUOUS
10
23.498300
20
156.419385
30
0.0
11
23.674450
21
157.612605
31
0.0
0
LINE
8
0
6
CONTINUOUS
10
22.083920
20
155.941765
30
0.0
11
23.498300
21
156.419385
31
0.0
0
LINE
8
0
6
CONTINUOUS
10
20.845680
20
156.657435
30
0.0
11
22.083920
21
155.941765
31
0.0
0
LINE
8
0
6
CONTINUOUS
10
21.021840
20
157.850675
30
0.0
11
20.845680
21
156.657435
31
0.0
0
LINE
8
0
6
CONTINUOUS
10
22.436210
20
158.328255
30
0.0
11
21.021840
21
157.850675
31
0.0
0
LINE
8
0
6
CONTINUOUS
10
23.674450
20
157.612605
30
0.0
11
22.436210
21
158.328255
31
0.0
0
LINE
8
0
6
CONTINUOUS
10
-13.134060
20
142.250265
30
0.0
11
-14.206680
21
141.647575
31
0.0
0
LINE
8
0
6
CONTINUOUS
10
-11.927790
20
141.827805
30
0.0
11
-13.134060
21
142.250265
31
0.0
0
LINE
8
0
6
CONTINUOUS
10
-11.794120
20
140.802655
30
0.0
11
-11.927790
21
141.827805
31
0.0
0
LINE
8
0
6
CONTINUOUS
10
-12.866740
20
140.199945
30
0.0
11
-11.794120
21
140.802655
31
0.0
0
LINE
8
0
6
CONTINUOUS
10
-14.073010
20
140.622425
30
0.0
11
-12.866740
21
140.199945
31
0.0
0
LINE
8
0
6
CONTINUOUS
10
-14.206680
20
141.647575
30
0.0
11
-14.073010
21
140.622425
31
0.0
0
LINE
8
0
6
CONTINUOUS
10
-12.469220
20
184.980165
30
0.0
11
-13.319240
21
184.190885
31
0.0
0
LINE
8
0
6
CONTINUOUS
10
-11.166830
20
184.801125
30
0.0
11
-12.469220
21
184.980165
31
0.0
0
LINE
8
0
6
CONTINUOUS
10
-10.714450
20
183.832795
30
0.0
11
-11.166830
21
184.801125
31
0.0
0
LINE
8
0
6
CONTINUOUS
10
-11.564490
20
183.043495
30
0.0
11
-10.714450
21
183.832795
31
0.0
0
LINE
8
0
6
CONTINUOUS
10
-12.866860
20
183.222525
30
0.0
11
-11.564490
21
183.043495
31
0.0
0
LINE
8
0
6
CONTINUOUS
10
-13.319240
20
184.190885
30
0.0
11
-12.866860
21
183.222525
31
0.0
0
LINE
8
0
6
CONTINUOUS
10
-17.183400
20
152.006005
30
0.0
11
-18.589520
21
152.498465
31
0.0
0
LINE
8
0
6
CONTINUOUS
10
-17.027590
20
150.811015
30
0.0
11
-17.183400
21
152.006005
31
0.0
0
LINE
8
0
6
CONTINUOUS
10
-18.277900
20
150.108445
30
0.0
11
-17.027590
21
150.811015
31
0.0
0
LINE
8
0
6
CONTINUOUS
10
-19.684030
20
150.600925
30
0.0
11
-18.277900
21
150.108445
31
0.0
0
LINE
8
0
6
CONTINUOUS
10
-19.839840
20
151.795935
30
0.0
11
-19.684030
21
150.600925
31
0.0
0
LINE
8
0
6
CONTINUOUS
10
-18.589520
20
152.498465
30
0.0
11
-19.839840
21
151.795935
31
0.0
0
LINE
8
0
6
CONTINUOUS
10
22.953830
20
162.506075
30
0.0
11
24.290600
21
163.104235
31
0.0
0
LINE
8
0
6
CONTINUOUS
10
21.620430
20
163.109045
30
0.0
11
22.953830
21
162.506075
31
0.0
0
LINE
8
0
6
CONTINUOUS
10
21.623800
20
164.310145
30
0.0
11
21.620430
21
163.109045
31
0.0
0
LINE
8
0
6
CONTINUOUS
10
22.960550
20
164.908305
30
0.0
11
21.623800
21
164.310145
31
0.0
0
LINE
8
0
6
CONTINUOUS
10
24.293950
20
164.305355
30
0.0
11
22.960550
21
164.908305
31
0.0
0
LINE
8
0
6
CONTINUOUS
10
24.290600
20
163.104235
30
0.0
11
24.293950
21
164.305355
31
0.0
0
LINE
8
0
6
CONTINUOUS
10
5.713890
20
184.449045
30
0.0
11
6.563920
21
185.238325
31
0.0
0
LINE
8
0
6
CONTINUOUS
10
4.411510
20
184.628065
30
0.0
11
5.713890
21
184.449045
31
0.0
0
LINE
8
0
6
CONTINUOUS
10
3.959150
20
185.596395
30
0.0
11
4.411510
21
184.628065
31
0.0
0
LINE
8
0
6
CONTINUOUS
10
4.809170
20
186.385675
30
0.0
11
3.959150
21
185.596395
31
0.0
0
LINE
8
0
6
CONTINUOUS
10
6.111560
20
186.206665
30
0.0
11
4.809170
21
186.385675
31
0.0
0
LINE
8
0
6
CONTINUOUS
10
6.563920
20
185.238325
30
0.0
11
6.111560
21
186.206665
31
0.0
0
LINE
8
0
6
CONTINUOUS
10
13.751790
20
135.006375
30
0.0
11
13.902890
21
136.030025
31
0.0
0
LINE
8
0
6
CONTINUOUS
10
12.538420
20
134.596655
30
0.0
11
13.751790
21
135.006375
31
0.0
0
LINE
8
0
6
CONTINUOUS
10
11.476170
20
135.210605
30
0.0
11
12.538420
21
134.596655
31
0.0
0
LINE
8
0
6
CONTINUOUS
10
11.627290
20
136.234255
30
0.0
11
11.476170
21
135.210605
31
0.0
0
LINE
8
0
6
CONTINUOUS
10
12.840640
20
136.643975
30
0.0
11
11.627290
21
136.234255
31
0.0
0
LINE
8
0
6
CONTINUOUS
10
13.902890
20
136.030025
30
0.0
11
12.840640
21
136.643975
31
0.0
0
LINE
8
0
6
CONTINUOUS
10
-17.253060
20
189.292145
30
0.0
11
-17.922100
21
188.403355
31
0.0
0
LINE
8
0
6
CONTINUOUS
10
-15.930620
20
189.284955
30
0.0
11
-17.253060
21
189.292145
31
0.0
0
LINE
8
0
6
CONTINUOUS
10
-15.277210
20
188.388975
30
0.0
11
-15.930620
21
189.284955
31
0.0
0
LINE
8
0
6
CONTINUOUS
10
-15.946260
20
187.500225
30
0.0
11
-15.277210
21
188.388975
31
0.0
0
LINE
8
0
6
CONTINUOUS
10
-17.268690
20
187.507425
30
0.0
11
-15.946260
21
187.500225
31
0.0
0
LINE
8
0
6
CONTINUOUS
10
-17.922100
20
188.403355
30
0.0
11
-17.268690
21
187.507425
31
0.0
0
LINE
8
0
6
CONTINUOUS
10
-4.272480
20
145.685915
30
0.0
11
-5.522810
21
144.983395
31
0.0
0
LINE
8
0
6
CONTINUOUS
10
-2.866370
20
145.193475
30
0.0
11
-4.272480
21
145.685915
31
0.0
0
LINE
8
0
6
CONTINUOUS
10
-2.710550
20
143.998485
30
0.0
11
-2.866370
21
145.193475
31
0.0
0
LINE
8
0
6
CONTINUOUS
10
-3.960870
20
143.295905
30
0.0
11
-2.710550
21
143.998485
31
0.0
0
LINE
8
0
6
CONTINUOUS
10
-5.366990
20
143.788405
30
0.0
11
-3.960870
21
143.295905
31
0.0
0
LINE
8
0
6
CONTINUOUS
10
-5.522810
20
144.983395
30
0.0
11
-5.366990
21
143.788405
31
0.0
0
LINE
8
0
6
CONTINUOUS
10
12.859730
20
170.523945
30
0.0
11
11.479610
21
169.906355
31
0.0
0
LINE
8
0
6
CONTINUOUS
10
14.236370
20
169.901435
30
0.0
11
12.859730
21
170.523945
31
0.0
0
LINE
8
0
6
CONTINUOUS
10
14.232910
20
168.661355
30
0.0
11
14.236370
21
169.901435
31
0.0
0
LINE
8
0
6
CONTINUOUS
10
12.852780
20
168.043775
30
0.0
11
14.232910
21
168.661355
31
0.0
0
LINE
8
0
6
CONTINUOUS
10
11.476130
20
168.666315
30
0.0
11
12.852780
21
168.043775
31
0.0
0
LINE
8
0
6
CONTINUOUS
10
11.479610
20
169.906355
30
0.0
11
11.476130
21
168.666315
31
0.0
0
LINE
8
0
6
CONTINUOUS
10
-12.173070
20
148.098445
30
0.0
11
-13.423390
21
147.395865
31
0.0
0
LINE
8
0
6
CONTINUOUS
10
-10.766950
20
147.605965
30
0.0
11
-12.173070
21
148.098445
31
0.0
0
LINE
8
0
6
CONTINUOUS
10
-10.611130
20
146.410975
30
0.0
11
-10.766950
21
147.605965
31
0.0
0
LINE
8
0
6
CONTINUOUS
10
-11.861450
20
145.708435
30
0.0
11
-10.611130
21
146.410975
31
0.0
0
LINE
8
0
6
CONTINUOUS
10
-13.267570
20
146.200895
30
0.0
11
-11.861450
21
145.708435
31
0.0
0
LINE
8
0
6
CONTINUOUS
10
-13.423390
20
147.395865
30
0.0
11
-13.267570
21
146.200895
31
0.0
0
LINE
8
0
6
CONTINUOUS
10
-23.674500
20
174.934055
30
0.0
11
-23.659840
21
175.964395
31
0.0
0
LINE
8
0
6
CONTINUOUS
10
-24.827100
20
174.428895
30
0.0
11
-23.674500
21
174.934055
31
0.0
0
LINE
8
0
6
CONTINUOUS
10
-25.965040
20
174.954085
30
0.0
11
-24.827100
21
174.428895
31
0.0
0
LINE
8
0
6
CONTINUOUS
10
-25.950360
20
175.984455
30
0.0
11
-25.965040
21
174.954085
31
0.0
0
LINE
8
0
6
CONTINUOUS
10
-24.797780
20
176.489605
30
0.0
11
-25.950360
21
175.984455
31
0.0
0
LINE
8
0
6
CONTINUOUS
10
-23.659840
20
175.964395
30
0.0
11
-24.797780
21
176.489605
31
0.0
0
LINE
8
0
6
CONTINUOUS
10
-5.058440
20
140.231085
30
0.0
11
-6.131060
21
139.628425
31
0.0
0
LINE
8
0
6
CONTINUOUS
10
-3.852180
20
139.808645
30
0.0
11
-5.058440
21
140.231085
31
0.0
0
LINE
8
0
6
CONTINUOUS
10
-3.718500
20
138.783465
30
0.0
11
-3.852180
21
139.808645
31
0.0
0
LINE
8
0
6
CONTINUOUS
10
-4.791110
20
138.180785
30
0.0
11
-3.718500
21
138.783465
31
0.0
0
LINE
8
0
6
CONTINUOUS
10
-5.997380
20
138.603285
30
0.0
11
-4.791110
21
138.180785
31
0.0
0
LINE
8
0
6
CONTINUOUS
10
-6.131060
20
139.628425
30
0.0
11
-5.997380
21
138.603285
31
0.0
0
LINE
8
0
6
CONTINUOUS
10
26.762790
20
174.092325
30
0.0
11
26.765660
21
175.122715
31
0.0
0
LINE
8
0
6
CONTINUOUS
10
25.616010
20
173.579155
30
0.0
11
26.762790
21
174.092325
31
0.0
0
LINE
8
0
6
CONTINUOUS
10
24.472120
20
174.096425
30
0.0
11
25.616010
21
173.579155
31
0.0
0
LINE
8
0
6
CONTINUOUS
10
24.475010
20
175.126815
30
0.0
11
24.472120
21
174.096425
31
0.0
0
LINE
8
0
6
CONTINUOUS
10
25.621790
20
175.639945
30
0.0
11
24.475010
21
175.126815
31
0.0
0
LINE
8
0
6
CONTINUOUS
10
26.765660
20
175.122715
30
0.0
11
25.621790
21
175.639945
31
0.0
0
LINE
8
0
6
CONTINUOUS
10
36.895770
20
161.943505
30
0.0
11
35.749010
21
161.430335
31
0.0
0
LINE
8
0
6
CONTINUOUS
10
38.039660
20
161.426235
30
0.0
11
36.895770
21
161.943505
31
0.0
0
LINE
8
0
6
CONTINUOUS
10
38.036780
20
160.395845
30
0.0
11
38.039660
21
161.426235
31
0.0
0
LINE
8
0
6
CONTINUOUS
10
36.890010
20
159.882685
30
0.0
11
38.036780
21
160.395845
31
0.0
0
LINE
8
0
6
CONTINUOUS
10
35.746110
20
160.399925
30
0.0
11
36.890010
21
159.882685
31
0.0
0
LINE
8
0
6
CONTINUOUS
10
35.749010
20
161.430335
30
0.0
11
35.746110
21
160.399925
31
0.0
0
LINE
8
0
6
CONTINUOUS
10
35.040590
20
174.605205
30
0.0
11
33.802000
21
174.966515
31
0.0
0
LINE
8
0
6
CONTINUOUS
10
35.258440
20
173.588895
30
0.0
11
35.040590
21
174.605205
31
0.0
0
LINE
8
0
6
CONTINUOUS
10
34.237680
20
172.933815
30
0.0
11
35.258440
21
173.588895
31
0.0
0
LINE
8
0
6
CONTINUOUS
10
32.999070
20
173.295125
30
0.0
11
34.237680
21
172.933815
31
0.0
0
LINE
8
0
6
CONTINUOUS
10
32.781240
20
174.311455
30
0.0
11
32.999070
21
173.295125
31
0.0
0
LINE
8
0
6
CONTINUOUS
10
33.802000
20
174.966515
30
0.0
11
32.781240
21
174.311455
31
0.0
0
LINE
8
0
6
CONTINUOUS
10
0.581950
20
178.858265
30
0.0
11
1.572820
21
179.778305
31
0.0
0
LINE
8
0
6
CONTINUOUS
10
-0.936200
20
179.066925
30
0.0
11
0.581950
21
178.858265
31
0.0
0
LINE
8
0
6
CONTINUOUS
10
-1.463510
20
180.195675
30
0.0
11
-0.936200
21
179.066925
31
0.0
0
LINE
8
0
6
CONTINUOUS
10
-0.472650
20
181.115785
30
0.0
11
-1.463510
21
180.195675
31
0.0
0
LINE
8
0
6
CONTINUOUS
10
1.045510
20
180.907095
30
0.0
11
-0.472650
21
181.115785
31
0.0
0
LINE
8
0
6
CONTINUOUS
10
1.572820
20
179.778305
30
0.0
11
1.045510
21
180.907095
31
0.0
0
LINE
8
0
6
CONTINUOUS
10
4.097780
20
132.867445
30
0.0
11
5.311150
21
133.277175
31
0.0
0
LINE
8
0
6
CONTINUOUS
10
3.035530
20
133.481385
30
0.0
11
4.097780
21
132.867445
31
0.0
0
LINE
8
0
6
CONTINUOUS
10
3.186650
20
134.505065
30
0.0
11
3.035530
21
133.481385
31
0.0
0
LINE
8
0
6
CONTINUOUS
10
4.400000
20
134.914765
30
0.0
11
3.186650
21
134.505065
31
0.0
0
LINE
8
0
6
CONTINUOUS
10
5.462250
20
134.300815
30
0.0
11
4.400000
21
134.914765
31
0.0
0
LINE
8
0
6
CONTINUOUS
10
5.311150
20
133.277175
30
0.0
11
5.462250
21
134.300815
31
0.0
0
LINE
8
0
6
CONTINUOUS
10
23.596730
20
185.735955
30
0.0
11
22.575970
21
185.080895
31
0.0
0
LINE
8
0
6
CONTINUOUS
10
24.835330
20
185.374665
30
0.0
11
23.596730
21
185.735955
31
0.0
0
LINE
8
0
6
CONTINUOUS
10
25.053190
20
184.358335
30
0.0
11
24.835330
21
185.374665
31
0.0
0
LINE
8
0
6
CONTINUOUS
10
24.032430
20
183.703215
30
0.0
11
25.053190
21
184.358335
31
0.0
0
LINE
8
0
6
CONTINUOUS
10
22.793810
20
184.064525
30
0.0
11
24.032430
21
183.703215
31
0.0
0
LINE
8
0
6
CONTINUOUS
10
22.575970
20
185.080895
30
0.0
11
22.793810
21
184.064525
31
0.0
0
LINE
8
0
6
CONTINUOUS
10
-25.721980
20
151.200815
30
0.0
11
-26.794600
21
150.598195
31
0.0
0
LINE
8
0
6
CONTINUOUS
10
-24.515720
20
150.778365
30
0.0
11
-25.721980
21
151.200815
31
0.0
0
LINE
8
0
6
CONTINUOUS
10
-24.382040
20
149.753195
30
0.0
11
-24.515720
21
150.778365
31
0.0
0
LINE
8
0
6
CONTINUOUS
10
-25.454660
20
149.150495
30
0.0
11
-24.382040
21
149.753195
31
0.0
0
LINE
8
0
6
CONTINUOUS
10
-26.660930
20
149.573015
30
0.0
11
-25.454660
21
149.150495
31
0.0
0
LINE
8
0
6
CONTINUOUS
10
-26.794600
20
150.598195
30
0.0
11
-26.660930
21
149.573015
31
0.0
0
LINE
8
0
6
CONTINUOUS
10
-7.703150
20
177.754475
30
0.0
11
-6.712270
21
178.674545
31
0.0
0
LINE
8
0
6
CONTINUOUS
10
-9.221290
20
177.963185
30
0.0
11
-7.703150
21
177.754475
31
0.0
0
LINE
8
0
6
CONTINUOUS
10
-9.748600
20
179.091935
30
0.0
11
-9.221290
21
177.963185
31
0.0
0
LINE
8
0
6
CONTINUOUS
10
-8.757760
20
180.011995
30
0.0
11
-9.748600
21
179.091935
31
0.0
0
LINE
8
0
6
CONTINUOUS
10
-7.239590
20
179.803315
30
0.0
11
-8.757760
21
180.011995
31
0.0
0
LINE
8
0
6
CONTINUOUS
10
-6.712270
20
178.674545
30
0.0
11
-7.239590
21
179.803315
31
0.0
0
LINE
8
0
6
CONTINUOUS
10
-19.428220
20
169.721175
30
0.0
11
-19.411130
21
170.922255
31
0.0
0
LINE
8
0
6
CONTINUOUS
10
-20.771780
20
169.132375
30
0.0
11
-19.428220
21
169.721175
31
0.0
0
LINE
8
0
6
CONTINUOUS
10
-22.098230
20
169.744575
30
0.0
11
-20.771780
21
169.132375
31
0.0
0
LINE
8
0
6
CONTINUOUS
10
-22.081130
20
170.945595
30
0.0
11
-22.098230
21
169.744575
31
0.0
0
LINE
8
0
6
CONTINUOUS
10
-20.737590
20
171.534415
30
0.0
11
-22.081130
21
170.945595
31
0.0
0
LINE
8
0
6
CONTINUOUS
10
-19.411130
20
170.922255
30
0.0
11
-20.737590
21
171.534415
31
0.0
0
LINE
8
0
6
CONTINUOUS
10
12.045460
20
141.925465
30
0.0
11
10.832100
21
141.515785
31
0.0
0
LINE
8
0
6
CONTINUOUS
10
13.107720
20
141.311555
30
0.0
11
12.045460
21
141.925465
31
0.0
0
LINE
8
0
6
CONTINUOUS
10
12.956610
20
140.287885
30
0.0
11
13.107720
21
141.311555
31
0.0
0
LINE
8
0
6
CONTINUOUS
10
11.743250
20
139.878185
30
0.0
11
12.956610
21
140.287885
31
0.0
0
LINE
8
0
6
CONTINUOUS
10
10.680990
20
140.492105
30
0.0
11
11.743250
21
139.878185
31
0.0
0
LINE
8
0
6
CONTINUOUS
10
10.832100
20
141.515785
30
0.0
11
10.680990
21
140.492105
31
0.0
0
LINE
8
0
6
CONTINUOUS
10
43.496010
20
156.203335
30
0.0
11
44.505110
21
163.871205
31
0.0
0
LINE
8
0
6
CONTINUOUS
10
-34.794650
20
185.681095
30
0.0
11
-40.120960
21
179.106145
31
0.0
0
LINE
8
0
6
CONTINUOUS
10
-44.507890
20
164.017455
30
0.0
11
-43.474110
21
156.318105
31
0.0
0
LINE
8
0
6
CONTINUOUS
10
9.845150
20
130.089775
30
0.0
11
19.262360
21
132.659715
31
0.0
0
LINE
8
0
6
CONTINUOUS
10
27.816510
20
191.010665
30
0.0
11
19.445140
21
195.318055
31
0.0
0
LINE
8
0
6
CONTINUOUS
10
-43.474110
20
156.318105
30
0.0
11
-40.195850
21
148.972865
31
0.0
0
LINE
8
0
6
CONTINUOUS
10
-40.195850
20
148.972865
30
0.0
11
-34.954050
21
142.386975
31
0.0
0
LINE
8
0
6
CONTINUOUS
10
-19.415980
20
132.716935
30
0.0
11
-9.999290
21
130.135025
31
0.0
0
LINE
8
0
6
CONTINUOUS
10
-27.857070
20
136.869625
30
0.0
11
-19.415980
21
132.716935
31
0.0
0
LINE
8
0
6
CONTINUOUS
10
40.175970
20
148.857835
30
0.0
11
43.496010
21
156.203335
31
0.0
0
LINE
8
0
6
CONTINUOUS
10
0.086610
20
198.707945
30
0.0
11
-9.819730
21
197.770045
31
0.0
0
LINE
8
0
6
CONTINUOUS
10
-27.681980
20
191.101855
30
0.0
11
-34.794650
21
185.681095
31
0.0
0
LINE
8
0
6
CONTINUOUS
10
-43.435630
20
171.772165
30
0.0
11
-44.507890
21
164.017455
31
0.0
0
LINE
8
0
6
CONTINUOUS
10
34.850260
20
185.508425
30
0.0
11
27.816510
21
191.010665
31
0.0
0
LINE
8
0
6
CONTINUOUS
10
-9.999290
20
130.135025
30
0.0
11
-0.089380
21
129.249985
31
0.0
0
LINE
8
0
6
CONTINUOUS
10
-0.089380
20
129.249985
30
0.0
11
9.845150
21
130.089775
31
0.0
0
LINE
8
0
6
CONTINUOUS
10
27.721410
20
136.785145
30
0.0
11
34.841300
21
142.272265
31
0.0
0
LINE
8
0
6
CONTINUOUS
10
19.262360
20
132.659715
30
0.0
11
27.721410
21
136.785145
31
0.0
0
LINE
8
0
6
CONTINUOUS
10
34.841300
20
142.272265
30
0.0
11
40.175970
21
148.857835
31
0.0
0
LINE
8
0
6
CONTINUOUS
10
44.505110
20
163.871205
30
0.0
11
43.408790
21
171.589445
31
0.0
0
LINE
8
0
6
CONTINUOUS
10
43.408790
20
171.589445
30
0.0
11
40.135630
21
178.924385
31
0.0
0
LINE
8
0
6
CONTINUOUS
10
40.135630
20
178.924385
30
0.0
11
34.850260
21
185.508425
31
0.0
0
LINE
8
0
6
CONTINUOUS
10
19.445140
20
195.318055
30
0.0
11
9.988230
21
197.737585
31
0.0
0
LINE
8
0
6
CONTINUOUS
10
9.988230
20
197.737585
30
0.0
11
0.086610
21
198.707945
31
0.0
0
LINE
8
0
6
CONTINUOUS
10
-9.819730
20
197.770045
30
0.0
11
-19.233630
21
195.220775
31
0.0
0
LINE
8
0
6
CONTINUOUS
10
-19.233630
20
195.220775
30
0.0
11
-27.681980
21
191.101855
31
0.0
0
LINE
8
0
6
CONTINUOUS
10
-40.120960
20
179.106145
30
0.0
11
-43.435630
21
171.772165
31
0.0
0
LINE
8
0
6
CONTINUOUS
10
-34.954050
20
142.386975
30
0.0
11
-27.857070
21
136.869625
31
0.0
0
LINE
8
0
6
CONTINUOUS
10
-3.712718
20
139.432918
30
0.0
11
-3.846846
21
140.407549
31
0.0
0
LINE
8
0
6
CONTINUOUS
10
-17.110026
20
152.061642
30
0.0
11
-17.177623
21
152.564551
31
0.0
0
LINE
8
0
6
CONTINUOUS
10
-2.703769
20
144.654348
30
0.0
11
-2.860347
21
145.775854
31
0.0
0
LINE
8
0
6
CONTINUOUS
10
-5.516447
20
145.598581
30
0.0
11
-4.960949
21
145.883390
31
0.0
0
LINE
8
0
6
CONTINUOUS
10
-14.228004
20
155.485424
30
0.0
11
-13.016167
21
156.135567
31
0.0
0
LINE
8
0
6
CONTINUOUS
10
-14.306668
20
155.445913
30
0.0
11
-14.228004
21
155.485424
31
0.0
0
LINE
8
0
6
CONTINUOUS
10
-11.676410
20
135.969167
30
0.0
11
-11.744350
21
136.452448
31
0.0
0
LINE
8
0
6
CONTINUOUS
10
-11.744350
20
136.452448
30
0.0
11
-11.810610
21
136.935874
31
0.0
0
LINE
8
0
6
CONTINUOUS
10
-21.281261
20
146.153371
30
0.0
11
-20.209095
21
146.704986
31
0.0
0
LINE
8
0
6
CONTINUOUS
10
-28.216690
20
143.190556
30
0.0
11
-28.129307
21
144.167788
31
0.0
0
LINE
8
0
6
CONTINUOUS
10
-28.129307
20
144.167788
30
0.0
11
-27.270131
21
144.450532
31
0.0
0
LINE
8
0
6
CONTINUOUS
10
-21.657799
20
139.943176
30
0.0
11
-21.089104
21
140.134827
31
0.0
0
LINE
8
0
6
CONTINUOUS
10
-21.745115
20
138.973557
30
0.0
11
-21.657799
21
139.943176
31
0.0
0
LINE
8
0
6
CONTINUOUS
10
-36.888049
20
162.766770
30
0.0
11
-36.494069
21
162.565722
31
0.0
0
LINE
8
0
6
CONTINUOUS
10
-38.040815
20
162.325937
30
0.0
11
-36.888049
21
162.766770
31
0.0
0
LINE
8
0
6
CONTINUOUS
10
-36.644149
20
155.723110
30
0.0
11
-35.457982
21
156.109253
31
0.0
0
LINE
8
0
6
CONTINUOUS
10
-35.457982
20
156.109253
30
0.0
11
-35.260964
21
155.999206
31
0.0
0
LINE
8
0
6
CONTINUOUS
10
-36.249853
20
169.387598
30
0.0
11
-36.111824
21
169.289261
31
0.0
0
LINE
8
0
6
CONTINUOUS
10
-37.729943
20
168.093073
30
0.0
11
-37.494765
21
169.100031
31
0.0
0
LINE
8
0
6
CONTINUOUS
10
-30.859406
20
180.326569
30
0.0
11
-30.636215
21
181.323190
31
0.0
0
LINE
8
0
6
CONTINUOUS
10
-33.718728
20
175.853203
30
0.0
11
-33.084966
21
175.396657
31
0.0
0
LINE
8
0
6
CONTINUOUS
10
-34.963610
20
175.556151
30
0.0
11
-33.718728
21
175.853203
31
0.0
0
LINE
8
0
6
CONTINUOUS
10
-17.914612
20
189.084147
30
0.0
11
-17.245187
21
190.007942
31
0.0
0
LINE
8
0
6
CONTINUOUS
10
-3.266058
20
134.170340
30
0.0
11
-3.390635
21
135.052529
31
0.0
0
LINE
8
0
6
CONTINUOUS
10
-5.679028
20
134.969279
30
0.0
11
-5.202483
21
135.214597
31
0.0
0
LINE
8
0
6
CONTINUOUS
10
-24.925384
20
185.161109
30
0.0
11
-24.690451
21
186.219100
31
0.0
0
LINE
8
0
6
CONTINUOUS
10
36.346078
20
169.242647
30
0.0
11
37.584990
21
168.943962
31
0.0
0
LINE
8
0
6
CONTINUOUS
10
-1.282778
20
192.231814
30
0.0
11
-0.613063
21
193.181994
31
0.0
0
LINE
8
0
6
CONTINUOUS
10
7.240375
20
191.497144
30
0.0
11
8.091125
21
192.350619
31
0.0
0
LINE
8
0
6
CONTINUOUS
10
-14.089095
20
136.801195
30
0.0
11
-13.709928
21
136.991940
31
0.0
0
LINE
8
0
6
CONTINUOUS
10
15.564636
20
189.369650
30
0.0
11
16.368113
21
190.171977
31
0.0
0
LINE
8
0
6
CONTINUOUS
10
14.648765
20
164.429084
30
0.0
11
16.028989
21
165.076836
31
0.0
0
LINE
8
0
6
CONTINUOUS
10
-4.825833
20
150.418653
30
0.0
11
-4.987024
21
151.622532
31
0.0
0
LINE
8
0
6
CONTINUOUS
10
-13.128790
20
142.842161
30
0.0
11
-12.621689
21
142.661508
31
0.0
0
LINE
8
0
6
CONTINUOUS
10
-16.787134
20
161.783705
30
0.0
11
-16.129585
21
162.138606
31
0.0
0
LINE
8
0
6
CONTINUOUS
10
-6.438768
20
152.128524
30
0.0
11
-6.371419
21
152.104722
31
0.0
0
LINE
8
0
6
CONTINUOUS
10
-11.403574
20
154.393957
30
0.0
11
-11.515356
21
155.235585
31
0.0
0
LINE
8
0
6
CONTINUOUS
10
-11.515356
20
155.235585
30
0.0
11
-11.564645
21
155.608771
31
0.0
0
LINE
8
0
6
CONTINUOUS
10
-29.230986
20
157.867008
30
0.0
11
-29.140917
21
157.913865
31
0.0
0
LINE
8
0
6
CONTINUOUS
10
-29.140917
20
157.913865
30
0.0
11
-29.074800
21
157.888257
31
0.0
0
LINE
8
0
6
CONTINUOUS
10
-30.213101
20
157.360342
30
0.0
11
-29.230986
21
157.867008
31
0.0
0
LINE
8
0
6
CONTINUOUS
10
-29.074800
20
157.888257
30
0.0
11
-27.934995
21
157.453446
31
0.0
0
LINE
8
0
6
CONTINUOUS
10
17.940357
20
145.368102
30
0.0
11
17.967849
21
145.548153
31
0.0
0
LINE
8
0
6
CONTINUOUS
10
-25.716538
20
151.812072
30
0.0
11
-24.510534
21
151.360873
31
0.0
0
LINE
8
0
6
CONTINUOUS
10
-26.788700
20
151.261035
30
0.0
11
-25.716538
21
151.812072
31
0.0
0
LINE
8
0
6
CONTINUOUS
10
-32.172440
20
149.911479
30
0.0
11
-32.017103
21
149.964303
31
0.0
0
LINE
8
0
6
CONTINUOUS
10
-22.232006
20
158.915171
30
0.0
11
-21.969701
21
158.811172
31
0.0
0
LINE
8
0
6
CONTINUOUS
10
-22.986187
20
165.792846
30
0.0
11
-21.659500
21
165.112199
31
0.0
0
LINE
8
0
6
CONTINUOUS
10
-24.329930
20
165.264728
30
0.0
11
-22.986187
21
165.792846
31
0.0
0
LINE
8
0
6
CONTINUOUS
10
-16.191395
20
166.780480
30
0.0
11
-16.173823
21
168.045383
31
0.0
0
LINE
8
0
6
CONTINUOUS
10
-15.558286
20
168.292491
30
0.0
11
-14.819474
21
168.596677
31
0.0
0
LINE
8
0
6
CONTINUOUS
10
-20.739834
20
172.205189
30
0.0
11
-19.413125
21
171.518073
31
0.0
0
LINE
8
0
6
CONTINUOUS
10
-33.290756
20
148.586248
30
0.0
11
-33.203305
21
149.574793
31
0.0
0
LINE
8
0
6
CONTINUOUS
10
-33.203305
20
149.574793
30
0.0
11
-32.172440
21
149.911479
31
0.0
0
LINE
8
0
6
CONTINUOUS
10
-23.481601
20
158.282795
30
0.0
11
-22.589225
21
158.733059
31
0.0
0
LINE
8
0
6
CONTINUOUS
10
-27.270131
20
144.450532
30
0.0
11
-26.943086
21
144.562429
31
0.0
0
LINE
8
0
6
CONTINUOUS
10
-19.832857
20
152.471307
30
0.0
11
-18.583311
21
153.098793
31
0.0
0
LINE
8
0
6
CONTINUOUS
10
-3.131349
20
175.282125
30
0.0
11
-2.491398
21
175.909704
31
0.0
0
LINE
8
0
6
CONTINUOUS
10
-16.092389
20
177.214971
30
0.0
11
-14.575036
21
176.944332
31
0.0
0
LINE
8
0
6
CONTINUOUS
10
-22.589225
20
158.733059
30
0.0
11
-22.232006
21
158.915171
31
0.0
0
LINE
8
0
6
CONTINUOUS
10
-13.416733
20
148.039745
30
0.0
11
-12.167131
21
148.672528
31
0.0
0
LINE
8
0
6
CONTINUOUS
10
2.656396
20
144.626676
30
0.0
11
2.833289
21
145.746561
31
0.0
0
LINE
8
0
6
CONTINUOUS
10
-4.606779
20
135.530065
30
0.0
11
-3.400371
21
135.123286
31
0.0
0
LINE
8
0
6
CONTINUOUS
10
-6.125559
20
140.246497
30
0.0
11
-5.053249
21
140.814317
31
0.0
0
LINE
8
0
6
CONTINUOUS
10
16.522416
20
164.863223
30
0.0
11
17.405813
21
164.503763
31
0.0
0
LINE
8
0
6
CONTINUOUS
10
21.625923
20
164.881000
30
0.0
11
22.962927
21
165.547896
31
0.0
0
LINE
8
0
6
CONTINUOUS
10
21.898864
20
158.745156
30
0.0
11
22.430053
21
158.949074
31
0.0
0
LINE
8
0
6
CONTINUOUS
10
-11.788440
20
141.440810
30
0.0
11
-11.922525
21
142.419164
31
0.0
0
LINE
8
0
6
CONTINUOUS
10
12.607408
20
171.056473
30
0.0
11
12.862259
21
171.184282
31
0.0
0
LINE
8
0
6
CONTINUOUS
10
23.571172
20
149.426239
30
0.0
11
23.722482
21
150.427476
31
0.0
0
LINE
8
0
6
CONTINUOUS
10
24.476971
20
175.734996
30
0.0
11
25.623913
21
176.299677
31
0.0
0
LINE
8
0
6
CONTINUOUS
10
-33.084966
20
175.396657
30
0.0
11
-32.708960
21
175.130775
31
0.0
0
LINE
8
0
6
CONTINUOUS
10
-28.595573
20
171.198539
30
0.0
11
-27.457504
21
170.622765
31
0.0
0
LINE
8
0
6
CONTINUOUS
10
11.809336
20
184.398686
30
0.0
11
12.659903
21
185.236706
31
0.0
0
LINE
8
0
6
CONTINUOUS
10
18.921436
20
180.857134
30
0.0
11
20.068354
21
181.420079
31
0.0
0
LINE
8
0
6
CONTINUOUS
10
-29.985413
20
164.620602
30
0.0
11
-28.847360
21
164.048341
31
0.0
0
LINE
8
0
6
CONTINUOUS
10
-28.610354
20
181.055295
30
0.0
11
-28.381559
21
180.892874
31
0.0
0
LINE
8
0
6
CONTINUOUS
10
-24.799643
20
177.148929
30
0.0
11
-23.661561
21
176.572178
31
0.0
0
LINE
8
0
6
CONTINUOUS
10
3.966420
20
186.237460
30
0.0
11
4.816934
21
187.070172
31
0.0
0
LINE
8
0
6
CONTINUOUS
10
27.767668
20
169.566742
30
0.0
11
28.914601
21
170.130570
31
0.0
0
LINE
8
0
6
CONTINUOUS
10
30.057935
20
163.516345
30
0.0
11
31.201951
21
163.040584
31
0.0
0
LINE
8
0
6
CONTINUOUS
10
28.911007
20
162.955910
30
0.0
11
30.057935
21
163.516345
31
0.0
0
LINE
8
0
6
CONTINUOUS
10
2.234852
20
139.400355
30
0.0
11
2.386396
21
140.373603
31
0.0
0
LINE
8
0
6
CONTINUOUS
10
10.675597
20
141.129841
30
0.0
11
10.827101
21
142.106916
31
0.0
0
LINE
8
0
6
CONTINUOUS
10
-36.111824
20
169.289261
30
0.0
11
-35.763483
21
169.039388
31
0.0
0
ENDSEC
0
EOF
