999
Erzeugt mit innoplus bad 
0
SECTION
2
HEADER
9
$ACADVER
1
AC1009
9
$DWGCODEPAGE
3
ISO8859-1
0
ENDSEC
0
SECTION
2
TABLES
0
TABLE
2
LAYER
70
1
0
LAYER
2
0
70
0
62
7
6
CONTINUOUS
0
ENDTAB
0
ENDSEC
0
SECTION
2
ENTITIES
0
LINE
8
0
6
CONTINUOUS
10
2.976000
20
-85.000000
30
0.0
11
4.248000
21
-85.000000
31
0.0
0
LINE
8
0
6
CONTINUOUS
10
1.536000
20
-85.000000
30
0.0
11
2.976000
21
-85.000000
31
0.0
0
LINE
8
0
6
CONTINUOUS
10
4.248000
20
-85.000000
30
0.0
11
2.976000
21
-85.000000
31
0.0
0
LINE
8
0
6
CONTINUOUS
10
2.976000
20
-85.000000
30
0.0
11
1.536000
21
-85.000000
31
0.0
0
LINE
8
0
6
CONTINUOUS
10
-4.248000
20
-85.000000
30
0.0
11
-2.976000
21
-85.000000
31
0.0
0
LINE
8
0
6
CONTINUOUS
10
-2.976000
20
-85.000000
30
0.0
11
-1.536000
21
-85.000000
31
0.0
0
LINE
8
0
6
CONTINUOUS
10
-2.976000
20
-85.000000
30
0.0
11
-4.248000
21
-85.000000
31
0.0
0
LINE
8
0
6
CONTINUOUS
10
-1.536000
20
-85.000000
30
0.0
11
-2.976000
21
-85.000000
31
0.0
0
LINE
8
0
6
CONTINUOUS
10
-33.733000
20
-85.000000
30
0.0
11
-33.733000
21
-83.000000
31
0.0
0
LINE
8
0
6
CONTINUOUS
10
-36.795000
20
-85.000000
30
0.0
11
-34.380000
21
-85.000000
31
0.0
0
LINE
8
0
6
CONTINUOUS
10
-34.380000
20
-85.000000
30
0.0
11
-33.733000
21
-85.000000
31
0.0
0
LINE
8
0
6
CONTINUOUS
10
-36.795000
20
-83.000000
30
0.0
11
-36.795000
21
-85.000000
31
0.0
0
LINE
8
0
6
CONTINUOUS
10
-34.380000
20
-83.000000
30
0.0
11
-34.380000
21
-85.000000
31
0.0
0
LINE
8
0
6
CONTINUOUS
10
-36.795000
20
-85.000000
30
0.0
11
-36.795000
21
-83.000000
31
0.0
0
LINE
8
0
6
CONTINUOUS
10
-34.380000
20
-85.000000
30
0.0
11
-36.795000
21
-85.000000
31
0.0
0
LINE
8
0
6
CONTINUOUS
10
-33.733000
20
-83.000000
30
0.0
11
-33.733000
21
-85.000000
31
0.0
0
LINE
8
0
6
CONTINUOUS
10
-34.380000
20
-85.000000
30
0.0
11
-34.380000
21
-83.000000
31
0.0
0
LINE
8
0
6
CONTINUOUS
10
-33.733000
20
-85.000000
30
0.0
11
-34.380000
21
-85.000000
31
0.0
0
LINE
8
0
6
CONTINUOUS
10
-28.880000
20
-85.000000
30
0.0
11
-28.880000
21
-83.000000
31
0.0
0
LINE
8
0
6
CONTINUOUS
10
-31.942000
20
-85.000000
30
0.0
11
-29.527000
21
-85.000000
31
0.0
0
LINE
8
0
6
CONTINUOUS
10
-29.527000
20
-85.000000
30
0.0
11
-28.880000
21
-85.000000
31
0.0
0
LINE
8
0
6
CONTINUOUS
10
-31.942000
20
-83.000000
30
0.0
11
-31.942000
21
-85.000000
31
0.0
0
LINE
8
0
6
CONTINUOUS
10
-29.527000
20
-83.000000
30
0.0
11
-29.527000
21
-85.000000
31
0.0
0
LINE
8
0
6
CONTINUOUS
10
-31.942000
20
-85.000000
30
0.0
11
-31.942000
21
-83.000000
31
0.0
0
LINE
8
0
6
CONTINUOUS
10
-29.527000
20
-85.000000
30
0.0
11
-31.942000
21
-85.000000
31
0.0
0
LINE
8
0
6
CONTINUOUS
10
-28.880000
20
-83.000000
30
0.0
11
-28.880000
21
-85.000000
31
0.0
0
LINE
8
0
6
CONTINUOUS
10
-29.527000
20
-85.000000
30
0.0
11
-29.527000
21
-83.000000
31
0.0
0
LINE
8
0
6
CONTINUOUS
10
-28.880000
20
-85.000000
30
0.0
11
-29.527000
21
-85.000000
31
0.0
0
LINE
8
0
6
CONTINUOUS
10
-66.417500
20
-85.000000
30
0.0
11
-66.417500
21
-83.000000
31
0.0
0
LINE
8
0
6
CONTINUOUS
10
-69.832500
20
-85.000000
30
0.0
11
-67.667500
21
-85.000000
31
0.0
0
LINE
8
0
6
CONTINUOUS
10
-67.667500
20
-85.000000
30
0.0
11
-66.417500
21
-85.000000
31
0.0
0
LINE
8
0
6
CONTINUOUS
10
-69.832500
20
-83.000000
30
0.0
11
-69.832500
21
-85.000000
31
0.0
0
LINE
8
0
6
CONTINUOUS
10
-67.667500
20
-83.000000
30
0.0
11
-67.667500
21
-85.000000
31
0.0
0
LINE
8
0
6
CONTINUOUS
10
-69.832500
20
-85.000000
30
0.0
11
-69.832500
21
-83.000000
31
0.0
0
LINE
8
0
6
CONTINUOUS
10
-67.667500
20
-85.000000
30
0.0
11
-69.832500
21
-85.000000
31
0.0
0
LINE
8
0
6
CONTINUOUS
10
-66.417500
20
-83.000000
30
0.0
11
-66.417500
21
-85.000000
31
0.0
0
LINE
8
0
6
CONTINUOUS
10
-67.667500
20
-85.000000
30
0.0
11
-67.667500
21
-83.000000
31
0.0
0
LINE
8
0
6
CONTINUOUS
10
-66.417500
20
-85.000000
30
0.0
11
-67.667500
21
-85.000000
31
0.0
0
LINE
8
0
6
CONTINUOUS
10
-19.175000
20
-85.000000
30
0.0
11
-19.175000
21
-83.000000
31
0.0
0
LINE
8
0
6
CONTINUOUS
10
-22.236000
20
-85.000000
30
0.0
11
-19.821000
21
-85.000000
31
0.0
0
LINE
8
0
6
CONTINUOUS
10
-19.821000
20
-85.000000
30
0.0
11
-19.175000
21
-85.000000
31
0.0
0
LINE
8
0
6
CONTINUOUS
10
-22.236000
20
-83.000000
30
0.0
11
-22.236000
21
-85.000000
31
0.0
0
LINE
8
0
6
CONTINUOUS
10
-19.821000
20
-83.000000
30
0.0
11
-19.821000
21
-85.000000
31
0.0
0
LINE
8
0
6
CONTINUOUS
10
-22.236000
20
-85.000000
30
0.0
11
-22.236000
21
-83.000000
31
0.0
0
LINE
8
0
6
CONTINUOUS
10
-19.821000
20
-85.000000
30
0.0
11
-22.236000
21
-85.000000
31
0.0
0
LINE
8
0
6
CONTINUOUS
10
-19.175000
20
-83.000000
30
0.0
11
-19.175000
21
-85.000000
31
0.0
0
LINE
8
0
6
CONTINUOUS
10
-19.821000
20
-85.000000
30
0.0
11
-19.821000
21
-83.000000
31
0.0
0
LINE
8
0
6
CONTINUOUS
10
-19.175000
20
-85.000000
30
0.0
11
-19.821000
21
-85.000000
31
0.0
0
LINE
8
0
6
CONTINUOUS
10
-9.469000
20
-85.000000
30
0.0
11
-9.469000
21
-83.000000
31
0.0
0
LINE
8
0
6
CONTINUOUS
10
-12.531000
20
-85.000000
30
0.0
11
-10.116000
21
-85.000000
31
0.0
0
LINE
8
0
6
CONTINUOUS
10
-10.116000
20
-85.000000
30
0.0
11
-9.469000
21
-85.000000
31
0.0
0
LINE
8
0
6
CONTINUOUS
10
-12.531000
20
-83.000000
30
0.0
11
-12.531000
21
-85.000000
31
0.0
0
LINE
8
0
6
CONTINUOUS
10
-10.116000
20
-83.000000
30
0.0
11
-10.116000
21
-85.000000
31
0.0
0
LINE
8
0
6
CONTINUOUS
10
-12.531000
20
-85.000000
30
0.0
11
-12.531000
21
-83.000000
31
0.0
0
LINE
8
0
6
CONTINUOUS
10
-10.116000
20
-85.000000
30
0.0
11
-12.531000
21
-85.000000
31
0.0
0
LINE
8
0
6
CONTINUOUS
10
-9.469000
20
-83.000000
30
0.0
11
-9.469000
21
-85.000000
31
0.0
0
LINE
8
0
6
CONTINUOUS
10
-10.116000
20
-85.000000
30
0.0
11
-10.116000
21
-83.000000
31
0.0
0
LINE
8
0
6
CONTINUOUS
10
-9.469000
20
-85.000000
30
0.0
11
-10.116000
21
-85.000000
31
0.0
0
LINE
8
0
6
CONTINUOUS
10
-4.616000
20
-85.000000
30
0.0
11
-4.616000
21
-83.000000
31
0.0
0
LINE
8
0
6
CONTINUOUS
10
-7.678000
20
-85.000000
30
0.0
11
-5.262000
21
-85.000000
31
0.0
0
LINE
8
0
6
CONTINUOUS
10
-5.262000
20
-85.000000
30
0.0
11
-4.616000
21
-85.000000
31
0.0
0
LINE
8
0
6
CONTINUOUS
10
-7.678000
20
-83.000000
30
0.0
11
-7.678000
21
-85.000000
31
0.0
0
LINE
8
0
6
CONTINUOUS
10
-5.262000
20
-83.000000
30
0.0
11
-5.262000
21
-85.000000
31
0.0
0
LINE
8
0
6
CONTINUOUS
10
-7.678000
20
-85.000000
30
0.0
11
-7.678000
21
-83.000000
31
0.0
0
LINE
8
0
6
CONTINUOUS
10
-5.262000
20
-85.000000
30
0.0
11
-7.678000
21
-85.000000
31
0.0
0
LINE
8
0
6
CONTINUOUS
10
-4.616000
20
-83.000000
30
0.0
11
-4.616000
21
-85.000000
31
0.0
0
LINE
8
0
6
CONTINUOUS
10
-5.262000
20
-85.000000
30
0.0
11
-5.262000
21
-83.000000
31
0.0
0
LINE
8
0
6
CONTINUOUS
10
-4.616000
20
-85.000000
30
0.0
11
-5.262000
21
-85.000000
31
0.0
0
LINE
8
0
6
CONTINUOUS
10
-13.583000
20
-83.000000
30
0.0
11
-13.583000
21
-85.000000
31
0.0
0
LINE
8
0
6
CONTINUOUS
10
-13.583000
20
-85.000000
30
0.0
11
-13.583000
21
-83.000000
31
0.0
0
LINE
8
0
6
CONTINUOUS
10
-14.321000
20
-85.000000
30
0.0
11
-14.321000
21
-83.000000
31
0.0
0
LINE
8
0
6
CONTINUOUS
10
-17.384000
20
-85.000000
30
0.0
11
-14.969000
21
-85.000000
31
0.0
0
LINE
8
0
6
CONTINUOUS
10
-14.969000
20
-85.000000
30
0.0
11
-14.321000
21
-85.000000
31
0.0
0
LINE
8
0
6
CONTINUOUS
10
-17.384000
20
-83.000000
30
0.0
11
-17.384000
21
-85.000000
31
0.0
0
LINE
8
0
6
CONTINUOUS
10
-14.969000
20
-83.000000
30
0.0
11
-14.969000
21
-85.000000
31
0.0
0
LINE
8
0
6
CONTINUOUS
10
-17.384000
20
-85.000000
30
0.0
11
-17.384000
21
-83.000000
31
0.0
0
LINE
8
0
6
CONTINUOUS
10
-14.969000
20
-85.000000
30
0.0
11
-17.384000
21
-85.000000
31
0.0
0
LINE
8
0
6
CONTINUOUS
10
-14.321000
20
-83.000000
30
0.0
11
-14.321000
21
-85.000000
31
0.0
0
LINE
8
0
6
CONTINUOUS
10
-14.969000
20
-85.000000
30
0.0
11
-14.969000
21
-83.000000
31
0.0
0
LINE
8
0
6
CONTINUOUS
10
-14.321000
20
-85.000000
30
0.0
11
-14.969000
21
-85.000000
31
0.0
0
LINE
8
0
6
CONTINUOUS
10
-24.027000
20
-85.000000
30
0.0
11
-24.027000
21
-83.000000
31
0.0
0
LINE
8
0
6
CONTINUOUS
10
-27.089000
20
-85.000000
30
0.0
11
-24.675000
21
-85.000000
31
0.0
0
LINE
8
0
6
CONTINUOUS
10
-24.675000
20
-85.000000
30
0.0
11
-24.027000
21
-85.000000
31
0.0
0
LINE
8
0
6
CONTINUOUS
10
-27.089000
20
-83.000000
30
0.0
11
-27.089000
21
-85.000000
31
0.0
0
LINE
8
0
6
CONTINUOUS
10
-24.675000
20
-83.000000
30
0.0
11
-24.675000
21
-85.000000
31
0.0
0
LINE
8
0
6
CONTINUOUS
10
-27.089000
20
-85.000000
30
0.0
11
-27.089000
21
-83.000000
31
0.0
0
LINE
8
0
6
CONTINUOUS
10
-24.675000
20
-85.000000
30
0.0
11
-27.089000
21
-85.000000
31
0.0
0
LINE
8
0
6
CONTINUOUS
10
-24.027000
20
-83.000000
30
0.0
11
-24.027000
21
-85.000000
31
0.0
0
LINE
8
0
6
CONTINUOUS
10
-24.675000
20
-85.000000
30
0.0
11
-24.675000
21
-83.000000
31
0.0
0
LINE
8
0
6
CONTINUOUS
10
-24.027000
20
-85.000000
30
0.0
11
-24.675000
21
-85.000000
31
0.0
0
LINE
8
0
6
CONTINUOUS
10
-47.668000
20
-85.000000
30
0.0
11
-47.668000
21
-83.000000
31
0.0
0
LINE
8
0
6
CONTINUOUS
10
-51.082500
20
-85.000000
30
0.0
11
-48.918000
21
-85.000000
31
0.0
0
LINE
8
0
6
CONTINUOUS
10
-48.918000
20
-85.000000
30
0.0
11
-47.668000
21
-85.000000
31
0.0
0
LINE
8
0
6
CONTINUOUS
10
-51.082500
20
-83.000000
30
0.0
11
-51.082500
21
-85.000000
31
0.0
0
LINE
8
0
6
CONTINUOUS
10
-48.918000
20
-83.000000
30
0.0
11
-48.918000
21
-85.000000
31
0.0
0
LINE
8
0
6
CONTINUOUS
10
-51.082500
20
-83.000000
30
0.0
11
-48.918000
21
-83.000000
31
0.0
0
LINE
8
0
6
CONTINUOUS
10
-51.082500
20
-85.000000
30
0.0
11
-51.082500
21
-83.000000
31
0.0
0
LINE
8
0
6
CONTINUOUS
10
-48.918000
20
-85.000000
30
0.0
11
-51.082500
21
-85.000000
31
0.0
0
LINE
8
0
6
CONTINUOUS
10
-47.668000
20
-83.000000
30
0.0
11
-47.668000
21
-85.000000
31
0.0
0
LINE
8
0
6
CONTINUOUS
10
-48.918000
20
-83.000000
30
0.0
11
-47.668000
21
-83.000000
31
0.0
0
LINE
8
0
6
CONTINUOUS
10
-48.918000
20
-85.000000
30
0.0
11
-48.918000
21
-83.000000
31
0.0
0
LINE
8
0
6
CONTINUOUS
10
-47.668000
20
-85.000000
30
0.0
11
-48.918000
21
-85.000000
31
0.0
0
LINE
8
0
6
CONTINUOUS
10
-38.293000
20
-85.000000
30
0.0
11
-38.293000
21
-83.000000
31
0.0
0
LINE
8
0
6
CONTINUOUS
10
-41.707000
20
-85.000000
30
0.0
11
-39.543000
21
-85.000000
31
0.0
0
LINE
8
0
6
CONTINUOUS
10
-39.543000
20
-85.000000
30
0.0
11
-38.293000
21
-85.000000
31
0.0
0
LINE
8
0
6
CONTINUOUS
10
-41.707000
20
-83.000000
30
0.0
11
-41.707000
21
-85.000000
31
0.0
0
LINE
8
0
6
CONTINUOUS
10
-39.543000
20
-83.000000
30
0.0
11
-39.543000
21
-85.000000
31
0.0
0
LINE
8
0
6
CONTINUOUS
10
-41.707000
20
-85.000000
30
0.0
11
-41.707000
21
-83.000000
31
0.0
0
LINE
8
0
6
CONTINUOUS
10
-39.543000
20
-85.000000
30
0.0
11
-41.707000
21
-85.000000
31
0.0
0
LINE
8
0
6
CONTINUOUS
10
-38.293000
20
-83.000000
30
0.0
11
-38.293000
21
-85.000000
31
0.0
0
LINE
8
0
6
CONTINUOUS
10
-39.543000
20
-85.000000
30
0.0
11
-39.543000
21
-83.000000
31
0.0
0
LINE
8
0
6
CONTINUOUS
10
-38.293000
20
-85.000000
30
0.0
11
-39.543000
21
-85.000000
31
0.0
0
LINE
8
0
6
CONTINUOUS
10
-71.594600
20
-85.000000
30
0.0
11
-69.826800
21
-85.000000
31
0.0
0
LINE
8
0
6
CONTINUOUS
10
-71.594600
20
-83.000000
30
0.0
11
-71.594600
21
-85.000000
31
0.0
0
LINE
8
0
6
CONTINUOUS
10
-71.594600
20
-85.000000
30
0.0
11
-71.594600
21
-83.000000
31
0.0
0
LINE
8
0
6
CONTINUOUS
10
-69.826800
20
-85.000000
30
0.0
11
-71.594600
21
-85.000000
31
0.0
0
LINE
8
0
6
CONTINUOUS
10
-32.332000
20
-83.000000
30
0.0
11
-32.332000
21
-85.000000
31
0.0
0
LINE
8
0
6
CONTINUOUS
10
-32.332000
20
-85.000000
30
0.0
11
-32.332000
21
-83.000000
31
0.0
0
LINE
8
0
6
CONTINUOUS
10
-45.078000
20
-85.000000
30
0.0
11
-43.310000
21
-85.000000
31
0.0
0
LINE
8
0
6
CONTINUOUS
10
-43.310000
20
-85.000000
30
0.0
11
-41.543000
21
-85.000000
31
0.0
0
LINE
8
0
6
CONTINUOUS
10
-45.078000
20
-83.000000
30
0.0
11
-45.078000
21
-85.000000
31
0.0
0
LINE
8
0
6
CONTINUOUS
10
-43.310000
20
-83.000000
30
0.0
11
-43.310000
21
-85.000000
31
0.0
0
LINE
8
0
6
CONTINUOUS
10
-45.078000
20
-83.000000
30
0.0
11
-43.310000
21
-83.000000
31
0.0
0
LINE
8
0
6
CONTINUOUS
10
-45.078000
20
-85.000000
30
0.0
11
-45.078000
21
-83.000000
31
0.0
0
LINE
8
0
6
CONTINUOUS
10
-43.310000
20
-85.000000
30
0.0
11
-45.078000
21
-85.000000
31
0.0
0
LINE
8
0
6
CONTINUOUS
10
-43.310000
20
-83.000000
30
0.0
11
-41.543000
21
-83.000000
31
0.0
0
LINE
8
0
6
CONTINUOUS
10
-43.310000
20
-85.000000
30
0.0
11
-43.310000
21
-83.000000
31
0.0
0
LINE
8
0
6
CONTINUOUS
10
-41.543000
20
-85.000000
30
0.0
11
-43.310000
21
-85.000000
31
0.0
0
LINE
8
0
6
CONTINUOUS
10
-28.284000
20
-85.000000
30
0.0
11
-28.284000
21
-83.000000
31
0.0
0
LINE
8
0
6
CONTINUOUS
10
-28.284000
20
-83.000000
30
0.0
11
-28.284000
21
-85.000000
31
0.0
0
LINE
8
0
6
CONTINUOUS
10
-54.800800
20
-85.000000
30
0.0
11
-54.800800
21
-83.000000
31
0.0
0
LINE
8
0
6
CONTINUOUS
10
-56.568500
20
-85.000000
30
0.0
11
-54.800800
21
-85.000000
31
0.0
0
LINE
8
0
6
CONTINUOUS
10
-56.568500
20
-83.000000
30
0.0
11
-56.568500
21
-85.000000
31
0.0
0
LINE
8
0
6
CONTINUOUS
10
-54.800800
20
-83.000000
30
0.0
11
-54.800800
21
-85.000000
31
0.0
0
LINE
8
0
6
CONTINUOUS
10
-56.568500
20
-83.000000
30
0.0
11
-54.800800
21
-83.000000
31
0.0
0
LINE
8
0
6
CONTINUOUS
10
-56.568500
20
-85.000000
30
0.0
11
-56.568500
21
-83.000000
31
0.0
0
LINE
8
0
6
CONTINUOUS
10
-54.800800
20
-85.000000
30
0.0
11
-56.568500
21
-85.000000
31
0.0
0
LINE
8
0
6
CONTINUOUS
10
-22.957000
20
-83.000000
30
0.0
11
-22.957000
21
-85.000000
31
0.0
0
LINE
8
0
6
CONTINUOUS
10
-22.957000
20
-85.000000
30
0.0
11
-22.957000
21
-83.000000
31
0.0
0
LINE
8
0
6
CONTINUOUS
10
-57.042500
20
-85.000000
30
0.0
11
-57.042500
21
-83.000000
31
0.0
0
LINE
8
0
6
CONTINUOUS
10
-60.457500
20
-85.000000
30
0.0
11
-58.292500
21
-85.000000
31
0.0
0
LINE
8
0
6
CONTINUOUS
10
-58.292500
20
-85.000000
30
0.0
11
-57.042500
21
-85.000000
31
0.0
0
LINE
8
0
6
CONTINUOUS
10
-60.457500
20
-83.000000
30
0.0
11
-60.457500
21
-85.000000
31
0.0
0
LINE
8
0
6
CONTINUOUS
10
-58.292500
20
-83.000000
30
0.0
11
-58.292500
21
-85.000000
31
0.0
0
LINE
8
0
6
CONTINUOUS
10
-60.457500
20
-85.000000
30
0.0
11
-60.457500
21
-83.000000
31
0.0
0
LINE
8
0
6
CONTINUOUS
10
-58.292500
20
-85.000000
30
0.0
11
-60.457500
21
-85.000000
31
0.0
0
LINE
8
0
6
CONTINUOUS
10
-57.042500
20
-83.000000
30
0.0
11
-57.042500
21
-85.000000
31
0.0
0
LINE
8
0
6
CONTINUOUS
10
-58.292500
20
-85.000000
30
0.0
11
-58.292500
21
-83.000000
31
0.0
0
LINE
8
0
6
CONTINUOUS
10
-57.042500
20
-85.000000
30
0.0
11
-58.292500
21
-85.000000
31
0.0
0
LINE
8
0
6
CONTINUOUS
10
-81.317300
20
-85.000000
30
0.0
11
-81.317300
21
-83.000000
31
0.0
0
LINE
8
0
6
CONTINUOUS
10
-84.852900
20
-85.000000
30
0.0
11
-83.085000
21
-85.000000
31
0.0
0
LINE
8
0
6
CONTINUOUS
10
-83.085000
20
-85.000000
30
0.0
11
-81.317300
21
-85.000000
31
0.0
0
LINE
8
0
6
CONTINUOUS
10
-84.852900
20
-83.000000
30
0.0
11
-84.852900
21
-85.000000
31
0.0
0
LINE
8
0
6
CONTINUOUS
10
-83.085000
20
-83.000000
30
0.0
11
-83.085000
21
-85.000000
31
0.0
0
LINE
8
0
6
CONTINUOUS
10
-84.852900
20
-85.000000
30
0.0
11
-84.852900
21
-83.000000
31
0.0
0
LINE
8
0
6
CONTINUOUS
10
-83.085000
20
-85.000000
30
0.0
11
-84.852900
21
-85.000000
31
0.0
0
LINE
8
0
6
CONTINUOUS
10
-81.317300
20
-83.000000
30
0.0
11
-81.317300
21
-85.000000
31
0.0
0
LINE
8
0
6
CONTINUOUS
10
-83.085000
20
-85.000000
30
0.0
11
-83.085000
21
-83.000000
31
0.0
0
LINE
8
0
6
CONTINUOUS
10
-81.317300
20
-85.000000
30
0.0
11
-83.085000
21
-85.000000
31
0.0
0
LINE
8
0
6
CONTINUOUS
10
-94.575500
20
-85.000000
30
0.0
11
-94.575500
21
-83.000000
31
0.0
0
LINE
8
0
6
CONTINUOUS
10
-98.111100
20
-85.000000
30
0.0
11
-96.343300
21
-85.000000
31
0.0
0
LINE
8
0
6
CONTINUOUS
10
-96.343300
20
-85.000000
30
0.0
11
-94.575500
21
-85.000000
31
0.0
0
LINE
8
0
6
CONTINUOUS
10
-98.111100
20
-83.000000
30
0.0
11
-98.111100
21
-85.000000
31
0.0
0
LINE
8
0
6
CONTINUOUS
10
-96.343300
20
-83.000000
30
0.0
11
-96.343300
21
-85.000000
31
0.0
0
LINE
8
0
6
CONTINUOUS
10
-98.111100
20
-85.000000
30
0.0
11
-98.111100
21
-83.000000
31
0.0
0
LINE
8
0
6
CONTINUOUS
10
-96.343300
20
-85.000000
30
0.0
11
-98.111100
21
-85.000000
31
0.0
0
LINE
8
0
6
CONTINUOUS
10
-94.575500
20
-83.000000
30
0.0
11
-94.575500
21
-85.000000
31
0.0
0
LINE
8
0
6
CONTINUOUS
10
-96.343300
20
-85.000000
30
0.0
11
-96.343300
21
-83.000000
31
0.0
0
LINE
8
0
6
CONTINUOUS
10
-94.575500
20
-85.000000
30
0.0
11
-96.343300
21
-85.000000
31
0.0
0
LINE
8
0
6
CONTINUOUS
10
-18.561000
20
-85.000000
30
0.0
11
-16.794000
21
-85.000000
31
0.0
0
LINE
8
0
6
CONTINUOUS
10
-18.561000
20
-83.000000
30
0.0
11
-18.561000
21
-85.000000
31
0.0
0
LINE
8
0
6
CONTINUOUS
10
-18.561000
20
-85.000000
30
0.0
11
-18.561000
21
-83.000000
31
0.0
0
LINE
8
0
6
CONTINUOUS
10
-16.794000
20
-85.000000
30
0.0
11
-18.561000
21
-85.000000
31
0.0
0
LINE
8
0
6
CONTINUOUS
10
135.000000
20
-85.000000
30
0.0
11
135.000000
21
-83.000000
31
0.0
0
LINE
8
0
6
CONTINUOUS
10
137.500000
20
-85.000000
30
0.0
11
135.000000
21
-85.000000
31
0.0
0
LINE
8
0
6
CONTINUOUS
10
137.500000
20
-83.000000
30
0.0
11
137.500000
21
-85.000000
31
0.0
0
LINE
8
0
6
CONTINUOUS
10
135.000000
20
-83.000000
30
0.0
11
135.000000
21
-85.000000
31
0.0
0
LINE
8
0
6
CONTINUOUS
10
137.500000
20
-85.000000
30
0.0
11
137.500000
21
-83.000000
31
0.0
0
LINE
8
0
6
CONTINUOUS
10
135.000000
20
-85.000000
30
0.0
11
137.500000
21
-85.000000
31
0.0
0
LINE
8
0
6
CONTINUOUS
10
116.250000
20
-85.000000
30
0.0
11
116.250000
21
-83.000000
31
0.0
0
LINE
8
0
6
CONTINUOUS
10
116.250000
20
-83.000000
30
0.0
11
116.250000
21
-85.000000
31
0.0
0
LINE
8
0
6
CONTINUOUS
10
100.000000
20
-85.000000
30
0.0
11
97.500000
21
-85.000000
31
0.0
0
LINE
8
0
6
CONTINUOUS
10
100.000000
20
-83.000000
30
0.0
11
100.000000
21
-85.000000
31
0.0
0
LINE
8
0
6
CONTINUOUS
10
100.000000
20
-85.000000
30
0.0
11
100.000000
21
-83.000000
31
0.0
0
LINE
8
0
6
CONTINUOUS
10
97.500000
20
-85.000000
30
0.0
11
100.000000
21
-85.000000
31
0.0
0
LINE
8
0
6
CONTINUOUS
10
81.250000
20
-85.000000
30
0.0
11
78.750000
21
-85.000000
31
0.0
0
LINE
8
0
6
CONTINUOUS
10
81.250000
20
-83.000000
30
0.0
11
81.250000
21
-85.000000
31
0.0
0
LINE
8
0
6
CONTINUOUS
10
81.250000
20
-83.000000
30
0.0
11
78.750000
21
-83.000000
31
0.0
0
LINE
8
0
6
CONTINUOUS
10
81.250000
20
-85.000000
30
0.0
11
81.250000
21
-83.000000
31
0.0
0
LINE
8
0
6
CONTINUOUS
10
78.750000
20
-85.000000
30
0.0
11
81.250000
21
-85.000000
31
0.0
0
LINE
8
0
6
CONTINUOUS
10
62.500000
20
-85.000000
30
0.0
11
60.000000
21
-85.000000
31
0.0
0
LINE
8
0
6
CONTINUOUS
10
62.500000
20
-83.000000
30
0.0
11
62.500000
21
-85.000000
31
0.0
0
LINE
8
0
6
CONTINUOUS
10
62.500000
20
-85.000000
30
0.0
11
62.500000
21
-83.000000
31
0.0
0
LINE
8
0
6
CONTINUOUS
10
60.000000
20
-85.000000
30
0.0
11
62.500000
21
-85.000000
31
0.0
0
LINE
8
0
6
CONTINUOUS
10
-38.514000
20
-85.000000
30
0.0
11
-37.264000
21
-85.000000
31
0.0
0
LINE
8
0
6
CONTINUOUS
10
-37.264000
20
-83.000000
30
0.0
11
-37.264000
21
-85.000000
31
0.0
0
LINE
8
0
6
CONTINUOUS
10
-37.264000
20
-85.000000
30
0.0
11
-38.514000
21
-85.000000
31
0.0
0
LINE
8
0
6
CONTINUOUS
10
-37.264000
20
-85.000000
30
0.0
11
-37.264000
21
-83.000000
31
0.0
0
LINE
8
0
6
CONTINUOUS
10
-75.743100
20
-85.000000
30
0.0
11
-75.743100
21
-83.000000
31
0.0
0
LINE
8
0
6
CONTINUOUS
10
-78.805000
20
-85.000000
30
0.0
11
-78.158000
21
-85.000000
31
0.0
0
LINE
8
0
6
CONTINUOUS
10
-78.158000
20
-85.000000
30
0.0
11
-75.743100
21
-85.000000
31
0.0
0
LINE
8
0
6
CONTINUOUS
10
-78.805000
20
-83.000000
30
0.0
11
-78.805000
21
-85.000000
31
0.0
0
LINE
8
0
6
CONTINUOUS
10
-78.158000
20
-83.000000
30
0.0
11
-78.158000
21
-85.000000
31
0.0
0
LINE
8
0
6
CONTINUOUS
10
-78.805000
20
-85.000000
30
0.0
11
-78.805000
21
-83.000000
31
0.0
0
LINE
8
0
6
CONTINUOUS
10
-78.158000
20
-85.000000
30
0.0
11
-78.805000
21
-85.000000
31
0.0
0
LINE
8
0
6
CONTINUOUS
10
-75.743100
20
-83.000000
30
0.0
11
-75.743100
21
-85.000000
31
0.0
0
LINE
8
0
6
CONTINUOUS
10
-78.158000
20
-85.000000
30
0.0
11
-78.158000
21
-83.000000
31
0.0
0
LINE
8
0
6
CONTINUOUS
10
-75.743100
20
-85.000000
30
0.0
11
-78.158000
21
-85.000000
31
0.0
0
LINE
8
0
6
CONTINUOUS
10
-51.336500
20
-85.000000
30
0.0
11
-51.336500
21
-83.000000
31
0.0
0
LINE
8
0
6
CONTINUOUS
10
-54.751600
20
-85.000000
30
0.0
11
-53.501600
21
-85.000000
31
0.0
0
LINE
8
0
6
CONTINUOUS
10
-53.501600
20
-85.000000
30
0.0
11
-51.336500
21
-85.000000
31
0.0
0
LINE
8
0
6
CONTINUOUS
10
-54.751600
20
-83.000000
30
0.0
11
-54.751600
21
-85.000000
31
0.0
0
LINE
8
0
6
CONTINUOUS
10
-53.501600
20
-83.000000
30
0.0
11
-53.501600
21
-85.000000
31
0.0
0
LINE
8
0
6
CONTINUOUS
10
-54.751600
20
-83.000000
30
0.0
11
-53.501600
21
-83.000000
31
0.0
0
LINE
8
0
6
CONTINUOUS
10
-54.751600
20
-85.000000
30
0.0
11
-54.751600
21
-83.000000
31
0.0
0
LINE
8
0
6
CONTINUOUS
10
-53.501600
20
-85.000000
30
0.0
11
-54.751600
21
-85.000000
31
0.0
0
LINE
8
0
6
CONTINUOUS
10
-51.336500
20
-83.000000
30
0.0
11
-51.336500
21
-85.000000
31
0.0
0
LINE
8
0
6
CONTINUOUS
10
-53.501600
20
-83.000000
30
0.0
11
-51.336500
21
-83.000000
31
0.0
0
LINE
8
0
6
CONTINUOUS
10
-53.501600
20
-85.000000
30
0.0
11
-53.501600
21
-83.000000
31
0.0
0
LINE
8
0
6
CONTINUOUS
10
-51.336500
20
-85.000000
30
0.0
11
-53.501600
21
-85.000000
31
0.0
0
LINE
8
0
6
CONTINUOUS
10
-116.288400
20
-85.000000
30
0.0
11
-116.288400
21
-83.000000
31
0.0
0
LINE
8
0
6
CONTINUOUS
10
-119.703500
20
-85.000000
30
0.0
11
-118.453500
21
-85.000000
31
0.0
0
LINE
8
0
6
CONTINUOUS
10
-118.453500
20
-85.000000
30
0.0
11
-116.288400
21
-85.000000
31
0.0
0
LINE
8
0
6
CONTINUOUS
10
-119.703500
20
-83.000000
30
0.0
11
-119.703500
21
-85.000000
31
0.0
0
LINE
8
0
6
CONTINUOUS
10
-118.453500
20
-83.000000
30
0.0
11
-118.453500
21
-85.000000
31
0.0
0
LINE
8
0
6
CONTINUOUS
10
-119.703500
20
-85.000000
30
0.0
11
-119.703500
21
-83.000000
31
0.0
0
LINE
8
0
6
CONTINUOUS
10
-118.453500
20
-85.000000
30
0.0
11
-119.703500
21
-85.000000
31
0.0
0
LINE
8
0
6
CONTINUOUS
10
-116.288400
20
-83.000000
30
0.0
11
-116.288400
21
-85.000000
31
0.0
0
LINE
8
0
6
CONTINUOUS
10
-118.453500
20
-85.000000
30
0.0
11
-118.453500
21
-83.000000
31
0.0
0
LINE
8
0
6
CONTINUOUS
10
-116.288400
20
-85.000000
30
0.0
11
-118.453500
21
-85.000000
31
0.0
0
LINE
8
0
6
CONTINUOUS
10
-87.227500
20
-85.000000
30
0.0
11
-85.977500
21
-85.000000
31
0.0
0
LINE
8
0
6
CONTINUOUS
10
-85.977500
20
-85.000000
30
0.0
11
-83.812500
21
-85.000000
31
0.0
0
LINE
8
0
6
CONTINUOUS
10
-87.227500
20
-83.000000
30
0.0
11
-87.227500
21
-85.000000
31
0.0
0
LINE
8
0
6
CONTINUOUS
10
-85.977500
20
-83.000000
30
0.0
11
-85.977500
21
-85.000000
31
0.0
0
LINE
8
0
6
CONTINUOUS
10
-87.227500
20
-85.000000
30
0.0
11
-87.227500
21
-83.000000
31
0.0
0
LINE
8
0
6
CONTINUOUS
10
-85.977500
20
-85.000000
30
0.0
11
-87.227500
21
-85.000000
31
0.0
0
LINE
8
0
6
CONTINUOUS
10
-85.977500
20
-85.000000
30
0.0
11
-85.977500
21
-83.000000
31
0.0
0
LINE
8
0
6
CONTINUOUS
10
-83.812500
20
-85.000000
30
0.0
11
-85.977500
21
-85.000000
31
0.0
0
LINE
8
0
6
CONTINUOUS
10
-93.854300
20
-85.000000
30
0.0
11
-93.854300
21
-83.000000
31
0.0
0
LINE
8
0
6
CONTINUOUS
10
-93.854300
20
-83.000000
30
0.0
11
-93.854300
21
-85.000000
31
0.0
0
LINE
8
0
6
CONTINUOUS
10
-111.965400
20
-85.000000
30
0.0
11
-111.965400
21
-83.000000
31
0.0
0
LINE
8
0
6
CONTINUOUS
10
-115.027200
20
-85.000000
30
0.0
11
-114.380100
21
-85.000000
31
0.0
0
LINE
8
0
6
CONTINUOUS
10
-114.380100
20
-85.000000
30
0.0
11
-111.965400
21
-85.000000
31
0.0
0
LINE
8
0
6
CONTINUOUS
10
-115.027200
20
-83.000000
30
0.0
11
-115.027200
21
-85.000000
31
0.0
0
LINE
8
0
6
CONTINUOUS
10
-114.380100
20
-83.000000
30
0.0
11
-114.380100
21
-85.000000
31
0.0
0
LINE
8
0
6
CONTINUOUS
10
-115.027200
20
-85.000000
30
0.0
11
-115.027200
21
-83.000000
31
0.0
0
LINE
8
0
6
CONTINUOUS
10
-114.380100
20
-85.000000
30
0.0
11
-115.027200
21
-85.000000
31
0.0
0
LINE
8
0
6
CONTINUOUS
10
-111.965400
20
-83.000000
30
0.0
11
-111.965400
21
-85.000000
31
0.0
0
LINE
8
0
6
CONTINUOUS
10
-114.380100
20
-85.000000
30
0.0
11
-114.380100
21
-83.000000
31
0.0
0
LINE
8
0
6
CONTINUOUS
10
-111.965400
20
-85.000000
30
0.0
11
-114.380100
21
-85.000000
31
0.0
0
LINE
8
0
6
CONTINUOUS
10
-130.076500
20
-85.000000
30
0.0
11
-130.076500
21
-83.000000
31
0.0
0
LINE
8
0
6
CONTINUOUS
10
-133.138400
20
-85.000000
30
0.0
11
-132.491200
21
-85.000000
31
0.0
0
LINE
8
0
6
CONTINUOUS
10
-132.491200
20
-85.000000
30
0.0
11
-130.076500
21
-85.000000
31
0.0
0
LINE
8
0
6
CONTINUOUS
10
-133.138400
20
-83.000000
30
0.0
11
-133.138400
21
-85.000000
31
0.0
0
LINE
8
0
6
CONTINUOUS
10
-132.491200
20
-83.000000
30
0.0
11
-132.491200
21
-85.000000
31
0.0
0
LINE
8
0
6
CONTINUOUS
10
-133.138400
20
-85.000000
30
0.0
11
-133.138400
21
-83.000000
31
0.0
0
LINE
8
0
6
CONTINUOUS
10
-132.491200
20
-85.000000
30
0.0
11
-133.138400
21
-85.000000
31
0.0
0
LINE
8
0
6
CONTINUOUS
10
-130.076500
20
-83.000000
30
0.0
11
-130.076500
21
-85.000000
31
0.0
0
LINE
8
0
6
CONTINUOUS
10
-132.491200
20
-85.000000
30
0.0
11
-132.491200
21
-83.000000
31
0.0
0
LINE
8
0
6
CONTINUOUS
10
-130.076500
20
-85.000000
30
0.0
11
-132.491200
21
-85.000000
31
0.0
0
LINE
8
0
6
CONTINUOUS
10
-100.050500
20
-85.000000
30
0.0
11
-100.050500
21
-83.000000
31
0.0
0
LINE
8
0
6
CONTINUOUS
10
-103.465500
20
-85.000000
30
0.0
11
-102.215500
21
-85.000000
31
0.0
0
LINE
8
0
6
CONTINUOUS
10
-102.215500
20
-85.000000
30
0.0
11
-100.050500
21
-85.000000
31
0.0
0
LINE
8
0
6
CONTINUOUS
10
-103.465500
20
-83.000000
30
0.0
11
-103.465500
21
-85.000000
31
0.0
0
LINE
8
0
6
CONTINUOUS
10
-102.215500
20
-83.000000
30
0.0
11
-102.215500
21
-85.000000
31
0.0
0
LINE
8
0
6
CONTINUOUS
10
-103.465500
20
-85.000000
30
0.0
11
-103.465500
21
-83.000000
31
0.0
0
LINE
8
0
6
CONTINUOUS
10
-102.215500
20
-85.000000
30
0.0
11
-103.465500
21
-85.000000
31
0.0
0
LINE
8
0
6
CONTINUOUS
10
-100.050500
20
-83.000000
30
0.0
11
-100.050500
21
-85.000000
31
0.0
0
LINE
8
0
6
CONTINUOUS
10
-102.215500
20
-85.000000
30
0.0
11
-102.215500
21
-83.000000
31
0.0
0
LINE
8
0
6
CONTINUOUS
10
-100.050500
20
-85.000000
30
0.0
11
-102.215500
21
-85.000000
31
0.0
0
LINE
8
0
6
CONTINUOUS
10
-18.860000
20
-85.000000
30
0.0
11
-18.860000
21
-83.000000
31
0.0
0
LINE
8
0
6
CONTINUOUS
10
-18.860000
20
-83.000000
30
0.0
11
-18.860000
21
-85.000000
31
0.0
0
LINE
8
0
6
CONTINUOUS
10
-62.500000
20
-85.000000
30
0.0
11
-60.000000
21
-85.000000
31
0.0
0
LINE
8
0
6
CONTINUOUS
10
-62.500000
20
-83.000000
30
0.0
11
-62.500000
21
-85.000000
31
0.0
0
LINE
8
0
6
CONTINUOUS
10
-62.500000
20
-85.000000
30
0.0
11
-62.500000
21
-83.000000
31
0.0
0
LINE
8
0
6
CONTINUOUS
10
-60.000000
20
-85.000000
30
0.0
11
-62.500000
21
-85.000000
31
0.0
0
LINE
8
0
6
CONTINUOUS
10
-60.693900
20
-83.000000
30
0.0
11
-60.693900
21
-85.000000
31
0.0
0
LINE
8
0
6
CONTINUOUS
10
-60.693900
20
-85.000000
30
0.0
11
-60.693900
21
-83.000000
31
0.0
0
LINE
8
0
6
CONTINUOUS
10
-23.825000
20
-83.000000
30
0.0
11
-23.825000
21
-85.000000
31
0.0
0
LINE
8
0
6
CONTINUOUS
10
-23.825000
20
-85.000000
30
0.0
11
-23.825000
21
-83.000000
31
0.0
0
LINE
8
0
6
CONTINUOUS
10
-100.000000
20
-85.000000
30
0.0
11
-97.500000
21
-85.000000
31
0.0
0
LINE
8
0
6
CONTINUOUS
10
-100.000000
20
-83.000000
30
0.0
11
-100.000000
21
-85.000000
31
0.0
0
LINE
8
0
6
CONTINUOUS
10
-100.000000
20
-85.000000
30
0.0
11
-100.000000
21
-83.000000
31
0.0
0
LINE
8
0
6
CONTINUOUS
10
-97.500000
20
-85.000000
30
0.0
11
-100.000000
21
-85.000000
31
0.0
0
LINE
8
0
6
CONTINUOUS
10
-116.250000
20
-85.000000
30
0.0
11
-116.250000
21
-83.000000
31
0.0
0
LINE
8
0
6
CONTINUOUS
10
-116.250000
20
-83.000000
30
0.0
11
-116.250000
21
-85.000000
31
0.0
0
LINE
8
0
6
CONTINUOUS
10
-135.000000
20
-85.000000
30
0.0
11
-135.000000
21
-83.000000
31
0.0
0
LINE
8
0
6
CONTINUOUS
10
-137.500000
20
-85.000000
30
0.0
11
-135.000000
21
-85.000000
31
0.0
0
LINE
8
0
6
CONTINUOUS
10
-137.500000
20
-83.000000
30
0.0
11
-137.500000
21
-85.000000
31
0.0
0
LINE
8
0
6
CONTINUOUS
10
-135.000000
20
-83.000000
30
0.0
11
-135.000000
21
-85.000000
31
0.0
0
LINE
8
0
6
CONTINUOUS
10
-137.500000
20
-85.000000
30
0.0
11
-137.500000
21
-83.000000
31
0.0
0
LINE
8
0
6
CONTINUOUS
10
-135.000000
20
-85.000000
30
0.0
11
-137.500000
21
-85.000000
31
0.0
0
LINE
8
0
6
CONTINUOUS
10
-81.250000
20
-85.000000
30
0.0
11
-78.750000
21
-85.000000
31
0.0
0
LINE
8
0
6
CONTINUOUS
10
-81.250000
20
-83.000000
30
0.0
11
-81.250000
21
-85.000000
31
0.0
0
LINE
8
0
6
CONTINUOUS
10
-81.250000
20
-85.000000
30
0.0
11
-81.250000
21
-83.000000
31
0.0
0
LINE
8
0
6
CONTINUOUS
10
-78.750000
20
-85.000000
30
0.0
11
-81.250000
21
-85.000000
31
0.0
0
LINE
8
0
6
CONTINUOUS
10
94.575000
20
-85.000000
30
0.0
11
94.575000
21
-83.000000
31
0.0
0
LINE
8
0
6
CONTINUOUS
10
98.111000
20
-85.000000
30
0.0
11
96.344000
21
-85.000000
31
0.0
0
LINE
8
0
6
CONTINUOUS
10
96.344000
20
-85.000000
30
0.0
11
94.575000
21
-85.000000
31
0.0
0
LINE
8
0
6
CONTINUOUS
10
98.111000
20
-83.000000
30
0.0
11
98.111000
21
-85.000000
31
0.0
0
LINE
8
0
6
CONTINUOUS
10
96.344000
20
-83.000000
30
0.0
11
96.344000
21
-85.000000
31
0.0
0
LINE
8
0
6
CONTINUOUS
10
98.111000
20
-85.000000
30
0.0
11
98.111000
21
-83.000000
31
0.0
0
LINE
8
0
6
CONTINUOUS
10
96.344000
20
-85.000000
30
0.0
11
98.111000
21
-85.000000
31
0.0
0
LINE
8
0
6
CONTINUOUS
10
94.575000
20
-83.000000
30
0.0
11
94.575000
21
-85.000000
31
0.0
0
LINE
8
0
6
CONTINUOUS
10
96.344000
20
-85.000000
30
0.0
11
96.344000
21
-83.000000
31
0.0
0
LINE
8
0
6
CONTINUOUS
10
94.575000
20
-85.000000
30
0.0
11
96.344000
21
-85.000000
31
0.0
0
LINE
8
0
6
CONTINUOUS
10
116.289000
20
-85.000000
30
0.0
11
116.289000
21
-83.000000
31
0.0
0
LINE
8
0
6
CONTINUOUS
10
119.704000
20
-85.000000
30
0.0
11
118.454000
21
-85.000000
31
0.0
0
LINE
8
0
6
CONTINUOUS
10
118.454000
20
-85.000000
30
0.0
11
116.289000
21
-85.000000
31
0.0
0
LINE
8
0
6
CONTINUOUS
10
119.704000
20
-83.000000
30
0.0
11
119.704000
21
-85.000000
31
0.0
0
LINE
8
0
6
CONTINUOUS
10
118.454000
20
-83.000000
30
0.0
11
118.454000
21
-85.000000
31
0.0
0
LINE
8
0
6
CONTINUOUS
10
119.704000
20
-85.000000
30
0.0
11
119.704000
21
-83.000000
31
0.0
0
LINE
8
0
6
CONTINUOUS
10
118.454000
20
-85.000000
30
0.0
11
119.704000
21
-85.000000
31
0.0
0
LINE
8
0
6
CONTINUOUS
10
116.289000
20
-83.000000
30
0.0
11
116.289000
21
-85.000000
31
0.0
0
LINE
8
0
6
CONTINUOUS
10
118.454000
20
-85.000000
30
0.0
11
118.454000
21
-83.000000
31
0.0
0
LINE
8
0
6
CONTINUOUS
10
116.289000
20
-85.000000
30
0.0
11
118.454000
21
-85.000000
31
0.0
0
LINE
8
0
6
CONTINUOUS
10
130.076000
20
-85.000000
30
0.0
11
130.076000
21
-83.000000
31
0.0
0
LINE
8
0
6
CONTINUOUS
10
133.139000
20
-85.000000
30
0.0
11
132.491000
21
-85.000000
31
0.0
0
LINE
8
0
6
CONTINUOUS
10
132.491000
20
-85.000000
30
0.0
11
130.076000
21
-85.000000
31
0.0
0
LINE
8
0
6
CONTINUOUS
10
133.139000
20
-83.000000
30
0.0
11
133.139000
21
-85.000000
31
0.0
0
LINE
8
0
6
CONTINUOUS
10
132.491000
20
-83.000000
30
0.0
11
132.491000
21
-85.000000
31
0.0
0
LINE
8
0
6
CONTINUOUS
10
133.139000
20
-85.000000
30
0.0
11
133.139000
21
-83.000000
31
0.0
0
LINE
8
0
6
CONTINUOUS
10
132.491000
20
-85.000000
30
0.0
11
133.139000
21
-85.000000
31
0.0
0
LINE
8
0
6
CONTINUOUS
10
130.076000
20
-83.000000
30
0.0
11
130.076000
21
-85.000000
31
0.0
0
LINE
8
0
6
CONTINUOUS
10
132.491000
20
-85.000000
30
0.0
11
132.491000
21
-83.000000
31
0.0
0
LINE
8
0
6
CONTINUOUS
10
130.076000
20
-85.000000
30
0.0
11
132.491000
21
-85.000000
31
0.0
0
LINE
8
0
6
CONTINUOUS
10
111.965000
20
-85.000000
30
0.0
11
111.965000
21
-83.000000
31
0.0
0
LINE
8
0
6
CONTINUOUS
10
115.027000
20
-85.000000
30
0.0
11
114.380000
21
-85.000000
31
0.0
0
LINE
8
0
6
CONTINUOUS
10
114.380000
20
-85.000000
30
0.0
11
111.965000
21
-85.000000
31
0.0
0
LINE
8
0
6
CONTINUOUS
10
115.027000
20
-83.000000
30
0.0
11
115.027000
21
-85.000000
31
0.0
0
LINE
8
0
6
CONTINUOUS
10
114.380000
20
-83.000000
30
0.0
11
114.380000
21
-85.000000
31
0.0
0
LINE
8
0
6
CONTINUOUS
10
115.027000
20
-85.000000
30
0.0
11
115.027000
21
-83.000000
31
0.0
0
LINE
8
0
6
CONTINUOUS
10
114.380000
20
-85.000000
30
0.0
11
115.027000
21
-85.000000
31
0.0
0
LINE
8
0
6
CONTINUOUS
10
111.965000
20
-83.000000
30
0.0
11
111.965000
21
-85.000000
31
0.0
0
LINE
8
0
6
CONTINUOUS
10
114.380000
20
-85.000000
30
0.0
11
114.380000
21
-83.000000
31
0.0
0
LINE
8
0
6
CONTINUOUS
10
111.965000
20
-85.000000
30
0.0
11
114.380000
21
-85.000000
31
0.0
0
LINE
8
0
6
CONTINUOUS
10
93.854000
20
-85.000000
30
0.0
11
93.854000
21
-83.000000
31
0.0
0
LINE
8
0
6
CONTINUOUS
10
93.854000
20
-83.000000
30
0.0
11
93.854000
21
-85.000000
31
0.0
0
LINE
8
0
6
CONTINUOUS
10
100.050000
20
-85.000000
30
0.0
11
100.050000
21
-83.000000
31
0.0
0
LINE
8
0
6
CONTINUOUS
10
103.465000
20
-85.000000
30
0.0
11
102.215000
21
-85.000000
31
0.0
0
LINE
8
0
6
CONTINUOUS
10
102.215000
20
-85.000000
30
0.0
11
100.050000
21
-85.000000
31
0.0
0
LINE
8
0
6
CONTINUOUS
10
103.465000
20
-83.000000
30
0.0
11
103.465000
21
-85.000000
31
0.0
0
LINE
8
0
6
CONTINUOUS
10
102.215000
20
-83.000000
30
0.0
11
102.215000
21
-85.000000
31
0.0
0
LINE
8
0
6
CONTINUOUS
10
103.465000
20
-85.000000
30
0.0
11
103.465000
21
-83.000000
31
0.0
0
LINE
8
0
6
CONTINUOUS
10
102.215000
20
-85.000000
30
0.0
11
103.465000
21
-85.000000
31
0.0
0
LINE
8
0
6
CONTINUOUS
10
100.050000
20
-83.000000
30
0.0
11
100.050000
21
-85.000000
31
0.0
0
LINE
8
0
6
CONTINUOUS
10
102.215000
20
-85.000000
30
0.0
11
102.215000
21
-83.000000
31
0.0
0
LINE
8
0
6
CONTINUOUS
10
100.050000
20
-85.000000
30
0.0
11
102.215000
21
-85.000000
31
0.0
0
LINE
8
0
6
CONTINUOUS
10
81.318000
20
-85.000000
30
0.0
11
81.318000
21
-83.000000
31
0.0
0
LINE
8
0
6
CONTINUOUS
10
84.852000
20
-85.000000
30
0.0
11
83.085000
21
-85.000000
31
0.0
0
LINE
8
0
6
CONTINUOUS
10
83.085000
20
-85.000000
30
0.0
11
81.318000
21
-85.000000
31
0.0
0
LINE
8
0
6
CONTINUOUS
10
84.852000
20
-83.000000
30
0.0
11
84.852000
21
-85.000000
31
0.0
0
LINE
8
0
6
CONTINUOUS
10
83.085000
20
-83.000000
30
0.0
11
83.085000
21
-85.000000
31
0.0
0
LINE
8
0
6
CONTINUOUS
10
84.852000
20
-83.000000
30
0.0
11
83.085000
21
-83.000000
31
0.0
0
LINE
8
0
6
CONTINUOUS
10
84.852000
20
-85.000000
30
0.0
11
84.852000
21
-83.000000
31
0.0
0
LINE
8
0
6
CONTINUOUS
10
83.085000
20
-85.000000
30
0.0
11
84.852000
21
-85.000000
31
0.0
0
LINE
8
0
6
CONTINUOUS
10
81.318000
20
-83.000000
30
0.0
11
81.318000
21
-85.000000
31
0.0
0
LINE
8
0
6
CONTINUOUS
10
83.085000
20
-83.000000
30
0.0
11
81.318000
21
-83.000000
31
0.0
0
LINE
8
0
6
CONTINUOUS
10
83.085000
20
-85.000000
30
0.0
11
83.085000
21
-83.000000
31
0.0
0
LINE
8
0
6
CONTINUOUS
10
81.318000
20
-85.000000
30
0.0
11
83.085000
21
-85.000000
31
0.0
0
LINE
8
0
6
CONTINUOUS
10
71.595000
20
-85.000000
30
0.0
11
69.826000
21
-85.000000
31
0.0
0
LINE
8
0
6
CONTINUOUS
10
71.595000
20
-83.000000
30
0.0
11
71.595000
21
-85.000000
31
0.0
0
LINE
8
0
6
CONTINUOUS
10
71.595000
20
-85.000000
30
0.0
11
71.595000
21
-83.000000
31
0.0
0
LINE
8
0
6
CONTINUOUS
10
69.826000
20
-85.000000
30
0.0
11
71.595000
21
-85.000000
31
0.0
0
LINE
8
0
6
CONTINUOUS
10
87.227000
20
-85.000000
30
0.0
11
85.977000
21
-85.000000
31
0.0
0
LINE
8
0
6
CONTINUOUS
10
85.977000
20
-85.000000
30
0.0
11
83.813000
21
-85.000000
31
0.0
0
LINE
8
0
6
CONTINUOUS
10
87.227000
20
-83.000000
30
0.0
11
87.227000
21
-85.000000
31
0.0
0
LINE
8
0
6
CONTINUOUS
10
85.977000
20
-83.000000
30
0.0
11
85.977000
21
-85.000000
31
0.0
0
LINE
8
0
6
CONTINUOUS
10
87.227000
20
-85.000000
30
0.0
11
87.227000
21
-83.000000
31
0.0
0
LINE
8
0
6
CONTINUOUS
10
85.977000
20
-85.000000
30
0.0
11
87.227000
21
-85.000000
31
0.0
0
LINE
8
0
6
CONTINUOUS
10
85.977000
20
-83.000000
30
0.0
11
83.813000
21
-83.000000
31
0.0
0
LINE
8
0
6
CONTINUOUS
10
85.977000
20
-85.000000
30
0.0
11
85.977000
21
-83.000000
31
0.0
0
LINE
8
0
6
CONTINUOUS
10
83.813000
20
-85.000000
30
0.0
11
85.977000
21
-85.000000
31
0.0
0
LINE
8
0
6
CONTINUOUS
10
75.744000
20
-85.000000
30
0.0
11
75.744000
21
-83.000000
31
0.0
0
LINE
8
0
6
CONTINUOUS
10
78.805000
20
-85.000000
30
0.0
11
78.158000
21
-85.000000
31
0.0
0
LINE
8
0
6
CONTINUOUS
10
78.158000
20
-85.000000
30
0.0
11
75.744000
21
-85.000000
31
0.0
0
LINE
8
0
6
CONTINUOUS
10
78.805000
20
-83.000000
30
0.0
11
78.805000
21
-85.000000
31
0.0
0
LINE
8
0
6
CONTINUOUS
10
78.158000
20
-83.000000
30
0.0
11
78.158000
21
-85.000000
31
0.0
0
LINE
8
0
6
CONTINUOUS
10
78.805000
20
-83.000000
30
0.0
11
78.158000
21
-83.000000
31
0.0
0
LINE
8
0
6
CONTINUOUS
10
78.805000
20
-85.000000
30
0.0
11
78.805000
21
-83.000000
31
0.0
0
LINE
8
0
6
CONTINUOUS
10
78.158000
20
-85.000000
30
0.0
11
78.805000
21
-85.000000
31
0.0
0
LINE
8
0
6
CONTINUOUS
10
75.744000
20
-83.000000
30
0.0
11
75.744000
21
-85.000000
31
0.0
0
LINE
8
0
6
CONTINUOUS
10
78.158000
20
-83.000000
30
0.0
11
75.744000
21
-83.000000
31
0.0
0
LINE
8
0
6
CONTINUOUS
10
78.158000
20
-85.000000
30
0.0
11
78.158000
21
-83.000000
31
0.0
0
LINE
8
0
6
CONTINUOUS
10
75.744000
20
-85.000000
30
0.0
11
78.158000
21
-85.000000
31
0.0
0
LINE
8
0
6
CONTINUOUS
10
54.801000
20
-85.000000
30
0.0
11
54.801000
21
-83.000000
31
0.0
0
LINE
8
0
6
CONTINUOUS
10
56.569000
20
-85.000000
30
0.0
11
54.801000
21
-85.000000
31
0.0
0
LINE
8
0
6
CONTINUOUS
10
56.569000
20
-83.000000
30
0.0
11
56.569000
21
-85.000000
31
0.0
0
LINE
8
0
6
CONTINUOUS
10
54.801000
20
-83.000000
30
0.0
11
54.801000
21
-85.000000
31
0.0
0
LINE
8
0
6
CONTINUOUS
10
56.569000
20
-85.000000
30
0.0
11
56.569000
21
-83.000000
31
0.0
0
LINE
8
0
6
CONTINUOUS
10
54.801000
20
-85.000000
30
0.0
11
56.569000
21
-85.000000
31
0.0
0
LINE
8
0
6
CONTINUOUS
10
45.077000
20
-85.000000
30
0.0
11
43.310000
21
-85.000000
31
0.0
0
LINE
8
0
6
CONTINUOUS
10
43.310000
20
-85.000000
30
0.0
11
41.542000
21
-85.000000
31
0.0
0
LINE
8
0
6
CONTINUOUS
10
45.077000
20
-83.000000
30
0.0
11
45.077000
21
-85.000000
31
0.0
0
LINE
8
0
6
CONTINUOUS
10
43.310000
20
-83.000000
30
0.0
11
43.310000
21
-85.000000
31
0.0
0
LINE
8
0
6
CONTINUOUS
10
45.077000
20
-85.000000
30
0.0
11
45.077000
21
-83.000000
31
0.0
0
LINE
8
0
6
CONTINUOUS
10
43.310000
20
-85.000000
30
0.0
11
45.077000
21
-85.000000
31
0.0
0
LINE
8
0
6
CONTINUOUS
10
43.310000
20
-85.000000
30
0.0
11
43.310000
21
-83.000000
31
0.0
0
LINE
8
0
6
CONTINUOUS
10
41.542000
20
-85.000000
30
0.0
11
43.310000
21
-85.000000
31
0.0
0
LINE
8
0
6
CONTINUOUS
10
51.336000
20
-85.000000
30
0.0
11
51.336000
21
-83.000000
31
0.0
0
LINE
8
0
6
CONTINUOUS
10
54.751000
20
-85.000000
30
0.0
11
53.501000
21
-85.000000
31
0.0
0
LINE
8
0
6
CONTINUOUS
10
53.501000
20
-85.000000
30
0.0
11
51.336000
21
-85.000000
31
0.0
0
LINE
8
0
6
CONTINUOUS
10
54.751000
20
-83.000000
30
0.0
11
54.751000
21
-85.000000
31
0.0
0
LINE
8
0
6
CONTINUOUS
10
53.501000
20
-83.000000
30
0.0
11
53.501000
21
-85.000000
31
0.0
0
LINE
8
0
6
CONTINUOUS
10
54.751000
20
-85.000000
30
0.0
11
54.751000
21
-83.000000
31
0.0
0
LINE
8
0
6
CONTINUOUS
10
53.501000
20
-85.000000
30
0.0
11
54.751000
21
-85.000000
31
0.0
0
LINE
8
0
6
CONTINUOUS
10
51.336000
20
-83.000000
30
0.0
11
51.336000
21
-85.000000
31
0.0
0
LINE
8
0
6
CONTINUOUS
10
53.501000
20
-85.000000
30
0.0
11
53.501000
21
-83.000000
31
0.0
0
LINE
8
0
6
CONTINUOUS
10
51.336000
20
-85.000000
30
0.0
11
53.501000
21
-85.000000
31
0.0
0
LINE
8
0
6
CONTINUOUS
10
60.694000
20
-83.000000
30
0.0
11
60.694000
21
-85.000000
31
0.0
0
LINE
8
0
6
CONTINUOUS
10
60.694000
20
-85.000000
30
0.0
11
60.694000
21
-83.000000
31
0.0
0
LINE
8
0
6
CONTINUOUS
10
28.284000
20
-85.000000
30
0.0
11
28.284000
21
-83.000000
31
0.0
0
LINE
8
0
6
CONTINUOUS
10
28.284000
20
-83.000000
30
0.0
11
28.284000
21
-85.000000
31
0.0
0
LINE
8
0
6
CONTINUOUS
10
23.825000
20
-83.000000
30
0.0
11
23.825000
21
-85.000000
31
0.0
0
LINE
8
0
6
CONTINUOUS
10
23.825000
20
-85.000000
30
0.0
11
23.825000
21
-83.000000
31
0.0
0
LINE
8
0
6
CONTINUOUS
10
18.561000
20
-85.000000
30
0.0
11
16.794000
21
-85.000000
31
0.0
0
LINE
8
0
6
CONTINUOUS
10
18.561000
20
-83.000000
30
0.0
11
18.561000
21
-85.000000
31
0.0
0
LINE
8
0
6
CONTINUOUS
10
18.561000
20
-85.000000
30
0.0
11
18.561000
21
-83.000000
31
0.0
0
LINE
8
0
6
CONTINUOUS
10
16.794000
20
-85.000000
30
0.0
11
18.561000
21
-85.000000
31
0.0
0
LINE
8
0
6
CONTINUOUS
10
18.860000
20
-85.000000
30
0.0
11
18.860000
21
-83.000000
31
0.0
0
LINE
8
0
6
CONTINUOUS
10
18.860000
20
-83.000000
30
0.0
11
18.860000
21
-85.000000
31
0.0
0
LINE
8
0
6
CONTINUOUS
10
38.514000
20
-85.000000
30
0.0
11
37.264000
21
-85.000000
31
0.0
0
LINE
8
0
6
CONTINUOUS
10
37.264000
20
-83.000000
30
0.0
11
37.264000
21
-85.000000
31
0.0
0
LINE
8
0
6
CONTINUOUS
10
37.264000
20
-85.000000
30
0.0
11
38.514000
21
-85.000000
31
0.0
0
LINE
8
0
6
CONTINUOUS
10
37.264000
20
-85.000000
30
0.0
11
37.264000
21
-83.000000
31
0.0
0
LINE
8
0
6
CONTINUOUS
10
66.417000
20
-85.000000
30
0.0
11
66.417000
21
-83.000000
31
0.0
0
LINE
8
0
6
CONTINUOUS
10
69.833000
20
-85.000000
30
0.0
11
67.667000
21
-85.000000
31
0.0
0
LINE
8
0
6
CONTINUOUS
10
67.667000
20
-85.000000
30
0.0
11
66.417000
21
-85.000000
31
0.0
0
LINE
8
0
6
CONTINUOUS
10
69.833000
20
-83.000000
30
0.0
11
69.833000
21
-85.000000
31
0.0
0
LINE
8
0
6
CONTINUOUS
10
67.667000
20
-83.000000
30
0.0
11
67.667000
21
-85.000000
31
0.0
0
LINE
8
0
6
CONTINUOUS
10
69.833000
20
-85.000000
30
0.0
11
69.833000
21
-83.000000
31
0.0
0
LINE
8
0
6
CONTINUOUS
10
67.667000
20
-85.000000
30
0.0
11
69.833000
21
-85.000000
31
0.0
0
LINE
8
0
6
CONTINUOUS
10
66.417000
20
-83.000000
30
0.0
11
66.417000
21
-85.000000
31
0.0
0
LINE
8
0
6
CONTINUOUS
10
67.667000
20
-85.000000
30
0.0
11
67.667000
21
-83.000000
31
0.0
0
LINE
8
0
6
CONTINUOUS
10
66.417000
20
-85.000000
30
0.0
11
67.667000
21
-85.000000
31
0.0
0
LINE
8
0
6
CONTINUOUS
10
57.042000
20
-85.000000
30
0.0
11
57.042000
21
-83.000000
31
0.0
0
LINE
8
0
6
CONTINUOUS
10
60.458000
20
-85.000000
30
0.0
11
58.292000
21
-85.000000
31
0.0
0
LINE
8
0
6
CONTINUOUS
10
58.292000
20
-85.000000
30
0.0
11
57.042000
21
-85.000000
31
0.0
0
LINE
8
0
6
CONTINUOUS
10
60.458000
20
-83.000000
30
0.0
11
60.458000
21
-85.000000
31
0.0
0
LINE
8
0
6
CONTINUOUS
10
58.292000
20
-83.000000
30
0.0
11
58.292000
21
-85.000000
31
0.0
0
LINE
8
0
6
CONTINUOUS
10
60.458000
20
-85.000000
30
0.0
11
60.458000
21
-83.000000
31
0.0
0
LINE
8
0
6
CONTINUOUS
10
58.292000
20
-85.000000
30
0.0
11
60.458000
21
-85.000000
31
0.0
0
LINE
8
0
6
CONTINUOUS
10
57.042000
20
-83.000000
30
0.0
11
57.042000
21
-85.000000
31
0.0
0
LINE
8
0
6
CONTINUOUS
10
58.292000
20
-85.000000
30
0.0
11
58.292000
21
-83.000000
31
0.0
0
LINE
8
0
6
CONTINUOUS
10
57.042000
20
-85.000000
30
0.0
11
58.292000
21
-85.000000
31
0.0
0
LINE
8
0
6
CONTINUOUS
10
47.667000
20
-85.000000
30
0.0
11
47.667000
21
-83.000000
31
0.0
0
LINE
8
0
6
CONTINUOUS
10
51.083000
20
-85.000000
30
0.0
11
48.917000
21
-85.000000
31
0.0
0
LINE
8
0
6
CONTINUOUS
10
48.917000
20
-85.000000
30
0.0
11
47.667000
21
-85.000000
31
0.0
0
LINE
8
0
6
CONTINUOUS
10
51.083000
20
-83.000000
30
0.0
11
51.083000
21
-85.000000
31
0.0
0
LINE
8
0
6
CONTINUOUS
10
48.917000
20
-83.000000
30
0.0
11
48.917000
21
-85.000000
31
0.0
0
LINE
8
0
6
CONTINUOUS
10
51.083000
20
-85.000000
30
0.0
11
51.083000
21
-83.000000
31
0.0
0
LINE
8
0
6
CONTINUOUS
10
48.917000
20
-85.000000
30
0.0
11
51.083000
21
-85.000000
31
0.0
0
LINE
8
0
6
CONTINUOUS
10
47.667000
20
-83.000000
30
0.0
11
47.667000
21
-85.000000
31
0.0
0
LINE
8
0
6
CONTINUOUS
10
48.917000
20
-85.000000
30
0.0
11
48.917000
21
-83.000000
31
0.0
0
LINE
8
0
6
CONTINUOUS
10
47.667000
20
-85.000000
30
0.0
11
48.917000
21
-85.000000
31
0.0
0
LINE
8
0
6
CONTINUOUS
10
32.333000
20
-83.000000
30
0.0
11
32.333000
21
-85.000000
31
0.0
0
LINE
8
0
6
CONTINUOUS
10
32.333000
20
-85.000000
30
0.0
11
32.333000
21
-83.000000
31
0.0
0
LINE
8
0
6
CONTINUOUS
10
38.292000
20
-85.000000
30
0.0
11
38.292000
21
-83.000000
31
0.0
0
LINE
8
0
6
CONTINUOUS
10
41.708000
20
-85.000000
30
0.0
11
39.542000
21
-85.000000
31
0.0
0
LINE
8
0
6
CONTINUOUS
10
39.542000
20
-85.000000
30
0.0
11
38.292000
21
-85.000000
31
0.0
0
LINE
8
0
6
CONTINUOUS
10
41.708000
20
-83.000000
30
0.0
11
41.708000
21
-85.000000
31
0.0
0
LINE
8
0
6
CONTINUOUS
10
39.542000
20
-83.000000
30
0.0
11
39.542000
21
-85.000000
31
0.0
0
LINE
8
0
6
CONTINUOUS
10
41.708000
20
-85.000000
30
0.0
11
41.708000
21
-83.000000
31
0.0
0
LINE
8
0
6
CONTINUOUS
10
39.542000
20
-85.000000
30
0.0
11
41.708000
21
-85.000000
31
0.0
0
LINE
8
0
6
CONTINUOUS
10
38.292000
20
-83.000000
30
0.0
11
38.292000
21
-85.000000
31
0.0
0
LINE
8
0
6
CONTINUOUS
10
39.542000
20
-85.000000
30
0.0
11
39.542000
21
-83.000000
31
0.0
0
LINE
8
0
6
CONTINUOUS
10
38.292000
20
-85.000000
30
0.0
11
39.542000
21
-85.000000
31
0.0
0
LINE
8
0
6
CONTINUOUS
10
22.958000
20
-83.000000
30
0.0
11
22.958000
21
-85.000000
31
0.0
0
LINE
8
0
6
CONTINUOUS
10
22.958000
20
-85.000000
30
0.0
11
22.958000
21
-83.000000
31
0.0
0
LINE
8
0
6
CONTINUOUS
10
13.583000
20
-83.000000
30
0.0
11
13.583000
21
-85.000000
31
0.0
0
LINE
8
0
6
CONTINUOUS
10
13.583000
20
-85.000000
30
0.0
11
13.583000
21
-83.000000
31
0.0
0
LINE
8
0
6
CONTINUOUS
10
33.734000
20
-85.000000
30
0.0
11
33.734000
21
-83.000000
31
0.0
0
LINE
8
0
6
CONTINUOUS
10
36.795000
20
-85.000000
30
0.0
11
34.380000
21
-85.000000
31
0.0
0
LINE
8
0
6
CONTINUOUS
10
34.380000
20
-85.000000
30
0.0
11
33.734000
21
-85.000000
31
0.0
0
LINE
8
0
6
CONTINUOUS
10
36.795000
20
-83.000000
30
0.0
11
36.795000
21
-85.000000
31
0.0
0
LINE
8
0
6
CONTINUOUS
10
34.380000
20
-83.000000
30
0.0
11
34.380000
21
-85.000000
31
0.0
0
LINE
8
0
6
CONTINUOUS
10
36.795000
20
-85.000000
30
0.0
11
36.795000
21
-83.000000
31
0.0
0
LINE
8
0
6
CONTINUOUS
10
34.380000
20
-85.000000
30
0.0
11
36.795000
21
-85.000000
31
0.0
0
LINE
8
0
6
CONTINUOUS
10
33.734000
20
-83.000000
30
0.0
11
33.734000
21
-85.000000
31
0.0
0
LINE
8
0
6
CONTINUOUS
10
34.380000
20
-85.000000
30
0.0
11
34.380000
21
-83.000000
31
0.0
0
LINE
8
0
6
CONTINUOUS
10
33.734000
20
-85.000000
30
0.0
11
34.380000
21
-85.000000
31
0.0
0
LINE
8
0
6
CONTINUOUS
10
28.880000
20
-85.000000
30
0.0
11
28.880000
21
-83.000000
31
0.0
0
LINE
8
0
6
CONTINUOUS
10
31.943000
20
-85.000000
30
0.0
11
29.527000
21
-85.000000
31
0.0
0
LINE
8
0
6
CONTINUOUS
10
29.527000
20
-85.000000
30
0.0
11
28.880000
21
-85.000000
31
0.0
0
LINE
8
0
6
CONTINUOUS
10
31.943000
20
-83.000000
30
0.0
11
31.943000
21
-85.000000
31
0.0
0
LINE
8
0
6
CONTINUOUS
10
29.527000
20
-83.000000
30
0.0
11
29.527000
21
-85.000000
31
0.0
0
LINE
8
0
6
CONTINUOUS
10
31.943000
20
-83.000000
30
0.0
11
29.527000
21
-83.000000
31
0.0
0
LINE
8
0
6
CONTINUOUS
10
31.943000
20
-85.000000
30
0.0
11
31.943000
21
-83.000000
31
0.0
0
LINE
8
0
6
CONTINUOUS
10
29.527000
20
-85.000000
30
0.0
11
31.943000
21
-85.000000
31
0.0
0
LINE
8
0
6
CONTINUOUS
10
28.880000
20
-83.000000
30
0.0
11
28.880000
21
-85.000000
31
0.0
0
LINE
8
0
6
CONTINUOUS
10
29.527000
20
-83.000000
30
0.0
11
28.880000
21
-83.000000
31
0.0
0
LINE
8
0
6
CONTINUOUS
10
29.527000
20
-85.000000
30
0.0
11
29.527000
21
-83.000000
31
0.0
0
LINE
8
0
6
CONTINUOUS
10
28.880000
20
-85.000000
30
0.0
11
29.527000
21
-85.000000
31
0.0
0
LINE
8
0
6
CONTINUOUS
10
24.027000
20
-85.000000
30
0.0
11
24.027000
21
-83.000000
31
0.0
0
LINE
8
0
6
CONTINUOUS
10
27.089000
20
-85.000000
30
0.0
11
24.675000
21
-85.000000
31
0.0
0
LINE
8
0
6
CONTINUOUS
10
24.675000
20
-85.000000
30
0.0
11
24.027000
21
-85.000000
31
0.0
0
LINE
8
0
6
CONTINUOUS
10
27.089000
20
-83.000000
30
0.0
11
27.089000
21
-85.000000
31
0.0
0
LINE
8
0
6
CONTINUOUS
10
24.675000
20
-83.000000
30
0.0
11
24.675000
21
-85.000000
31
0.0
0
LINE
8
0
6
CONTINUOUS
10
27.089000
20
-83.000000
30
0.0
11
24.675000
21
-83.000000
31
0.0
0
LINE
8
0
6
CONTINUOUS
10
27.089000
20
-85.000000
30
0.0
11
27.089000
21
-83.000000
31
0.0
0
LINE
8
0
6
CONTINUOUS
10
24.675000
20
-85.000000
30
0.0
11
27.089000
21
-85.000000
31
0.0
0
LINE
8
0
6
CONTINUOUS
10
24.027000
20
-83.000000
30
0.0
11
24.027000
21
-85.000000
31
0.0
0
LINE
8
0
6
CONTINUOUS
10
24.675000
20
-83.000000
30
0.0
11
24.027000
21
-83.000000
31
0.0
0
LINE
8
0
6
CONTINUOUS
10
24.675000
20
-85.000000
30
0.0
11
24.675000
21
-83.000000
31
0.0
0
LINE
8
0
6
CONTINUOUS
10
24.027000
20
-85.000000
30
0.0
11
24.675000
21
-85.000000
31
0.0
0
LINE
8
0
6
CONTINUOUS
10
19.175000
20
-85.000000
30
0.0
11
19.175000
21
-83.000000
31
0.0
0
LINE
8
0
6
CONTINUOUS
10
22.236000
20
-85.000000
30
0.0
11
19.821000
21
-85.000000
31
0.0
0
LINE
8
0
6
CONTINUOUS
10
19.821000
20
-85.000000
30
0.0
11
19.175000
21
-85.000000
31
0.0
0
LINE
8
0
6
CONTINUOUS
10
22.236000
20
-83.000000
30
0.0
11
22.236000
21
-85.000000
31
0.0
0
LINE
8
0
6
CONTINUOUS
10
19.821000
20
-83.000000
30
0.0
11
19.821000
21
-85.000000
31
0.0
0
LINE
8
0
6
CONTINUOUS
10
22.236000
20
-83.000000
30
0.0
11
19.821000
21
-83.000000
31
0.0
0
LINE
8
0
6
CONTINUOUS
10
22.236000
20
-85.000000
30
0.0
11
22.236000
21
-83.000000
31
0.0
0
LINE
8
0
6
CONTINUOUS
10
19.821000
20
-85.000000
30
0.0
11
22.236000
21
-85.000000
31
0.0
0
LINE
8
0
6
CONTINUOUS
10
19.175000
20
-83.000000
30
0.0
11
19.175000
21
-85.000000
31
0.0
0
LINE
8
0
6
CONTINUOUS
10
19.821000
20
-85.000000
30
0.0
11
19.821000
21
-83.000000
31
0.0
0
LINE
8
0
6
CONTINUOUS
10
19.175000
20
-85.000000
30
0.0
11
19.821000
21
-85.000000
31
0.0
0
LINE
8
0
6
CONTINUOUS
10
14.321000
20
-85.000000
30
0.0
11
14.321000
21
-83.000000
31
0.0
0
LINE
8
0
6
CONTINUOUS
10
17.384000
20
-85.000000
30
0.0
11
14.969000
21
-85.000000
31
0.0
0
LINE
8
0
6
CONTINUOUS
10
14.969000
20
-85.000000
30
0.0
11
14.321000
21
-85.000000
31
0.0
0
LINE
8
0
6
CONTINUOUS
10
17.384000
20
-83.000000
30
0.0
11
17.384000
21
-85.000000
31
0.0
0
LINE
8
0
6
CONTINUOUS
10
14.969000
20
-83.000000
30
0.0
11
14.969000
21
-85.000000
31
0.0
0
LINE
8
0
6
CONTINUOUS
10
17.384000
20
-85.000000
30
0.0
11
17.384000
21
-83.000000
31
0.0
0
LINE
8
0
6
CONTINUOUS
10
14.969000
20
-85.000000
30
0.0
11
17.384000
21
-85.000000
31
0.0
0
LINE
8
0
6
CONTINUOUS
10
14.321000
20
-83.000000
30
0.0
11
14.321000
21
-85.000000
31
0.0
0
LINE
8
0
6
CONTINUOUS
10
14.969000
20
-85.000000
30
0.0
11
14.969000
21
-83.000000
31
0.0
0
LINE
8
0
6
CONTINUOUS
10
14.321000
20
-85.000000
30
0.0
11
14.969000
21
-85.000000
31
0.0
0
LINE
8
0
6
CONTINUOUS
10
9.469000
20
-85.000000
30
0.0
11
9.469000
21
-83.000000
31
0.0
0
LINE
8
0
6
CONTINUOUS
10
12.531000
20
-85.000000
30
0.0
11
10.116000
21
-85.000000
31
0.0
0
LINE
8
0
6
CONTINUOUS
10
10.116000
20
-85.000000
30
0.0
11
9.469000
21
-85.000000
31
0.0
0
LINE
8
0
6
CONTINUOUS
10
12.531000
20
-83.000000
30
0.0
11
12.531000
21
-85.000000
31
0.0
0
LINE
8
0
6
CONTINUOUS
10
10.116000
20
-83.000000
30
0.0
11
10.116000
21
-85.000000
31
0.0
0
LINE
8
0
6
CONTINUOUS
10
12.531000
20
-85.000000
30
0.0
11
12.531000
21
-83.000000
31
0.0
0
LINE
8
0
6
CONTINUOUS
10
10.116000
20
-85.000000
30
0.0
11
12.531000
21
-85.000000
31
0.0
0
LINE
8
0
6
CONTINUOUS
10
9.469000
20
-83.000000
30
0.0
11
9.469000
21
-85.000000
31
0.0
0
LINE
8
0
6
CONTINUOUS
10
10.116000
20
-85.000000
30
0.0
11
10.116000
21
-83.000000
31
0.0
0
LINE
8
0
6
CONTINUOUS
10
9.469000
20
-85.000000
30
0.0
11
10.116000
21
-85.000000
31
0.0
0
LINE
8
0
6
CONTINUOUS
10
4.616000
20
-85.000000
30
0.0
11
4.616000
21
-83.000000
31
0.0
0
LINE
8
0
6
CONTINUOUS
10
7.678000
20
-85.000000
30
0.0
11
5.262000
21
-85.000000
31
0.0
0
LINE
8
0
6
CONTINUOUS
10
5.262000
20
-85.000000
30
0.0
11
4.616000
21
-85.000000
31
0.0
0
LINE
8
0
6
CONTINUOUS
10
7.678000
20
-83.000000
30
0.0
11
7.678000
21
-85.000000
31
0.0
0
LINE
8
0
6
CONTINUOUS
10
5.262000
20
-83.000000
30
0.0
11
5.262000
21
-85.000000
31
0.0
0
LINE
8
0
6
CONTINUOUS
10
7.678000
20
-85.000000
30
0.0
11
7.678000
21
-83.000000
31
0.0
0
LINE
8
0
6
CONTINUOUS
10
5.262000
20
-85.000000
30
0.0
11
7.678000
21
-85.000000
31
0.0
0
LINE
8
0
6
CONTINUOUS
10
4.616000
20
-83.000000
30
0.0
11
4.616000
21
-85.000000
31
0.0
0
LINE
8
0
6
CONTINUOUS
10
5.262000
20
-85.000000
30
0.0
11
5.262000
21
-83.000000
31
0.0
0
LINE
8
0
6
CONTINUOUS
10
4.616000
20
-85.000000
30
0.0
11
5.262000
21
-85.000000
31
0.0
0
LINE
8
0
6
CONTINUOUS
10
1.250000
20
-85.000000
30
0.0
11
-1.250000
21
-85.000000
31
0.0
0
LINE
8
0
6
CONTINUOUS
10
1.250000
20
-83.000000
30
0.0
11
1.250000
21
-85.000000
31
0.0
0
LINE
8
0
6
CONTINUOUS
10
-1.250000
20
-83.000000
30
0.0
11
-1.250000
21
-85.000000
31
0.0
0
LINE
8
0
6
CONTINUOUS
10
1.250000
20
-85.000000
30
0.0
11
1.250000
21
-83.000000
31
0.0
0
LINE
8
0
6
CONTINUOUS
10
-1.250000
20
-85.000000
30
0.0
11
1.250000
21
-85.000000
31
0.0
0
LINE
8
0
6
CONTINUOUS
10
-1.250000
20
-85.000000
30
0.0
11
-1.250000
21
-83.000000
31
0.0
0
LINE
8
0
6
CONTINUOUS
10
105.000000
20
-71.000000
30
0.0
11
90.375000
21
-71.000000
31
0.0
0
LINE
8
0
6
CONTINUOUS
10
90.375000
20
-71.000000
30
0.0
11
74.000000
21
-71.000000
31
0.0
0
LINE
8
0
6
CONTINUOUS
10
74.000000
20
-71.000000
30
0.0
11
56.875000
21
-71.000000
31
0.0
0
LINE
8
0
6
CONTINUOUS
10
56.875000
20
-71.000000
30
0.0
11
50.000000
21
-71.000000
31
0.0
0
LINE
8
0
6
CONTINUOUS
10
90.375000
20
-71.000000
30
0.0
11
105.000000
21
-71.000000
31
0.0
0
LINE
8
0
6
CONTINUOUS
10
74.000000
20
-71.000000
30
0.0
11
90.375000
21
-71.000000
31
0.0
0
LINE
8
0
6
CONTINUOUS
10
56.875000
20
-71.000000
30
0.0
11
74.000000
21
-71.000000
31
0.0
0
LINE
8
0
6
CONTINUOUS
10
50.000000
20
-71.000000
30
0.0
11
56.875000
21
-71.000000
31
0.0
0
LINE
8
0
6
CONTINUOUS
10
81.318000
20
-83.000000
30
0.0
11
81.250000
21
-83.000000
31
0.0
0
LINE
8
0
6
CONTINUOUS
10
75.744000
20
-83.000000
30
0.0
11
74.000000
21
-83.000000
31
0.0
0
LINE
8
0
6
CONTINUOUS
10
33.734000
20
-83.000000
30
0.0
11
32.333000
21
-83.000000
31
0.0
0
LINE
8
0
6
CONTINUOUS
10
28.284000
20
-83.000000
30
0.0
11
27.089000
21
-83.000000
31
0.0
0
LINE
8
0
6
CONTINUOUS
10
74.000000
20
-83.000000
30
0.0
11
75.744000
21
-83.000000
31
0.0
0
LINE
8
0
6
CONTINUOUS
10
81.250000
20
-83.000000
30
0.0
11
81.318000
21
-83.000000
31
0.0
0
LINE
8
0
6
CONTINUOUS
10
27.089000
20
-83.000000
30
0.0
11
28.284000
21
-83.000000
31
0.0
0
LINE
8
0
6
CONTINUOUS
10
32.333000
20
-83.000000
30
0.0
11
33.734000
21
-83.000000
31
0.0
0
LINE
8
0
6
CONTINUOUS
10
117.750000
20
-71.000000
30
0.0
11
105.000000
21
-71.000000
31
0.0
0
LINE
8
0
6
CONTINUOUS
10
128.875000
20
-71.000000
30
0.0
11
117.750000
21
-71.000000
31
0.0
0
LINE
8
0
6
CONTINUOUS
10
137.125000
20
-71.000000
30
0.0
11
128.875000
21
-71.000000
31
0.0
0
LINE
8
0
6
CONTINUOUS
10
143.375000
20
-71.000000
30
0.0
11
137.125000
21
-71.000000
31
0.0
0
LINE
8
0
6
CONTINUOUS
10
147.250000
20
-71.000000
30
0.0
11
143.375000
21
-71.000000
31
0.0
0
LINE
8
0
6
CONTINUOUS
10
148.750000
20
-71.000000
30
0.0
11
147.250000
21
-71.000000
31
0.0
0
LINE
8
0
6
CONTINUOUS
10
105.000000
20
-71.000000
30
0.0
11
117.750000
21
-71.000000
31
0.0
0
LINE
8
0
6
CONTINUOUS
10
117.750000
20
-71.000000
30
0.0
11
128.875000
21
-71.000000
31
0.0
0
LINE
8
0
6
CONTINUOUS
10
128.875000
20
-71.000000
30
0.0
11
137.125000
21
-71.000000
31
0.0
0
LINE
8
0
6
CONTINUOUS
10
137.125000
20
-71.000000
30
0.0
11
143.375000
21
-71.000000
31
0.0
0
LINE
8
0
6
CONTINUOUS
10
143.375000
20
-71.000000
30
0.0
11
147.250000
21
-71.000000
31
0.0
0
LINE
8
0
6
CONTINUOUS
10
147.250000
20
-71.000000
30
0.0
11
148.750000
21
-71.000000
31
0.0
0
LINE
8
0
6
CONTINUOUS
10
143.375000
20
-83.000000
30
0.0
11
137.500000
21
-83.000000
31
0.0
0
LINE
8
0
6
CONTINUOUS
10
137.500000
20
-83.000000
30
0.0
11
143.375000
21
-83.000000
31
0.0
0
LINE
8
0
6
CONTINUOUS
10
105.000000
20
-71.000000
30
0.0
11
117.750000
21
-71.000000
31
0.0
0
LINE
8
0
6
CONTINUOUS
10
117.750000
20
-71.000000
30
0.0
11
128.875000
21
-71.000000
31
0.0
0
LINE
8
0
6
CONTINUOUS
10
128.875000
20
-71.000000
30
0.0
11
137.125000
21
-71.000000
31
0.0
0
LINE
8
0
6
CONTINUOUS
10
137.125000
20
-71.000000
30
0.0
11
143.375000
21
-71.000000
31
0.0
0
LINE
8
0
6
CONTINUOUS
10
143.375000
20
-71.000000
30
0.0
11
147.250000
21
-71.000000
31
0.0
0
LINE
8
0
6
CONTINUOUS
10
147.250000
20
-71.000000
30
0.0
11
148.750000
21
-71.000000
31
0.0
0
LINE
8
0
6
CONTINUOUS
10
105.875000
20
-72.000000
30
0.0
11
118.750000
21
-72.000000
31
0.0
0
LINE
8
0
6
CONTINUOUS
10
117.750000
20
-71.000000
30
0.0
11
105.000000
21
-71.000000
31
0.0
0
LINE
8
0
6
CONTINUOUS
10
118.750000
20
-72.000000
30
0.0
11
129.875000
21
-72.000000
31
0.0
0
LINE
8
0
6
CONTINUOUS
10
128.875000
20
-71.000000
30
0.0
11
117.750000
21
-71.000000
31
0.0
0
LINE
8
0
6
CONTINUOUS
10
129.875000
20
-72.000000
30
0.0
11
138.250000
21
-72.000000
31
0.0
0
LINE
8
0
6
CONTINUOUS
10
137.125000
20
-71.000000
30
0.0
11
128.875000
21
-71.000000
31
0.0
0
LINE
8
0
6
CONTINUOUS
10
138.250000
20
-72.000000
30
0.0
11
144.625000
21
-72.000000
31
0.0
0
LINE
8
0
6
CONTINUOUS
10
143.375000
20
-71.000000
30
0.0
11
137.125000
21
-71.000000
31
0.0
0
LINE
8
0
6
CONTINUOUS
10
144.625000
20
-72.000000
30
0.0
11
148.500000
21
-72.000000
31
0.0
0
LINE
8
0
6
CONTINUOUS
10
147.250000
20
-71.000000
30
0.0
11
143.375000
21
-71.000000
31
0.0
0
LINE
8
0
6
CONTINUOUS
10
148.500000
20
-72.000000
30
0.0
11
150.000000
21
-72.000000
31
0.0
0
LINE
8
0
6
CONTINUOUS
10
148.750000
20
-71.000000
30
0.0
11
147.250000
21
-71.000000
31
0.0
0
LINE
8
0
6
CONTINUOUS
10
150.000000
20
-72.000000
30
0.0
11
148.750000
21
-71.000000
31
0.0
0
LINE
8
0
6
CONTINUOUS
10
105.875000
20
-82.000000
30
0.0
11
118.750000
21
-82.000000
31
0.0
0
LINE
8
0
6
CONTINUOUS
10
118.750000
20
-72.000000
30
0.0
11
105.875000
21
-72.000000
31
0.0
0
LINE
8
0
6
CONTINUOUS
10
118.750000
20
-82.000000
30
0.0
11
129.875000
21
-82.000000
31
0.0
0
LINE
8
0
6
CONTINUOUS
10
129.875000
20
-72.000000
30
0.0
11
118.750000
21
-72.000000
31
0.0
0
LINE
8
0
6
CONTINUOUS
10
129.875000
20
-82.000000
30
0.0
11
138.250000
21
-82.000000
31
0.0
0
LINE
8
0
6
CONTINUOUS
10
138.250000
20
-72.000000
30
0.0
11
129.875000
21
-72.000000
31
0.0
0
LINE
8
0
6
CONTINUOUS
10
138.250000
20
-82.000000
30
0.0
11
144.625000
21
-82.000000
31
0.0
0
LINE
8
0
6
CONTINUOUS
10
144.625000
20
-72.000000
30
0.0
11
138.250000
21
-72.000000
31
0.0
0
LINE
8
0
6
CONTINUOUS
10
144.625000
20
-82.000000
30
0.0
11
148.500000
21
-82.000000
31
0.0
0
LINE
8
0
6
CONTINUOUS
10
148.500000
20
-72.000000
30
0.0
11
144.625000
21
-72.000000
31
0.0
0
LINE
8
0
6
CONTINUOUS
10
148.500000
20
-82.000000
30
0.0
11
150.000000
21
-82.000000
31
0.0
0
LINE
8
0
6
CONTINUOUS
10
150.000000
20
-72.000000
30
0.0
11
148.500000
21
-72.000000
31
0.0
0
LINE
8
0
6
CONTINUOUS
10
150.000000
20
-82.000000
30
0.0
11
150.000000
21
-72.000000
31
0.0
0
LINE
8
0
6
CONTINUOUS
10
105.000000
20
-83.000000
30
0.0
11
117.750000
21
-83.000000
31
0.0
0
LINE
8
0
6
CONTINUOUS
10
118.750000
20
-82.000000
30
0.0
11
105.875000
21
-82.000000
31
0.0
0
LINE
8
0
6
CONTINUOUS
10
117.750000
20
-83.000000
30
0.0
11
128.875000
21
-83.000000
31
0.0
0
LINE
8
0
6
CONTINUOUS
10
129.875000
20
-82.000000
30
0.0
11
118.750000
21
-82.000000
31
0.0
0
LINE
8
0
6
CONTINUOUS
10
128.875000
20
-83.000000
30
0.0
11
137.125000
21
-83.000000
31
0.0
0
LINE
8
0
6
CONTINUOUS
10
138.250000
20
-82.000000
30
0.0
11
129.875000
21
-82.000000
31
0.0
0
LINE
8
0
6
CONTINUOUS
10
137.125000
20
-83.000000
30
0.0
11
143.375000
21
-83.000000
31
0.0
0
LINE
8
0
6
CONTINUOUS
10
144.625000
20
-82.000000
30
0.0
11
138.250000
21
-82.000000
31
0.0
0
LINE
8
0
6
CONTINUOUS
10
143.375000
20
-83.000000
30
0.0
11
147.250000
21
-83.000000
31
0.0
0
LINE
8
0
6
CONTINUOUS
10
148.500000
20
-82.000000
30
0.0
11
144.625000
21
-82.000000
31
0.0
0
LINE
8
0
6
CONTINUOUS
10
147.250000
20
-83.000000
30
0.0
11
148.750000
21
-83.000000
31
0.0
0
LINE
8
0
6
CONTINUOUS
10
150.000000
20
-82.000000
30
0.0
11
148.500000
21
-82.000000
31
0.0
0
LINE
8
0
6
CONTINUOUS
10
148.750000
20
-83.000000
30
0.0
11
150.000000
21
-82.000000
31
0.0
0
LINE
8
0
6
CONTINUOUS
10
117.750000
20
-83.000000
30
0.0
11
105.000000
21
-83.000000
31
0.0
0
LINE
8
0
6
CONTINUOUS
10
137.125000
20
-83.000000
30
0.0
11
128.875000
21
-83.000000
31
0.0
0
LINE
8
0
6
CONTINUOUS
10
143.375000
20
-83.000000
30
0.0
11
137.125000
21
-83.000000
31
0.0
0
LINE
8
0
6
CONTINUOUS
10
148.750000
20
-83.000000
30
0.0
11
147.250000
21
-83.000000
31
0.0
0
LINE
8
0
6
CONTINUOUS
10
90.375000
20
-71.000000
30
0.0
11
105.000000
21
-71.000000
31
0.0
0
LINE
8
0
6
CONTINUOUS
10
74.000000
20
-71.000000
30
0.0
11
90.375000
21
-71.000000
31
0.0
0
LINE
8
0
6
CONTINUOUS
10
56.875000
20
-71.000000
30
0.0
11
74.000000
21
-71.000000
31
0.0
0
LINE
8
0
6
CONTINUOUS
10
38.375000
20
-71.000000
30
0.0
11
56.875000
21
-71.000000
31
0.0
0
LINE
8
0
6
CONTINUOUS
10
19.500000
20
-71.000000
30
0.0
11
38.375000
21
-71.000000
31
0.0
0
LINE
8
0
6
CONTINUOUS
10
0.000000
20
-71.000000
30
0.0
11
19.500000
21
-71.000000
31
0.0
0
LINE
8
0
6
CONTINUOUS
10
91.125000
20
-72.000000
30
0.0
11
105.875000
21
-72.000000
31
0.0
0
LINE
8
0
6
CONTINUOUS
10
105.000000
20
-71.000000
30
0.0
11
90.375000
21
-71.000000
31
0.0
0
LINE
8
0
6
CONTINUOUS
10
74.625000
20
-72.000000
30
0.0
11
91.125000
21
-72.000000
31
0.0
0
LINE
8
0
6
CONTINUOUS
10
90.375000
20
-71.000000
30
0.0
11
74.000000
21
-71.000000
31
0.0
0
LINE
8
0
6
CONTINUOUS
10
57.250000
20
-72.000000
30
0.0
11
74.625000
21
-72.000000
31
0.0
0
LINE
8
0
6
CONTINUOUS
10
74.000000
20
-71.000000
30
0.0
11
56.875000
21
-71.000000
31
0.0
0
LINE
8
0
6
CONTINUOUS
10
38.750000
20
-72.000000
30
0.0
11
57.250000
21
-72.000000
31
0.0
0
LINE
8
0
6
CONTINUOUS
10
56.875000
20
-71.000000
30
0.0
11
38.375000
21
-71.000000
31
0.0
0
LINE
8
0
6
CONTINUOUS
10
19.500000
20
-72.000000
30
0.0
11
38.750000
21
-72.000000
31
0.0
0
LINE
8
0
6
CONTINUOUS
10
38.375000
20
-71.000000
30
0.0
11
19.500000
21
-71.000000
31
0.0
0
LINE
8
0
6
CONTINUOUS
10
0.000000
20
-72.000000
30
0.0
11
19.500000
21
-72.000000
31
0.0
0
LINE
8
0
6
CONTINUOUS
10
19.500000
20
-71.000000
30
0.0
11
0.000000
21
-71.000000
31
0.0
0
LINE
8
0
6
CONTINUOUS
10
91.125000
20
-82.000000
30
0.0
11
105.875000
21
-82.000000
31
0.0
0
LINE
8
0
6
CONTINUOUS
10
105.875000
20
-72.000000
30
0.0
11
91.125000
21
-72.000000
31
0.0
0
LINE
8
0
6
CONTINUOUS
10
74.625000
20
-82.000000
30
0.0
11
91.125000
21
-82.000000
31
0.0
0
LINE
8
0
6
CONTINUOUS
10
91.125000
20
-72.000000
30
0.0
11
74.625000
21
-72.000000
31
0.0
0
LINE
8
0
6
CONTINUOUS
10
57.250000
20
-82.000000
30
0.0
11
74.625000
21
-82.000000
31
0.0
0
LINE
8
0
6
CONTINUOUS
10
74.625000
20
-72.000000
30
0.0
11
57.250000
21
-72.000000
31
0.0
0
LINE
8
0
6
CONTINUOUS
10
38.750000
20
-82.000000
30
0.0
11
57.250000
21
-82.000000
31
0.0
0
LINE
8
0
6
CONTINUOUS
10
57.250000
20
-72.000000
30
0.0
11
38.750000
21
-72.000000
31
0.0
0
LINE
8
0
6
CONTINUOUS
10
19.500000
20
-82.000000
30
0.0
11
38.750000
21
-82.000000
31
0.0
0
LINE
8
0
6
CONTINUOUS
10
38.750000
20
-72.000000
30
0.0
11
19.500000
21
-72.000000
31
0.0
0
LINE
8
0
6
CONTINUOUS
10
0.000000
20
-82.000000
30
0.0
11
19.500000
21
-82.000000
31
0.0
0
LINE
8
0
6
CONTINUOUS
10
19.500000
20
-72.000000
30
0.0
11
0.000000
21
-72.000000
31
0.0
0
LINE
8
0
6
CONTINUOUS
10
90.375000
20
-83.000000
30
0.0
11
105.000000
21
-83.000000
31
0.0
0
LINE
8
0
6
CONTINUOUS
10
105.875000
20
-82.000000
30
0.0
11
91.125000
21
-82.000000
31
0.0
0
LINE
8
0
6
CONTINUOUS
10
74.000000
20
-83.000000
30
0.0
11
90.375000
21
-83.000000
31
0.0
0
LINE
8
0
6
CONTINUOUS
10
91.125000
20
-82.000000
30
0.0
11
74.625000
21
-82.000000
31
0.0
0
LINE
8
0
6
CONTINUOUS
10
56.875000
20
-83.000000
30
0.0
11
74.000000
21
-83.000000
31
0.0
0
LINE
8
0
6
CONTINUOUS
10
74.625000
20
-82.000000
30
0.0
11
57.250000
21
-82.000000
31
0.0
0
LINE
8
0
6
CONTINUOUS
10
38.375000
20
-83.000000
30
0.0
11
56.875000
21
-83.000000
31
0.0
0
LINE
8
0
6
CONTINUOUS
10
57.250000
20
-82.000000
30
0.0
11
38.750000
21
-82.000000
31
0.0
0
LINE
8
0
6
CONTINUOUS
10
19.500000
20
-83.000000
30
0.0
11
38.375000
21
-83.000000
31
0.0
0
LINE
8
0
6
CONTINUOUS
10
38.750000
20
-82.000000
30
0.0
11
19.500000
21
-82.000000
31
0.0
0
LINE
8
0
6
CONTINUOUS
10
0.000000
20
-83.000000
30
0.0
11
19.500000
21
-83.000000
31
0.0
0
LINE
8
0
6
CONTINUOUS
10
19.500000
20
-82.000000
30
0.0
11
0.000000
21
-82.000000
31
0.0
0
LINE
8
0
6
CONTINUOUS
10
105.000000
20
-83.000000
30
0.0
11
90.375000
21
-83.000000
31
0.0
0
LINE
8
0
6
CONTINUOUS
10
90.375000
20
-83.000000
30
0.0
11
74.000000
21
-83.000000
31
0.0
0
LINE
8
0
6
CONTINUOUS
10
74.000000
20
-83.000000
30
0.0
11
56.875000
21
-83.000000
31
0.0
0
LINE
8
0
6
CONTINUOUS
10
56.875000
20
-83.000000
30
0.0
11
53.501000
21
-83.000000
31
0.0
0
LINE
8
0
6
CONTINUOUS
10
38.375000
20
-83.000000
30
0.0
11
19.500000
21
-83.000000
31
0.0
0
LINE
8
0
6
CONTINUOUS
10
19.500000
20
-83.000000
30
0.0
11
0.000000
21
-83.000000
31
0.0
0
LINE
8
0
6
CONTINUOUS
10
-105.000000
20
-71.000000
30
0.0
11
-90.375000
21
-71.000000
31
0.0
0
LINE
8
0
6
CONTINUOUS
10
-90.375000
20
-71.000000
30
0.0
11
-74.000000
21
-71.000000
31
0.0
0
LINE
8
0
6
CONTINUOUS
10
-74.000000
20
-71.000000
30
0.0
11
-56.875000
21
-71.000000
31
0.0
0
LINE
8
0
6
CONTINUOUS
10
-56.875000
20
-71.000000
30
0.0
11
-38.375000
21
-71.000000
31
0.0
0
LINE
8
0
6
CONTINUOUS
10
-38.375000
20
-71.000000
30
0.0
11
-19.500000
21
-71.000000
31
0.0
0
LINE
8
0
6
CONTINUOUS
10
-19.500000
20
-71.000000
30
0.0
11
0.000000
21
-71.000000
31
0.0
0
LINE
8
0
6
CONTINUOUS
10
-105.875000
20
-72.000000
30
0.0
11
-91.125000
21
-72.000000
31
0.0
0
LINE
8
0
6
CONTINUOUS
10
-90.375000
20
-71.000000
30
0.0
11
-105.000000
21
-71.000000
31
0.0
0
LINE
8
0
6
CONTINUOUS
10
-91.125000
20
-72.000000
30
0.0
11
-74.625000
21
-72.000000
31
0.0
0
LINE
8
0
6
CONTINUOUS
10
-74.000000
20
-71.000000
30
0.0
11
-90.375000
21
-71.000000
31
0.0
0
LINE
8
0
6
CONTINUOUS
10
-74.625000
20
-72.000000
30
0.0
11
-57.250000
21
-72.000000
31
0.0
0
LINE
8
0
6
CONTINUOUS
10
-56.875000
20
-71.000000
30
0.0
11
-74.000000
21
-71.000000
31
0.0
0
LINE
8
0
6
CONTINUOUS
10
-57.250000
20
-72.000000
30
0.0
11
-38.750000
21
-72.000000
31
0.0
0
LINE
8
0
6
CONTINUOUS
10
-38.375000
20
-71.000000
30
0.0
11
-56.875000
21
-71.000000
31
0.0
0
LINE
8
0
6
CONTINUOUS
10
-38.750000
20
-72.000000
30
0.0
11
-19.500000
21
-72.000000
31
0.0
0
LINE
8
0
6
CONTINUOUS
10
-19.500000
20
-71.000000
30
0.0
11
-38.375000
21
-71.000000
31
0.0
0
LINE
8
0
6
CONTINUOUS
10
-19.500000
20
-72.000000
30
0.0
11
0.000000
21
-72.000000
31
0.0
0
LINE
8
0
6
CONTINUOUS
10
0.000000
20
-71.000000
30
0.0
11
-19.500000
21
-71.000000
31
0.0
0
LINE
8
0
6
CONTINUOUS
10
-105.875000
20
-82.000000
30
0.0
11
-91.125000
21
-82.000000
31
0.0
0
LINE
8
0
6
CONTINUOUS
10
-91.125000
20
-72.000000
30
0.0
11
-105.875000
21
-72.000000
31
0.0
0
LINE
8
0
6
CONTINUOUS
10
-91.125000
20
-82.000000
30
0.0
11
-74.625000
21
-82.000000
31
0.0
0
LINE
8
0
6
CONTINUOUS
10
-74.625000
20
-72.000000
30
0.0
11
-91.125000
21
-72.000000
31
0.0
0
LINE
8
0
6
CONTINUOUS
10
-74.625000
20
-82.000000
30
0.0
11
-57.250000
21
-82.000000
31
0.0
0
LINE
8
0
6
CONTINUOUS
10
-57.250000
20
-72.000000
30
0.0
11
-74.625000
21
-72.000000
31
0.0
0
LINE
8
0
6
CONTINUOUS
10
-57.250000
20
-82.000000
30
0.0
11
-38.750000
21
-82.000000
31
0.0
0
LINE
8
0
6
CONTINUOUS
10
-38.750000
20
-72.000000
30
0.0
11
-57.250000
21
-72.000000
31
0.0
0
LINE
8
0
6
CONTINUOUS
10
-38.750000
20
-82.000000
30
0.0
11
-19.500000
21
-82.000000
31
0.0
0
LINE
8
0
6
CONTINUOUS
10
-19.500000
20
-72.000000
30
0.0
11
-38.750000
21
-72.000000
31
0.0
0
LINE
8
0
6
CONTINUOUS
10
-19.500000
20
-82.000000
30
0.0
11
0.000000
21
-82.000000
31
0.0
0
LINE
8
0
6
CONTINUOUS
10
0.000000
20
-72.000000
30
0.0
11
-19.500000
21
-72.000000
31
0.0
0
LINE
8
0
6
CONTINUOUS
10
-105.000000
20
-83.000000
30
0.0
11
-90.375000
21
-83.000000
31
0.0
0
LINE
8
0
6
CONTINUOUS
10
-91.125000
20
-82.000000
30
0.0
11
-105.875000
21
-82.000000
31
0.0
0
LINE
8
0
6
CONTINUOUS
10
-90.375000
20
-83.000000
30
0.0
11
-74.000000
21
-83.000000
31
0.0
0
LINE
8
0
6
CONTINUOUS
10
-74.625000
20
-82.000000
30
0.0
11
-91.125000
21
-82.000000
31
0.0
0
LINE
8
0
6
CONTINUOUS
10
-74.000000
20
-83.000000
30
0.0
11
-56.875000
21
-83.000000
31
0.0
0
LINE
8
0
6
CONTINUOUS
10
-57.250000
20
-82.000000
30
0.0
11
-74.625000
21
-82.000000
31
0.0
0
LINE
8
0
6
CONTINUOUS
10
-56.875000
20
-83.000000
30
0.0
11
-38.375000
21
-83.000000
31
0.0
0
LINE
8
0
6
CONTINUOUS
10
-38.750000
20
-82.000000
30
0.0
11
-57.250000
21
-82.000000
31
0.0
0
LINE
8
0
6
CONTINUOUS
10
-38.375000
20
-83.000000
30
0.0
11
-19.500000
21
-83.000000
31
0.0
0
LINE
8
0
6
CONTINUOUS
10
-19.500000
20
-82.000000
30
0.0
11
-38.750000
21
-82.000000
31
0.0
0
LINE
8
0
6
CONTINUOUS
10
-19.500000
20
-83.000000
30
0.0
11
0.000000
21
-83.000000
31
0.0
0
LINE
8
0
6
CONTINUOUS
10
0.000000
20
-82.000000
30
0.0
11
-19.500000
21
-82.000000
31
0.0
0
LINE
8
0
6
CONTINUOUS
10
-90.375000
20
-83.000000
30
0.0
11
-105.000000
21
-83.000000
31
0.0
0
LINE
8
0
6
CONTINUOUS
10
-74.000000
20
-83.000000
30
0.0
11
-78.158000
21
-83.000000
31
0.0
0
LINE
8
0
6
CONTINUOUS
10
-56.875000
20
-83.000000
30
0.0
11
-74.000000
21
-83.000000
31
0.0
0
LINE
8
0
6
CONTINUOUS
10
-38.375000
20
-83.000000
30
0.0
11
-56.875000
21
-83.000000
31
0.0
0
LINE
8
0
6
CONTINUOUS
10
-19.500000
20
-83.000000
30
0.0
11
-24.471000
21
-83.000000
31
0.0
0
LINE
8
0
6
CONTINUOUS
10
0.000000
20
-83.000000
30
0.0
11
-19.500000
21
-83.000000
31
0.0
0
LINE
8
0
6
CONTINUOUS
10
-117.750000
20
-71.000000
30
0.0
11
-105.000000
21
-71.000000
31
0.0
0
LINE
8
0
6
CONTINUOUS
10
-128.875000
20
-71.000000
30
0.0
11
-117.750000
21
-71.000000
31
0.0
0
LINE
8
0
6
CONTINUOUS
10
-137.125000
20
-71.000000
30
0.0
11
-128.875000
21
-71.000000
31
0.0
0
LINE
8
0
6
CONTINUOUS
10
-143.375000
20
-71.000000
30
0.0
11
-137.125000
21
-71.000000
31
0.0
0
LINE
8
0
6
CONTINUOUS
10
-147.250000
20
-71.000000
30
0.0
11
-143.375000
21
-71.000000
31
0.0
0
LINE
8
0
6
CONTINUOUS
10
-148.750000
20
-71.000000
30
0.0
11
-147.250000
21
-71.000000
31
0.0
0
LINE
8
0
6
CONTINUOUS
10
-118.750000
20
-72.000000
30
0.0
11
-105.875000
21
-72.000000
31
0.0
0
LINE
8
0
6
CONTINUOUS
10
-105.000000
20
-71.000000
30
0.0
11
-117.750000
21
-71.000000
31
0.0
0
LINE
8
0
6
CONTINUOUS
10
-129.875000
20
-72.000000
30
0.0
11
-118.750000
21
-72.000000
31
0.0
0
LINE
8
0
6
CONTINUOUS
10
-117.750000
20
-71.000000
30
0.0
11
-128.875000
21
-71.000000
31
0.0
0
LINE
8
0
6
CONTINUOUS
10
-138.250000
20
-72.000000
30
0.0
11
-129.875000
21
-72.000000
31
0.0
0
LINE
8
0
6
CONTINUOUS
10
-128.875000
20
-71.000000
30
0.0
11
-137.125000
21
-71.000000
31
0.0
0
LINE
8
0
6
CONTINUOUS
10
-144.625000
20
-72.000000
30
0.0
11
-138.250000
21
-72.000000
31
0.0
0
LINE
8
0
6
CONTINUOUS
10
-137.125000
20
-71.000000
30
0.0
11
-143.375000
21
-71.000000
31
0.0
0
LINE
8
0
6
CONTINUOUS
10
-148.500000
20
-72.000000
30
0.0
11
-144.625000
21
-72.000000
31
0.0
0
LINE
8
0
6
CONTINUOUS
10
-143.375000
20
-71.000000
30
0.0
11
-147.250000
21
-71.000000
31
0.0
0
LINE
8
0
6
CONTINUOUS
10
-150.000000
20
-72.000000
30
0.0
11
-148.500000
21
-72.000000
31
0.0
0
LINE
8
0
6
CONTINUOUS
10
-147.250000
20
-71.000000
30
0.0
11
-148.750000
21
-71.000000
31
0.0
0
LINE
8
0
6
CONTINUOUS
10
-118.750000
20
-82.000000
30
0.0
11
-105.875000
21
-82.000000
31
0.0
0
LINE
8
0
6
CONTINUOUS
10
-105.875000
20
-72.000000
30
0.0
11
-118.750000
21
-72.000000
31
0.0
0
LINE
8
0
6
CONTINUOUS
10
-129.875000
20
-82.000000
30
0.0
11
-118.750000
21
-82.000000
31
0.0
0
LINE
8
0
6
CONTINUOUS
10
-118.750000
20
-72.000000
30
0.0
11
-129.875000
21
-72.000000
31
0.0
0
LINE
8
0
6
CONTINUOUS
10
-138.250000
20
-82.000000
30
0.0
11
-129.875000
21
-82.000000
31
0.0
0
LINE
8
0
6
CONTINUOUS
10
-129.875000
20
-72.000000
30
0.0
11
-138.250000
21
-72.000000
31
0.0
0
LINE
8
0
6
CONTINUOUS
10
-144.625000
20
-82.000000
30
0.0
11
-138.250000
21
-82.000000
31
0.0
0
LINE
8
0
6
CONTINUOUS
10
-138.250000
20
-72.000000
30
0.0
11
-144.625000
21
-72.000000
31
0.0
0
LINE
8
0
6
CONTINUOUS
10
-148.500000
20
-82.000000
30
0.0
11
-144.625000
21
-82.000000
31
0.0
0
LINE
8
0
6
CONTINUOUS
10
-144.625000
20
-72.000000
30
0.0
11
-148.500000
21
-72.000000
31
0.0
0
LINE
8
0
6
CONTINUOUS
10
-150.000000
20
-82.000000
30
0.0
11
-148.500000
21
-82.000000
31
0.0
0
LINE
8
0
6
CONTINUOUS
10
-148.500000
20
-72.000000
30
0.0
11
-150.000000
21
-72.000000
31
0.0
0
LINE
8
0
6
CONTINUOUS
10
-117.750000
20
-83.000000
30
0.0
11
-105.000000
21
-83.000000
31
0.0
0
LINE
8
0
6
CONTINUOUS
10
-105.875000
20
-82.000000
30
0.0
11
-118.750000
21
-82.000000
31
0.0
0
LINE
8
0
6
CONTINUOUS
10
-128.875000
20
-83.000000
30
0.0
11
-117.750000
21
-83.000000
31
0.0
0
LINE
8
0
6
CONTINUOUS
10
-118.750000
20
-82.000000
30
0.0
11
-129.875000
21
-82.000000
31
0.0
0
LINE
8
0
6
CONTINUOUS
10
-137.125000
20
-83.000000
30
0.0
11
-128.875000
21
-83.000000
31
0.0
0
LINE
8
0
6
CONTINUOUS
10
-129.875000
20
-82.000000
30
0.0
11
-138.250000
21
-82.000000
31
0.0
0
LINE
8
0
6
CONTINUOUS
10
-143.375000
20
-83.000000
30
0.0
11
-137.125000
21
-83.000000
31
0.0
0
LINE
8
0
6
CONTINUOUS
10
-138.250000
20
-82.000000
30
0.0
11
-144.625000
21
-82.000000
31
0.0
0
LINE
8
0
6
CONTINUOUS
10
-147.250000
20
-83.000000
30
0.0
11
-143.375000
21
-83.000000
31
0.0
0
LINE
8
0
6
CONTINUOUS
10
-144.625000
20
-82.000000
30
0.0
11
-148.500000
21
-82.000000
31
0.0
0
LINE
8
0
6
CONTINUOUS
10
-148.750000
20
-83.000000
30
0.0
11
-147.250000
21
-83.000000
31
0.0
0
LINE
8
0
6
CONTINUOUS
10
-148.500000
20
-82.000000
30
0.0
11
-150.000000
21
-82.000000
31
0.0
0
LINE
8
0
6
CONTINUOUS
10
-105.000000
20
-83.000000
30
0.0
11
-117.750000
21
-83.000000
31
0.0
0
LINE
8
0
6
CONTINUOUS
10
-117.750000
20
-83.000000
30
0.0
11
-128.875000
21
-83.000000
31
0.0
0
LINE
8
0
6
CONTINUOUS
10
-128.875000
20
-83.000000
30
0.0
11
-137.125000
21
-83.000000
31
0.0
0
LINE
8
0
6
CONTINUOUS
10
-137.125000
20
-83.000000
30
0.0
11
-137.500000
21
-83.000000
31
0.0
0
LINE
8
0
6
CONTINUOUS
10
-143.375000
20
-83.000000
30
0.0
11
-147.250000
21
-83.000000
31
0.0
0
LINE
8
0
6
CONTINUOUS
10
-147.250000
20
-83.000000
30
0.0
11
-148.750000
21
-83.000000
31
0.0
0
LINE
8
0
6
CONTINUOUS
10
-105.000000
20
-71.000000
30
0.0
11
-117.750000
21
-71.000000
31
0.0
0
LINE
8
0
6
CONTINUOUS
10
-117.750000
20
-71.000000
30
0.0
11
-128.875000
21
-71.000000
31
0.0
0
LINE
8
0
6
CONTINUOUS
10
-128.875000
20
-71.000000
30
0.0
11
-137.125000
21
-71.000000
31
0.0
0
LINE
8
0
6
CONTINUOUS
10
-137.125000
20
-71.000000
30
0.0
11
-143.375000
21
-71.000000
31
0.0
0
LINE
8
0
6
CONTINUOUS
10
-143.375000
20
-71.000000
30
0.0
11
-147.250000
21
-71.000000
31
0.0
0
LINE
8
0
6
CONTINUOUS
10
-147.250000
20
-71.000000
30
0.0
11
-148.750000
21
-71.000000
31
0.0
0
LINE
8
0
6
CONTINUOUS
10
-117.750000
20
-71.000000
30
0.0
11
-105.000000
21
-71.000000
31
0.0
0
LINE
8
0
6
CONTINUOUS
10
-128.875000
20
-71.000000
30
0.0
11
-117.750000
21
-71.000000
31
0.0
0
LINE
8
0
6
CONTINUOUS
10
-137.125000
20
-71.000000
30
0.0
11
-128.875000
21
-71.000000
31
0.0
0
LINE
8
0
6
CONTINUOUS
10
-143.375000
20
-71.000000
30
0.0
11
-137.125000
21
-71.000000
31
0.0
0
LINE
8
0
6
CONTINUOUS
10
-147.250000
20
-71.000000
30
0.0
11
-143.375000
21
-71.000000
31
0.0
0
LINE
8
0
6
CONTINUOUS
10
-148.750000
20
-71.000000
30
0.0
11
-147.250000
21
-71.000000
31
0.0
0
LINE
8
0
6
CONTINUOUS
10
-150.000000
20
-72.000000
30
0.0
11
-148.750000
21
-71.000000
31
0.0
0
LINE
8
0
6
CONTINUOUS
10
-150.000000
20
-82.000000
30
0.0
11
-150.000000
21
-72.000000
31
0.0
0
LINE
8
0
6
CONTINUOUS
10
-119.703500
20
-83.000000
30
0.0
11
-128.875000
21
-83.000000
31
0.0
0
LINE
8
0
6
CONTINUOUS
10
-143.375000
20
-83.000000
30
0.0
11
-147.250000
21
-83.000000
31
0.0
0
LINE
8
0
6
CONTINUOUS
10
-148.750000
20
-83.000000
30
0.0
11
-150.000000
21
-82.000000
31
0.0
0
LINE
8
0
6
CONTINUOUS
10
-128.875000
20
-83.000000
30
0.0
11
-119.703500
21
-83.000000
31
0.0
0
LINE
8
0
6
CONTINUOUS
10
-147.250000
20
-83.000000
30
0.0
11
-143.375000
21
-83.000000
31
0.0
0
LINE
8
0
6
CONTINUOUS
10
-90.375000
20
-71.000000
30
0.0
11
-105.000000
21
-71.000000
31
0.0
0
LINE
8
0
6
CONTINUOUS
10
-74.000000
20
-71.000000
30
0.0
11
-90.375000
21
-71.000000
31
0.0
0
LINE
8
0
6
CONTINUOUS
10
-56.875000
20
-71.000000
30
0.0
11
-74.000000
21
-71.000000
31
0.0
0
LINE
8
0
6
CONTINUOUS
10
-50.000000
20
-71.000000
30
0.0
11
-56.875000
21
-71.000000
31
0.0
0
LINE
8
0
6
CONTINUOUS
10
-105.000000
20
-71.000000
30
0.0
11
-90.375000
21
-71.000000
31
0.0
0
LINE
8
0
6
CONTINUOUS
10
-90.375000
20
-71.000000
30
0.0
11
-74.000000
21
-71.000000
31
0.0
0
LINE
8
0
6
CONTINUOUS
10
-74.000000
20
-71.000000
30
0.0
11
-56.875000
21
-71.000000
31
0.0
0
LINE
8
0
6
CONTINUOUS
10
-56.875000
20
-71.000000
30
0.0
11
-50.000000
21
-71.000000
31
0.0
0
LINE
8
0
6
CONTINUOUS
10
-45.078000
20
-83.000000
30
0.0
11
-47.668000
21
-83.000000
31
0.0
0
LINE
8
0
6
CONTINUOUS
10
-51.082500
20
-83.000000
30
0.0
11
-51.336500
21
-83.000000
31
0.0
0
LINE
8
0
6
CONTINUOUS
10
-54.751600
20
-83.000000
30
0.0
11
-54.800800
21
-83.000000
31
0.0
0
LINE
8
0
6
CONTINUOUS
10
-54.800800
20
-83.000000
30
0.0
11
-54.751600
21
-83.000000
31
0.0
0
LINE
8
0
6
CONTINUOUS
10
-51.336500
20
-83.000000
30
0.0
11
-51.082500
21
-83.000000
31
0.0
0
LINE
8
0
6
CONTINUOUS
10
-47.668000
20
-83.000000
30
0.0
11
-45.078000
21
-83.000000
31
0.0
0
LINE
8
0
6
CONTINUOUS
10
35.300000
20
-67.000000
30
0.0
11
30.400000
21
-67.000000
31
0.0
0
LINE
8
0
6
CONTINUOUS
10
30.400000
20
-67.000000
30
0.0
11
24.900000
21
-67.000000
31
0.0
0
LINE
8
0
6
CONTINUOUS
10
24.900000
20
-67.000000
30
0.0
11
19.100000
21
-67.000000
31
0.0
0
LINE
8
0
6
CONTINUOUS
10
30.400000
20
-67.000000
30
0.0
11
35.300000
21
-67.000000
31
0.0
0
LINE
8
0
6
CONTINUOUS
10
24.900000
20
-67.000000
30
0.0
11
30.400000
21
-67.000000
31
0.0
0
LINE
8
0
6
CONTINUOUS
10
19.100000
20
-67.000000
30
0.0
11
24.900000
21
-67.000000
31
0.0
0
LINE
8
0
6
CONTINUOUS
10
39.600000
20
-67.000000
30
0.0
11
35.300000
21
-67.000000
31
0.0
0
LINE
8
0
6
CONTINUOUS
10
43.300000
20
-67.000000
30
0.0
11
39.600000
21
-67.000000
31
0.0
0
LINE
8
0
6
CONTINUOUS
10
46.100000
20
-67.000000
30
0.0
11
43.300000
21
-67.000000
31
0.0
0
LINE
8
0
6
CONTINUOUS
10
48.200000
20
-67.000000
30
0.0
11
46.100000
21
-67.000000
31
0.0
0
LINE
8
0
6
CONTINUOUS
10
49.500000
20
-67.000000
30
0.0
11
48.200000
21
-67.000000
31
0.0
0
LINE
8
0
6
CONTINUOUS
10
50.000000
20
-67.000000
30
0.0
11
49.500000
21
-67.000000
31
0.0
0
LINE
8
0
6
CONTINUOUS
10
35.300000
20
-67.000000
30
0.0
11
39.600000
21
-67.000000
31
0.0
0
LINE
8
0
6
CONTINUOUS
10
39.600000
20
-67.000000
30
0.0
11
43.300000
21
-67.000000
31
0.0
0
LINE
8
0
6
CONTINUOUS
10
43.300000
20
-67.000000
30
0.0
11
46.100000
21
-67.000000
31
0.0
0
LINE
8
0
6
CONTINUOUS
10
46.100000
20
-67.000000
30
0.0
11
48.200000
21
-67.000000
31
0.0
0
LINE
8
0
6
CONTINUOUS
10
48.200000
20
-67.000000
30
0.0
11
49.500000
21
-67.000000
31
0.0
0
LINE
8
0
6
CONTINUOUS
10
49.500000
20
-67.000000
30
0.0
11
50.000000
21
-67.000000
31
0.0
0
LINE
8
0
6
CONTINUOUS
10
35.300000
20
-67.000000
30
0.0
11
39.600000
21
-67.000000
31
0.0
0
LINE
8
0
6
CONTINUOUS
10
39.600000
20
-67.000000
30
0.0
11
43.300000
21
-67.000000
31
0.0
0
LINE
8
0
6
CONTINUOUS
10
43.300000
20
-67.000000
30
0.0
11
46.100000
21
-67.000000
31
0.0
0
LINE
8
0
6
CONTINUOUS
10
46.100000
20
-67.000000
30
0.0
11
48.200000
21
-67.000000
31
0.0
0
LINE
8
0
6
CONTINUOUS
10
48.200000
20
-67.000000
30
0.0
11
49.500000
21
-67.000000
31
0.0
0
LINE
8
0
6
CONTINUOUS
10
49.500000
20
-67.000000
30
0.0
11
50.000000
21
-67.000000
31
0.0
0
LINE
8
0
6
CONTINUOUS
10
35.300000
20
-71.000000
30
0.0
11
39.600000
21
-71.000000
31
0.0
0
LINE
8
0
6
CONTINUOUS
10
39.600000
20
-67.000000
30
0.0
11
35.300000
21
-67.000000
31
0.0
0
LINE
8
0
6
CONTINUOUS
10
39.600000
20
-71.000000
30
0.0
11
43.300000
21
-71.000000
31
0.0
0
LINE
8
0
6
CONTINUOUS
10
43.300000
20
-67.000000
30
0.0
11
39.600000
21
-67.000000
31
0.0
0
LINE
8
0
6
CONTINUOUS
10
43.300000
20
-71.000000
30
0.0
11
46.100000
21
-71.000000
31
0.0
0
LINE
8
0
6
CONTINUOUS
10
46.100000
20
-67.000000
30
0.0
11
43.300000
21
-67.000000
31
0.0
0
LINE
8
0
6
CONTINUOUS
10
46.100000
20
-71.000000
30
0.0
11
48.200000
21
-71.000000
31
0.0
0
LINE
8
0
6
CONTINUOUS
10
48.200000
20
-67.000000
30
0.0
11
46.100000
21
-67.000000
31
0.0
0
LINE
8
0
6
CONTINUOUS
10
48.200000
20
-71.000000
30
0.0
11
49.500000
21
-71.000000
31
0.0
0
LINE
8
0
6
CONTINUOUS
10
49.500000
20
-67.000000
30
0.0
11
48.200000
21
-67.000000
31
0.0
0
LINE
8
0
6
CONTINUOUS
10
49.500000
20
-71.000000
30
0.0
11
50.000000
21
-71.000000
31
0.0
0
LINE
8
0
6
CONTINUOUS
10
50.000000
20
-67.000000
30
0.0
11
49.500000
21
-67.000000
31
0.0
0
LINE
8
0
6
CONTINUOUS
10
50.000000
20
-71.000000
30
0.0
11
50.000000
21
-67.000000
31
0.0
0
LINE
8
0
6
CONTINUOUS
10
30.400000
20
-67.000000
30
0.0
11
35.300000
21
-67.000000
31
0.0
0
LINE
8
0
6
CONTINUOUS
10
24.900000
20
-67.000000
30
0.0
11
30.400000
21
-67.000000
31
0.0
0
LINE
8
0
6
CONTINUOUS
10
19.100000
20
-67.000000
30
0.0
11
24.900000
21
-67.000000
31
0.0
0
LINE
8
0
6
CONTINUOUS
10
12.900000
20
-67.000000
30
0.0
11
19.100000
21
-67.000000
31
0.0
0
LINE
8
0
6
CONTINUOUS
10
6.500000
20
-67.000000
30
0.0
11
12.900000
21
-67.000000
31
0.0
0
LINE
8
0
6
CONTINUOUS
10
0.000000
20
-67.000000
30
0.0
11
6.500000
21
-67.000000
31
0.0
0
LINE
8
0
6
CONTINUOUS
10
30.400000
20
-71.000000
30
0.0
11
35.300000
21
-71.000000
31
0.0
0
LINE
8
0
6
CONTINUOUS
10
35.300000
20
-67.000000
30
0.0
11
30.400000
21
-67.000000
31
0.0
0
LINE
8
0
6
CONTINUOUS
10
24.900000
20
-71.000000
30
0.0
11
30.400000
21
-71.000000
31
0.0
0
LINE
8
0
6
CONTINUOUS
10
30.400000
20
-67.000000
30
0.0
11
24.900000
21
-67.000000
31
0.0
0
LINE
8
0
6
CONTINUOUS
10
19.100000
20
-71.000000
30
0.0
11
24.900000
21
-71.000000
31
0.0
0
LINE
8
0
6
CONTINUOUS
10
24.900000
20
-67.000000
30
0.0
11
19.100000
21
-67.000000
31
0.0
0
LINE
8
0
6
CONTINUOUS
10
12.900000
20
-71.000000
30
0.0
11
19.100000
21
-71.000000
31
0.0
0
LINE
8
0
6
CONTINUOUS
10
19.100000
20
-67.000000
30
0.0
11
12.900000
21
-67.000000
31
0.0
0
LINE
8
0
6
CONTINUOUS
10
6.500000
20
-71.000000
30
0.0
11
12.900000
21
-71.000000
31
0.0
0
LINE
8
0
6
CONTINUOUS
10
12.900000
20
-67.000000
30
0.0
11
6.500000
21
-67.000000
31
0.0
0
LINE
8
0
6
CONTINUOUS
10
0.000000
20
-71.000000
30
0.0
11
6.500000
21
-71.000000
31
0.0
0
LINE
8
0
6
CONTINUOUS
10
6.500000
20
-67.000000
30
0.0
11
0.000000
21
-67.000000
31
0.0
0
LINE
8
0
6
CONTINUOUS
10
-35.300000
20
-67.000000
30
0.0
11
-30.400000
21
-67.000000
31
0.0
0
LINE
8
0
6
CONTINUOUS
10
-30.400000
20
-67.000000
30
0.0
11
-24.900000
21
-67.000000
31
0.0
0
LINE
8
0
6
CONTINUOUS
10
-24.900000
20
-67.000000
30
0.0
11
-19.100000
21
-67.000000
31
0.0
0
LINE
8
0
6
CONTINUOUS
10
-19.100000
20
-67.000000
30
0.0
11
-12.900000
21
-67.000000
31
0.0
0
LINE
8
0
6
CONTINUOUS
10
-12.900000
20
-67.000000
30
0.0
11
-6.500000
21
-67.000000
31
0.0
0
LINE
8
0
6
CONTINUOUS
10
-6.500000
20
-67.000000
30
0.0
11
0.000000
21
-67.000000
31
0.0
0
LINE
8
0
6
CONTINUOUS
10
-35.300000
20
-71.000000
30
0.0
11
-30.400000
21
-71.000000
31
0.0
0
LINE
8
0
6
CONTINUOUS
10
-30.400000
20
-67.000000
30
0.0
11
-35.300000
21
-67.000000
31
0.0
0
LINE
8
0
6
CONTINUOUS
10
-30.400000
20
-71.000000
30
0.0
11
-24.900000
21
-71.000000
31
0.0
0
LINE
8
0
6
CONTINUOUS
10
-24.900000
20
-67.000000
30
0.0
11
-30.400000
21
-67.000000
31
0.0
0
LINE
8
0
6
CONTINUOUS
10
-24.900000
20
-71.000000
30
0.0
11
-19.100000
21
-71.000000
31
0.0
0
LINE
8
0
6
CONTINUOUS
10
-19.100000
20
-67.000000
30
0.0
11
-24.900000
21
-67.000000
31
0.0
0
LINE
8
0
6
CONTINUOUS
10
-19.100000
20
-71.000000
30
0.0
11
-12.900000
21
-71.000000
31
0.0
0
LINE
8
0
6
CONTINUOUS
10
-12.900000
20
-67.000000
30
0.0
11
-19.100000
21
-67.000000
31
0.0
0
LINE
8
0
6
CONTINUOUS
10
-12.900000
20
-71.000000
30
0.0
11
-6.500000
21
-71.000000
31
0.0
0
LINE
8
0
6
CONTINUOUS
10
-6.500000
20
-67.000000
30
0.0
11
-12.900000
21
-67.000000
31
0.0
0
LINE
8
0
6
CONTINUOUS
10
-6.500000
20
-71.000000
30
0.0
11
0.000000
21
-71.000000
31
0.0
0
LINE
8
0
6
CONTINUOUS
10
0.000000
20
-67.000000
30
0.0
11
-6.500000
21
-67.000000
31
0.0
0
LINE
8
0
6
CONTINUOUS
10
-39.600000
20
-67.000000
30
0.0
11
-35.300000
21
-67.000000
31
0.0
0
LINE
8
0
6
CONTINUOUS
10
-43.300000
20
-67.000000
30
0.0
11
-39.600000
21
-67.000000
31
0.0
0
LINE
8
0
6
CONTINUOUS
10
-46.100000
20
-67.000000
30
0.0
11
-43.300000
21
-67.000000
31
0.0
0
LINE
8
0
6
CONTINUOUS
10
-48.200000
20
-67.000000
30
0.0
11
-46.100000
21
-67.000000
31
0.0
0
LINE
8
0
6
CONTINUOUS
10
-49.500000
20
-67.000000
30
0.0
11
-48.200000
21
-67.000000
31
0.0
0
LINE
8
0
6
CONTINUOUS
10
-50.000000
20
-67.000000
30
0.0
11
-49.500000
21
-67.000000
31
0.0
0
LINE
8
0
6
CONTINUOUS
10
-39.600000
20
-71.000000
30
0.0
11
-35.300000
21
-71.000000
31
0.0
0
LINE
8
0
6
CONTINUOUS
10
-35.300000
20
-67.000000
30
0.0
11
-39.600000
21
-67.000000
31
0.0
0
LINE
8
0
6
CONTINUOUS
10
-43.300000
20
-71.000000
30
0.0
11
-39.600000
21
-71.000000
31
0.0
0
LINE
8
0
6
CONTINUOUS
10
-39.600000
20
-67.000000
30
0.0
11
-43.300000
21
-67.000000
31
0.0
0
LINE
8
0
6
CONTINUOUS
10
-46.100000
20
-71.000000
30
0.0
11
-43.300000
21
-71.000000
31
0.0
0
LINE
8
0
6
CONTINUOUS
10
-43.300000
20
-67.000000
30
0.0
11
-46.100000
21
-67.000000
31
0.0
0
LINE
8
0
6
CONTINUOUS
10
-48.200000
20
-71.000000
30
0.0
11
-46.100000
21
-71.000000
31
0.0
0
LINE
8
0
6
CONTINUOUS
10
-46.100000
20
-67.000000
30
0.0
11
-48.200000
21
-67.000000
31
0.0
0
LINE
8
0
6
CONTINUOUS
10
-49.500000
20
-71.000000
30
0.0
11
-48.200000
21
-71.000000
31
0.0
0
LINE
8
0
6
CONTINUOUS
10
-48.200000
20
-67.000000
30
0.0
11
-49.500000
21
-67.000000
31
0.0
0
LINE
8
0
6
CONTINUOUS
10
-50.000000
20
-71.000000
30
0.0
11
-49.500000
21
-71.000000
31
0.0
0
LINE
8
0
6
CONTINUOUS
10
-49.500000
20
-67.000000
30
0.0
11
-50.000000
21
-67.000000
31
0.0
0
LINE
8
0
6
CONTINUOUS
10
-35.300000
20
-67.000000
30
0.0
11
-39.600000
21
-67.000000
31
0.0
0
LINE
8
0
6
CONTINUOUS
10
-39.600000
20
-67.000000
30
0.0
11
-43.300000
21
-67.000000
31
0.0
0
LINE
8
0
6
CONTINUOUS
10
-43.300000
20
-67.000000
30
0.0
11
-46.100000
21
-67.000000
31
0.0
0
LINE
8
0
6
CONTINUOUS
10
-46.100000
20
-67.000000
30
0.0
11
-48.200000
21
-67.000000
31
0.0
0
LINE
8
0
6
CONTINUOUS
10
-48.200000
20
-67.000000
30
0.0
11
-49.500000
21
-67.000000
31
0.0
0
LINE
8
0
6
CONTINUOUS
10
-49.500000
20
-67.000000
30
0.0
11
-50.000000
21
-67.000000
31
0.0
0
LINE
8
0
6
CONTINUOUS
10
-39.600000
20
-67.000000
30
0.0
11
-35.300000
21
-67.000000
31
0.0
0
LINE
8
0
6
CONTINUOUS
10
-43.300000
20
-67.000000
30
0.0
11
-39.600000
21
-67.000000
31
0.0
0
LINE
8
0
6
CONTINUOUS
10
-46.100000
20
-67.000000
30
0.0
11
-43.300000
21
-67.000000
31
0.0
0
LINE
8
0
6
CONTINUOUS
10
-48.200000
20
-67.000000
30
0.0
11
-46.100000
21
-67.000000
31
0.0
0
LINE
8
0
6
CONTINUOUS
10
-49.500000
20
-67.000000
30
0.0
11
-48.200000
21
-67.000000
31
0.0
0
LINE
8
0
6
CONTINUOUS
10
-50.000000
20
-67.000000
30
0.0
11
-49.500000
21
-67.000000
31
0.0
0
LINE
8
0
6
CONTINUOUS
10
-50.000000
20
-71.000000
30
0.0
11
-50.000000
21
-67.000000
31
0.0
0
LINE
8
0
6
CONTINUOUS
10
-30.400000
20
-67.000000
30
0.0
11
-35.300000
21
-67.000000
31
0.0
0
LINE
8
0
6
CONTINUOUS
10
-24.900000
20
-67.000000
30
0.0
11
-30.400000
21
-67.000000
31
0.0
0
LINE
8
0
6
CONTINUOUS
10
-19.100000
20
-67.000000
30
0.0
11
-24.900000
21
-67.000000
31
0.0
0
LINE
8
0
6
CONTINUOUS
10
-35.300000
20
-67.000000
30
0.0
11
-30.400000
21
-67.000000
31
0.0
0
LINE
8
0
6
CONTINUOUS
10
-30.400000
20
-67.000000
30
0.0
11
-24.900000
21
-67.000000
31
0.0
0
LINE
8
0
6
CONTINUOUS
10
-24.900000
20
-67.000000
30
0.0
11
-19.100000
21
-67.000000
31
0.0
0
LINE
8
0
6
CONTINUOUS
10
9.634000
20
-36.301700
30
0.0
11
9.724000
21
-35.965300
31
0.0
0
LINE
8
0
6
CONTINUOUS
10
9.724000
20
-35.965300
30
0.0
11
9.724000
21
-34.346600
31
0.0
0
LINE
8
0
6
CONTINUOUS
10
9.724000
20
-35.965300
30
0.0
11
9.634000
21
-36.301700
31
0.0
0
LINE
8
0
6
CONTINUOUS
10
9.634000
20
-36.301700
30
0.0
11
9.374000
21
-36.603200
31
0.0
0
LINE
8
0
6
CONTINUOUS
10
9.724000
20
-34.346600
30
0.0
11
9.724000
21
-35.965300
31
0.0
0
LINE
8
0
6
CONTINUOUS
10
13.500000
20
-22.000000
30
0.0
11
12.742000
21
-22.000000
31
0.0
0
LINE
8
0
6
CONTINUOUS
10
11.747000
20
-22.000000
30
0.0
11
10.534000
21
-22.000000
31
0.0
0
LINE
8
0
6
CONTINUOUS
10
12.742000
20
-22.000000
30
0.0
11
11.747000
21
-22.000000
31
0.0
0
LINE
8
0
6
CONTINUOUS
10
10.636000
20
-41.555400
30
0.0
11
10.442000
21
-41.399200
31
0.0
0
LINE
8
0
6
CONTINUOUS
10
10.113000
20
-40.185700
30
0.0
11
10.283000
21
-39.966400
31
0.0
0
LINE
8
0
6
CONTINUOUS
10
10.442000
20
-41.399200
30
0.0
11
10.135000
21
-41.044200
31
0.0
0
LINE
8
0
6
CONTINUOUS
10
10.635000
20
-41.696300
30
0.0
11
10.442000
21
-41.399200
31
0.0
0
LINE
8
0
6
CONTINUOUS
10
10.135000
20
-41.044200
30
0.0
11
10.023000
21
-40.617200
31
0.0
0
LINE
8
0
6
CONTINUOUS
10
10.023000
20
-40.617200
30
0.0
11
10.113000
21
-40.185700
31
0.0
0
LINE
8
0
6
CONTINUOUS
10
13.902000
20
-36.737500
30
0.0
11
12.041000
21
-38.373900
31
0.0
0
LINE
8
0
6
CONTINUOUS
10
12.041000
20
-38.373900
30
0.0
11
10.381000
21
-39.818700
31
0.0
0
LINE
8
0
6
CONTINUOUS
10
10.381000
20
-39.818700
30
0.0
11
10.283000
21
-39.966400
31
0.0
0
LINE
8
0
6
CONTINUOUS
10
10.636000
20
-41.555400
30
0.0
11
10.701000
21
-41.615900
31
0.0
0
LINE
8
0
6
CONTINUOUS
10
12.075000
20
-42.930800
30
0.0
11
13.241000
21
-44.390800
31
0.0
0
LINE
8
0
6
CONTINUOUS
10
10.701000
20
-41.615900
30
0.0
11
12.075000
21
-42.930800
31
0.0
0
LINE
8
0
6
CONTINUOUS
10
14.005000
20
-22.000000
30
0.0
11
13.500000
21
-22.000000
31
0.0
0
LINE
8
0
6
CONTINUOUS
10
14.270000
20
-35.965300
30
0.0
11
14.250000
21
-22.000000
31
0.0
0
LINE
8
0
6
CONTINUOUS
10
14.250000
20
-22.000000
30
0.0
11
14.005000
21
-22.000000
31
0.0
0
LINE
8
0
6
CONTINUOUS
10
13.902000
20
-36.737500
30
0.0
11
14.171000
21
-36.383600
31
0.0
0
LINE
8
0
6
CONTINUOUS
10
14.171000
20
-36.383600
30
0.0
11
14.270000
21
-35.965300
31
0.0
0
LINE
8
0
6
CONTINUOUS
10
13.902000
20
-36.737500
30
0.0
11
13.710000
21
-36.737500
31
0.0
0
LINE
8
0
6
CONTINUOUS
10
10.334000
20
-39.818700
30
0.0
11
13.902000
21
-36.737500
31
0.0
0
LINE
8
0
6
CONTINUOUS
10
0.143000
20
-33.468400
30
0.0
11
1.794000
21
-33.491400
31
0.0
0
LINE
8
0
6
CONTINUOUS
10
2.087000
20
-22.000000
30
0.0
11
0.143000
21
-22.000000
31
0.0
0
LINE
8
0
6
CONTINUOUS
10
-0.011000
20
-33.470600
30
0.0
11
0.143000
21
-33.468400
31
0.0
0
LINE
8
0
6
CONTINUOUS
10
0.143000
20
-22.000000
30
0.0
11
-0.011000
21
-22.000000
31
0.0
0
LINE
8
0
6
CONTINUOUS
10
7.543000
20
-22.000000
30
0.0
11
9.124000
21
-22.000000
31
0.0
0
LINE
8
0
6
CONTINUOUS
10
7.731000
20
-37.525000
30
0.0
11
6.446000
21
-38.147500
31
0.0
0
LINE
8
0
6
CONTINUOUS
10
6.446000
20
-38.147500
30
0.0
11
4.471000
21
-38.931700
31
0.0
0
LINE
8
0
6
CONTINUOUS
10
9.175000
20
-36.737500
30
0.0
11
7.731000
21
-37.525000
31
0.0
0
LINE
8
0
6
CONTINUOUS
10
2.721000
20
-39.413500
30
0.0
11
1.224000
21
-39.641800
31
0.0
0
LINE
8
0
6
CONTINUOUS
10
1.224000
20
-39.641800
30
0.0
11
-0.011000
21
-39.682600
31
0.0
0
LINE
8
0
6
CONTINUOUS
10
4.471000
20
-38.931700
30
0.0
11
2.721000
21
-39.413500
31
0.0
0
LINE
8
0
6
CONTINUOUS
10
6.502000
20
-33.822400
30
0.0
11
7.647000
21
-33.974200
31
0.0
0
LINE
8
0
6
CONTINUOUS
10
7.543000
20
-22.000000
30
0.0
11
5.821000
21
-22.000000
31
0.0
0
LINE
8
0
6
CONTINUOUS
10
4.995000
20
-33.669400
30
0.0
11
6.502000
21
-33.822400
31
0.0
0
LINE
8
0
6
CONTINUOUS
10
7.647000
20
-33.974200
30
0.0
11
8.724000
21
-34.148900
31
0.0
0
LINE
8
0
6
CONTINUOUS
10
9.124000
20
-22.000000
30
0.0
11
7.543000
21
-22.000000
31
0.0
0
LINE
8
0
6
CONTINUOUS
10
5.821000
20
-22.000000
30
0.0
11
3.991000
21
-22.000000
31
0.0
0
LINE
8
0
6
CONTINUOUS
10
3.420000
20
-33.558000
30
0.0
11
4.995000
21
-33.669400
31
0.0
0
LINE
8
0
6
CONTINUOUS
10
1.794000
20
-33.491400
30
0.0
11
3.420000
21
-33.558000
31
0.0
0
LINE
8
0
6
CONTINUOUS
10
3.991000
20
-22.000000
30
0.0
11
2.087000
21
-22.000000
31
0.0
0
LINE
8
0
6
CONTINUOUS
10
0.143000
20
-22.000000
30
0.0
11
2.087000
21
-22.000000
31
0.0
0
LINE
8
0
6
CONTINUOUS
10
-0.011000
20
-22.000000
30
0.0
11
0.143000
21
-22.000000
31
0.0
0
LINE
8
0
6
CONTINUOUS
10
9.374000
20
-36.603200
30
0.0
11
9.634000
21
-36.301700
31
0.0
0
LINE
8
0
6
CONTINUOUS
10
9.175000
20
-36.737500
30
0.0
11
9.374000
21
-36.603200
31
0.0
0
LINE
8
0
6
CONTINUOUS
10
9.374000
20
-36.603200
30
0.0
11
9.175000
21
-36.737500
31
0.0
0
LINE
8
0
6
CONTINUOUS
10
7.731000
20
-37.525000
30
0.0
11
9.175000
21
-36.737500
31
0.0
0
LINE
8
0
6
CONTINUOUS
10
8.724000
20
-34.148900
30
0.0
11
7.647000
21
-33.974200
31
0.0
0
LINE
8
0
6
CONTINUOUS
10
1.224000
20
-39.641800
30
0.0
11
2.721000
21
-39.413500
31
0.0
0
LINE
8
0
6
CONTINUOUS
10
2.721000
20
-39.413500
30
0.0
11
4.471000
21
-38.931700
31
0.0
0
LINE
8
0
6
CONTINUOUS
10
9.724000
20
-34.346600
30
0.0
11
-0.011000
21
-34.346600
31
0.0
0
LINE
8
0
6
CONTINUOUS
10
-0.011000
20
-39.682600
30
0.0
11
1.224000
21
-39.641800
31
0.0
0
LINE
8
0
6
CONTINUOUS
10
6.446000
20
-38.147500
30
0.0
11
7.731000
21
-37.525000
31
0.0
0
LINE
8
0
6
CONTINUOUS
10
4.471000
20
-38.931700
30
0.0
11
6.446000
21
-38.147500
31
0.0
0
LINE
8
0
6
CONTINUOUS
10
1.794000
20
-33.491400
30
0.0
11
0.143000
21
-33.468400
31
0.0
0
LINE
8
0
6
CONTINUOUS
10
0.143000
20
-33.468400
30
0.0
11
-0.011000
21
-33.470600
31
0.0
0
LINE
8
0
6
CONTINUOUS
10
6.502000
20
-33.822400
30
0.0
11
4.995000
21
-33.669400
31
0.0
0
LINE
8
0
6
CONTINUOUS
10
-0.011000
20
-34.346600
30
0.0
11
9.724000
21
-34.346600
31
0.0
0
LINE
8
0
6
CONTINUOUS
10
8.724000
20
-34.148900
30
0.0
11
9.724000
21
-34.346600
31
0.0
0
LINE
8
0
6
CONTINUOUS
10
10.534000
20
-22.000000
30
0.0
11
9.124000
21
-22.000000
31
0.0
0
LINE
8
0
6
CONTINUOUS
10
10.412000
20
-46.138300
30
0.0
11
11.860000
21
-46.138300
31
0.0
0
LINE
8
0
6
CONTINUOUS
10
10.412000
20
-54.657800
30
0.0
11
11.860000
21
-54.657800
31
0.0
0
LINE
8
0
6
CONTINUOUS
10
11.860000
20
-46.138300
30
0.0
11
10.412000
21
-46.138300
31
0.0
0
LINE
8
0
6
CONTINUOUS
10
10.341000
20
-66.453900
30
0.0
11
11.781000
21
-66.453900
31
0.0
0
LINE
8
0
6
CONTINUOUS
10
15.471000
20
-54.657800
30
0.0
11
16.390000
21
-54.657800
31
0.0
0
LINE
8
0
6
CONTINUOUS
10
16.390000
20
-46.138300
30
0.0
11
15.471000
21
-46.138300
31
0.0
0
LINE
8
0
6
CONTINUOUS
10
14.060000
20
-45.155400
30
0.0
11
12.870000
21
-45.155400
31
0.0
0
LINE
8
0
6
CONTINUOUS
10
11.548000
20
-45.155400
30
0.0
11
12.870000
21
-45.155400
31
0.0
0
LINE
8
0
6
CONTINUOUS
10
12.423000
20
-44.609200
30
0.0
11
11.147000
21
-44.609200
31
0.0
0
LINE
8
0
6
CONTINUOUS
10
12.870000
20
-45.992000
30
0.0
11
11.548000
21
-45.992000
31
0.0
0
LINE
8
0
6
CONTINUOUS
10
13.196000
20
-46.138300
30
0.0
11
14.403000
21
-46.138300
31
0.0
0
LINE
8
0
6
CONTINUOUS
10
12.870000
20
-45.155400
30
0.0
11
11.548000
21
-45.155400
31
0.0
0
LINE
8
0
6
CONTINUOUS
10
14.403000
20
-54.657800
30
0.0
11
13.196000
21
-54.657800
31
0.0
0
LINE
8
0
6
CONTINUOUS
10
13.196000
20
-54.657800
30
0.0
11
14.403000
21
-54.657800
31
0.0
0
LINE
8
0
6
CONTINUOUS
10
14.403000
20
-46.138300
30
0.0
11
13.196000
21
-46.138300
31
0.0
0
LINE
8
0
6
CONTINUOUS
10
12.870000
20
-45.155400
30
0.0
11
14.060000
21
-45.155400
31
0.0
0
LINE
8
0
6
CONTINUOUS
10
13.571000
20
-44.609200
30
0.0
11
12.423000
21
-44.609200
31
0.0
0
LINE
8
0
6
CONTINUOUS
10
15.105000
20
-45.992000
30
0.0
11
14.060000
21
-45.992000
31
0.0
0
LINE
8
0
6
CONTINUOUS
10
15.471000
20
-46.138300
30
0.0
11
16.390000
21
-46.138300
31
0.0
0
LINE
8
0
6
CONTINUOUS
10
14.060000
20
-45.155400
30
0.0
11
15.105000
21
-45.155400
31
0.0
0
LINE
8
0
6
CONTINUOUS
10
14.579000
20
-44.609200
30
0.0
11
13.571000
21
-44.609200
31
0.0
0
LINE
8
0
6
CONTINUOUS
10
15.105000
20
-45.155400
30
0.0
11
14.060000
21
-45.155400
31
0.0
0
LINE
8
0
6
CONTINUOUS
10
15.471000
20
-54.657800
30
0.0
11
14.403000
21
-54.657800
31
0.0
0
LINE
8
0
6
CONTINUOUS
10
14.403000
20
-54.657800
30
0.0
11
15.471000
21
-54.657800
31
0.0
0
LINE
8
0
6
CONTINUOUS
10
15.471000
20
-46.138300
30
0.0
11
14.403000
21
-46.138300
31
0.0
0
LINE
8
0
6
CONTINUOUS
10
14.060000
20
-45.992000
30
0.0
11
12.870000
21
-45.992000
31
0.0
0
LINE
8
0
6
CONTINUOUS
10
14.403000
20
-46.138300
30
0.0
11
15.471000
21
-46.138300
31
0.0
0
LINE
8
0
6
CONTINUOUS
10
12.781000
20
-67.000000
30
0.0
11
11.469000
21
-67.000000
31
0.0
0
LINE
8
0
6
CONTINUOUS
10
12.781000
20
-67.000000
30
0.0
11
13.962000
21
-67.000000
31
0.0
0
LINE
8
0
6
CONTINUOUS
10
14.306000
20
-66.453900
30
0.0
11
13.106000
21
-66.453900
31
0.0
0
LINE
8
0
6
CONTINUOUS
10
13.962000
20
-67.000000
30
0.0
11
12.781000
21
-67.000000
31
0.0
0
LINE
8
0
6
CONTINUOUS
10
13.962000
20
-67.000000
30
0.0
11
14.999000
21
-67.000000
31
0.0
0
LINE
8
0
6
CONTINUOUS
10
15.367000
20
-66.453900
30
0.0
11
14.306000
21
-66.453900
31
0.0
0
LINE
8
0
6
CONTINUOUS
10
15.367000
20
-66.453900
30
0.0
11
16.281000
21
-66.453900
31
0.0
0
LINE
8
0
6
CONTINUOUS
10
13.106000
20
-66.453900
30
0.0
11
14.306000
21
-66.453900
31
0.0
0
LINE
8
0
6
CONTINUOUS
10
14.306000
20
-66.453900
30
0.0
11
15.367000
21
-66.453900
31
0.0
0
LINE
8
0
6
CONTINUOUS
10
15.995000
20
-45.155400
30
0.0
11
16.721000
21
-45.155400
31
0.0
0
LINE
8
0
6
CONTINUOUS
10
16.139000
20
-44.609200
30
0.0
11
15.439000
21
-44.609200
31
0.0
0
LINE
8
0
6
CONTINUOUS
10
16.721000
20
-45.992000
30
0.0
11
15.994000
21
-45.992000
31
0.0
0
LINE
8
0
6
CONTINUOUS
10
17.152000
20
-46.138300
30
0.0
11
17.748000
21
-46.138300
31
0.0
0
LINE
8
0
6
CONTINUOUS
10
16.721000
20
-45.155400
30
0.0
11
15.995000
21
-45.155400
31
0.0
0
LINE
8
0
6
CONTINUOUS
10
17.152000
20
-54.657800
30
0.0
11
17.748000
21
-54.657800
31
0.0
0
LINE
8
0
6
CONTINUOUS
10
17.748000
20
-46.138300
30
0.0
11
17.152000
21
-46.138300
31
0.0
0
LINE
8
0
6
CONTINUOUS
10
17.275000
20
-45.155400
30
0.0
11
17.651000
21
-45.155400
31
0.0
0
LINE
8
0
6
CONTINUOUS
10
17.038000
20
-44.609200
30
0.0
11
16.675000
21
-44.609200
31
0.0
0
LINE
8
0
6
CONTINUOUS
10
17.651000
20
-45.155400
30
0.0
11
17.275000
21
-45.155400
31
0.0
0
LINE
8
0
6
CONTINUOUS
10
18.174000
20
-46.138300
30
0.0
11
17.748000
21
-46.138300
31
0.0
0
LINE
8
0
6
CONTINUOUS
10
17.748000
20
-54.657800
30
0.0
11
18.174000
21
-54.657800
31
0.0
0
LINE
8
0
6
CONTINUOUS
10
17.748000
20
-54.657800
30
0.0
11
17.152000
21
-54.657800
31
0.0
0
LINE
8
0
6
CONTINUOUS
10
17.275000
20
-45.992000
30
0.0
11
16.721000
21
-45.992000
31
0.0
0
LINE
8
0
6
CONTINUOUS
10
17.748000
20
-46.138300
30
0.0
11
18.174000
21
-46.138300
31
0.0
0
LINE
8
0
6
CONTINUOUS
10
16.675000
20
-44.609200
30
0.0
11
17.038000
21
-44.609200
31
0.0
0
LINE
8
0
6
CONTINUOUS
10
16.139000
20
-44.609200
30
0.0
11
16.675000
21
-44.609200
31
0.0
0
LINE
8
0
6
CONTINUOUS
10
15.439000
20
-44.609200
30
0.0
11
16.139000
21
-44.609200
31
0.0
0
LINE
8
0
6
CONTINUOUS
10
17.275000
20
-45.155400
30
0.0
11
16.721000
21
-45.155400
31
0.0
0
LINE
8
0
6
CONTINUOUS
10
16.721000
20
-45.155400
30
0.0
11
17.275000
21
-45.155400
31
0.0
0
LINE
8
0
6
CONTINUOUS
10
16.675000
20
-44.609200
30
0.0
11
16.139000
21
-44.609200
31
0.0
0
LINE
8
0
6
CONTINUOUS
10
17.154000
20
-67.000000
30
0.0
11
17.528000
21
-67.000000
31
0.0
0
LINE
8
0
6
CONTINUOUS
10
18.051000
20
-66.453900
30
0.0
11
17.629000
21
-66.453900
31
0.0
0
LINE
8
0
6
CONTINUOUS
10
16.604000
20
-67.000000
30
0.0
11
17.154000
21
-67.000000
31
0.0
0
LINE
8
0
6
CONTINUOUS
10
17.629000
20
-66.453900
30
0.0
11
17.038000
21
-66.453900
31
0.0
0
LINE
8
0
6
CONTINUOUS
10
17.629000
20
-66.453900
30
0.0
11
18.051000
21
-66.453900
31
0.0
0
LINE
8
0
6
CONTINUOUS
10
17.038000
20
-66.453900
30
0.0
11
17.629000
21
-66.453900
31
0.0
0
LINE
8
0
6
CONTINUOUS
10
14.999000
20
-67.000000
30
0.0
11
15.883000
21
-67.000000
31
0.0
0
LINE
8
0
6
CONTINUOUS
10
16.281000
20
-66.453900
30
0.0
11
15.367000
21
-66.453900
31
0.0
0
LINE
8
0
6
CONTINUOUS
10
15.105000
20
-45.155400
30
0.0
11
15.995000
21
-45.155400
31
0.0
0
LINE
8
0
6
CONTINUOUS
10
15.439000
20
-44.609200
30
0.0
11
14.579000
21
-44.609200
31
0.0
0
LINE
8
0
6
CONTINUOUS
10
15.995000
20
-45.155400
30
0.0
11
15.105000
21
-45.155400
31
0.0
0
LINE
8
0
6
CONTINUOUS
10
16.390000
20
-54.657800
30
0.0
11
15.471000
21
-54.657800
31
0.0
0
LINE
8
0
6
CONTINUOUS
10
15.994000
20
-45.992000
30
0.0
11
15.105000
21
-45.992000
31
0.0
0
LINE
8
0
6
CONTINUOUS
10
16.390000
20
-46.138300
30
0.0
11
17.152000
21
-46.138300
31
0.0
0
LINE
8
0
6
CONTINUOUS
10
16.281000
20
-66.453900
30
0.0
11
17.038000
21
-66.453900
31
0.0
0
LINE
8
0
6
CONTINUOUS
10
15.883000
20
-67.000000
30
0.0
11
16.604000
21
-67.000000
31
0.0
0
LINE
8
0
6
CONTINUOUS
10
17.038000
20
-66.453900
30
0.0
11
16.281000
21
-66.453900
31
0.0
0
LINE
8
0
6
CONTINUOUS
10
17.152000
20
-54.657800
30
0.0
11
16.390000
21
-54.657800
31
0.0
0
LINE
8
0
6
CONTINUOUS
10
16.390000
20
-54.657800
30
0.0
11
17.152000
21
-54.657800
31
0.0
0
LINE
8
0
6
CONTINUOUS
10
17.152000
20
-46.138300
30
0.0
11
16.390000
21
-46.138300
31
0.0
0
LINE
8
0
6
CONTINUOUS
10
18.424000
20
-46.138300
30
0.0
11
18.489000
21
-46.138300
31
0.0
0
LINE
8
0
6
CONTINUOUS
10
18.489000
20
-54.657800
30
0.0
11
18.424000
21
-54.657800
31
0.0
0
LINE
8
0
6
CONTINUOUS
10
18.424000
20
-54.657800
30
0.0
11
18.489000
21
-54.657800
31
0.0
0
LINE
8
0
6
CONTINUOUS
10
18.489000
20
-46.138300
30
0.0
11
18.424000
21
-46.138300
31
0.0
0
LINE
8
0
6
CONTINUOUS
10
17.038000
20
-44.609200
30
0.0
11
17.226000
21
-44.609200
31
0.0
0
LINE
8
0
6
CONTINUOUS
10
18.404000
20
-46.117700
30
0.0
11
18.489000
21
-46.138300
31
0.0
0
LINE
8
0
6
CONTINUOUS
10
17.853000
20
-45.992000
30
0.0
11
18.404000
21
-46.117700
31
0.0
0
LINE
8
0
6
CONTINUOUS
10
17.853000
20
-45.155400
30
0.0
11
17.853000
21
-45.992000
31
0.0
0
LINE
8
0
6
CONTINUOUS
10
17.233000
20
-44.609200
30
0.0
11
17.853000
21
-45.155400
31
0.0
0
LINE
8
0
6
CONTINUOUS
10
17.853000
20
-55.422400
30
0.0
11
18.365000
21
-56.179200
31
0.0
0
LINE
8
0
6
CONTINUOUS
10
17.853000
20
-54.657800
30
0.0
11
17.853000
21
-55.422400
31
0.0
0
LINE
8
0
6
CONTINUOUS
10
18.489000
20
-46.138300
30
0.0
11
18.489000
21
-54.657800
31
0.0
0
LINE
8
0
6
CONTINUOUS
10
18.365000
20
-66.453900
30
0.0
11
18.299000
21
-66.453900
31
0.0
0
LINE
8
0
6
CONTINUOUS
10
18.365000
20
-66.453900
30
0.0
11
17.730000
21
-67.000000
31
0.0
0
LINE
8
0
6
CONTINUOUS
10
18.365000
20
-66.453900
30
0.0
11
18.365000
21
-56.179200
31
0.0
0
LINE
8
0
6
CONTINUOUS
10
18.299000
20
-66.453900
30
0.0
11
18.365000
21
-66.453900
31
0.0
0
LINE
8
0
6
CONTINUOUS
10
16.139000
20
-44.609200
30
0.0
11
16.675000
21
-44.609200
31
0.0
0
LINE
8
0
6
CONTINUOUS
10
17.748000
20
-46.138300
30
0.0
11
17.152000
21
-46.138300
31
0.0
0
LINE
8
0
6
CONTINUOUS
10
15.439000
20
-44.609200
30
0.0
11
16.139000
21
-44.609200
31
0.0
0
LINE
8
0
6
CONTINUOUS
10
16.139000
20
-44.609200
30
0.0
11
15.439000
21
-44.609200
31
0.0
0
LINE
8
0
6
CONTINUOUS
10
16.675000
20
-44.609200
30
0.0
11
16.139000
21
-44.609200
31
0.0
0
LINE
8
0
6
CONTINUOUS
10
17.038000
20
-44.609200
30
0.0
11
16.675000
21
-44.609200
31
0.0
0
LINE
8
0
6
CONTINUOUS
10
18.424000
20
-46.138300
30
0.0
11
18.174000
21
-46.138300
31
0.0
0
LINE
8
0
6
CONTINUOUS
10
16.675000
20
-44.609200
30
0.0
11
17.038000
21
-44.609200
31
0.0
0
LINE
8
0
6
CONTINUOUS
10
18.174000
20
-46.138300
30
0.0
11
17.748000
21
-46.138300
31
0.0
0
LINE
8
0
6
CONTINUOUS
10
18.174000
20
-54.657800
30
0.0
11
17.748000
21
-54.657800
31
0.0
0
LINE
8
0
6
CONTINUOUS
10
17.651000
20
-45.992000
30
0.0
11
17.275000
21
-45.992000
31
0.0
0
LINE
8
0
6
CONTINUOUS
10
18.174000
20
-46.138300
30
0.0
11
18.424000
21
-46.138300
31
0.0
0
LINE
8
0
6
CONTINUOUS
10
18.051000
20
-66.453900
30
0.0
11
18.299000
21
-66.453900
31
0.0
0
LINE
8
0
6
CONTINUOUS
10
17.528000
20
-67.000000
30
0.0
11
17.723000
21
-67.000000
31
0.0
0
LINE
8
0
6
CONTINUOUS
10
18.299000
20
-66.453900
30
0.0
11
18.051000
21
-66.453900
31
0.0
0
LINE
8
0
6
CONTINUOUS
10
18.424000
20
-54.657800
30
0.0
11
18.174000
21
-54.657800
31
0.0
0
LINE
8
0
6
CONTINUOUS
10
18.424000
20
-46.138300
30
0.0
11
18.174000
21
-46.138300
31
0.0
0
LINE
8
0
6
CONTINUOUS
10
18.174000
20
-54.657800
30
0.0
11
18.424000
21
-54.657800
31
0.0
0
LINE
8
0
6
CONTINUOUS
10
17.846000
20
-45.992000
30
0.0
11
17.651000
21
-45.992000
31
0.0
0
LINE
8
0
6
CONTINUOUS
10
17.846000
20
-45.992000
30
0.0
11
17.651000
21
-45.992000
31
0.0
0
LINE
8
0
6
CONTINUOUS
10
18.424000
20
-46.138300
30
0.0
11
17.846000
21
-45.992000
31
0.0
0
LINE
8
0
6
CONTINUOUS
10
17.651000
20
-45.155400
30
0.0
11
17.846000
21
-45.155400
31
0.0
0
LINE
8
0
6
CONTINUOUS
10
17.226000
20
-44.609200
30
0.0
11
17.038000
21
-44.609200
31
0.0
0
LINE
8
0
6
CONTINUOUS
10
17.651000
20
-45.992000
30
0.0
11
17.846000
21
-45.992000
31
0.0
0
LINE
8
0
6
CONTINUOUS
10
17.846000
20
-45.155400
30
0.0
11
17.651000
21
-45.155400
31
0.0
0
LINE
8
0
6
CONTINUOUS
10
10.038000
20
-67.000000
30
0.0
11
11.469000
21
-67.000000
31
0.0
0
LINE
8
0
6
CONTINUOUS
10
11.781000
20
-66.453900
30
0.0
11
10.341000
21
-66.453900
31
0.0
0
LINE
8
0
6
CONTINUOUS
10
11.860000
20
-54.657800
30
0.0
11
10.412000
21
-54.657800
31
0.0
0
LINE
8
0
6
CONTINUOUS
10
11.781000
20
-66.453900
30
0.0
11
13.106000
21
-66.453900
31
0.0
0
LINE
8
0
6
CONTINUOUS
10
11.469000
20
-67.000000
30
0.0
11
12.781000
21
-67.000000
31
0.0
0
LINE
8
0
6
CONTINUOUS
10
13.106000
20
-66.453900
30
0.0
11
11.781000
21
-66.453900
31
0.0
0
LINE
8
0
6
CONTINUOUS
10
11.469000
20
-67.000000
30
0.0
11
10.038000
21
-67.000000
31
0.0
0
LINE
8
0
6
CONTINUOUS
10
11.860000
20
-54.657800
30
0.0
11
13.196000
21
-54.657800
31
0.0
0
LINE
8
0
6
CONTINUOUS
10
13.196000
20
-46.138300
30
0.0
11
11.860000
21
-46.138300
31
0.0
0
LINE
8
0
6
CONTINUOUS
10
13.196000
20
-54.657800
30
0.0
11
11.860000
21
-54.657800
31
0.0
0
LINE
8
0
6
CONTINUOUS
10
11.548000
20
-45.992000
30
0.0
11
10.109000
21
-45.992000
31
0.0
0
LINE
8
0
6
CONTINUOUS
10
11.860000
20
-46.138300
30
0.0
11
13.196000
21
-46.138300
31
0.0
0
LINE
8
0
6
CONTINUOUS
10
10.109000
20
-45.155400
30
0.0
11
11.548000
21
-45.155400
31
0.0
0
LINE
8
0
6
CONTINUOUS
10
11.147000
20
-44.609200
30
0.0
11
9.757000
21
-44.609200
31
0.0
0
LINE
8
0
6
CONTINUOUS
10
11.548000
20
-45.155400
30
0.0
11
10.109000
21
-45.155400
31
0.0
0
LINE
8
0
6
CONTINUOUS
10
5.229000
20
-45.992000
30
0.0
11
3.472000
21
-45.992000
31
0.0
0
LINE
8
0
6
CONTINUOUS
10
3.765000
20
-46.138300
30
0.0
11
5.523000
21
-46.138300
31
0.0
0
LINE
8
0
6
CONTINUOUS
10
3.472000
20
-45.992000
30
0.0
11
5.229000
21
-45.992000
31
0.0
0
LINE
8
0
6
CONTINUOUS
10
5.229000
20
-45.155400
30
0.0
11
3.472000
21
-45.155400
31
0.0
0
LINE
8
0
6
CONTINUOUS
10
3.765000
20
-54.657800
30
0.0
11
5.523000
21
-54.657800
31
0.0
0
LINE
8
0
6
CONTINUOUS
10
5.523000
20
-46.138300
30
0.0
11
3.765000
21
-46.138300
31
0.0
0
LINE
8
0
6
CONTINUOUS
10
5.523000
20
-54.657800
30
0.0
11
7.227000
21
-54.657800
31
0.0
0
LINE
8
0
6
CONTINUOUS
10
7.227000
20
-46.138300
30
0.0
11
5.523000
21
-46.138300
31
0.0
0
LINE
8
0
6
CONTINUOUS
10
6.933000
20
-45.992000
30
0.0
11
8.565000
21
-45.992000
31
0.0
0
LINE
8
0
6
CONTINUOUS
10
8.565000
20
-45.155400
30
0.0
11
6.933000
21
-45.155400
31
0.0
0
LINE
8
0
6
CONTINUOUS
10
8.267000
20
-44.609200
30
0.0
11
6.692000
21
-44.609200
31
0.0
0
LINE
8
0
6
CONTINUOUS
10
6.933000
20
-45.155400
30
0.0
11
8.565000
21
-45.155400
31
0.0
0
LINE
8
0
6
CONTINUOUS
10
5.523000
20
-54.657800
30
0.0
11
3.765000
21
-54.657800
31
0.0
0
LINE
8
0
6
CONTINUOUS
10
7.227000
20
-54.657800
30
0.0
11
8.862000
21
-54.657800
31
0.0
0
LINE
8
0
6
CONTINUOUS
10
8.862000
20
-46.138300
30
0.0
11
7.227000
21
-46.138300
31
0.0
0
LINE
8
0
6
CONTINUOUS
10
7.227000
20
-54.657800
30
0.0
11
5.523000
21
-54.657800
31
0.0
0
LINE
8
0
6
CONTINUOUS
10
8.862000
20
-54.657800
30
0.0
11
7.227000
21
-54.657800
31
0.0
0
LINE
8
0
6
CONTINUOUS
10
5.229000
20
-45.992000
30
0.0
11
6.933000
21
-45.992000
31
0.0
0
LINE
8
0
6
CONTINUOUS
10
6.933000
20
-45.155400
30
0.0
11
5.229000
21
-45.155400
31
0.0
0
LINE
8
0
6
CONTINUOUS
10
6.933000
20
-45.992000
30
0.0
11
5.229000
21
-45.992000
31
0.0
0
LINE
8
0
6
CONTINUOUS
10
5.523000
20
-46.138300
30
0.0
11
7.227000
21
-46.138300
31
0.0
0
LINE
8
0
6
CONTINUOUS
10
5.229000
20
-45.155400
30
0.0
11
6.933000
21
-45.155400
31
0.0
0
LINE
8
0
6
CONTINUOUS
10
6.692000
20
-44.609200
30
0.0
11
5.047000
21
-44.609200
31
0.0
0
LINE
8
0
6
CONTINUOUS
10
8.565000
20
-45.992000
30
0.0
11
6.933000
21
-45.992000
31
0.0
0
LINE
8
0
6
CONTINUOUS
10
7.227000
20
-46.138300
30
0.0
11
8.862000
21
-46.138300
31
0.0
0
LINE
8
0
6
CONTINUOUS
10
-0.011000
20
-46.138300
30
0.0
11
0.158000
21
-46.138300
31
0.0
0
LINE
8
0
6
CONTINUOUS
10
1.678000
20
-45.992000
30
0.0
11
-0.011000
21
-45.992000
31
0.0
0
LINE
8
0
6
CONTINUOUS
10
1.678000
20
-45.992000
30
0.0
11
-0.011000
21
-45.992000
31
0.0
0
LINE
8
0
6
CONTINUOUS
10
-0.011000
20
-46.052900
30
0.0
11
1.678000
21
-45.992000
31
0.0
0
LINE
8
0
6
CONTINUOUS
10
0.158000
20
-46.138300
30
0.0
11
1.972000
21
-46.138300
31
0.0
0
LINE
8
0
6
CONTINUOUS
10
1.621000
20
-44.609200
30
0.0
11
-0.011000
21
-44.609200
31
0.0
0
LINE
8
0
6
CONTINUOUS
10
-0.011000
20
-45.155400
30
0.0
11
1.680000
21
-45.155400
31
0.0
0
LINE
8
0
6
CONTINUOUS
10
-0.011000
20
-45.992000
30
0.0
11
1.678000
21
-45.992000
31
0.0
0
LINE
8
0
6
CONTINUOUS
10
1.680000
20
-45.155400
30
0.0
11
-0.011000
21
-45.155400
31
0.0
0
LINE
8
0
6
CONTINUOUS
10
1.680000
20
-55.422400
30
0.0
11
-0.011000
21
-55.422400
31
0.0
0
LINE
8
0
6
CONTINUOUS
10
-0.011000
20
-55.738800
30
0.0
11
1.680000
21
-55.422400
31
0.0
0
LINE
8
0
6
CONTINUOUS
10
0.158000
20
-54.657800
30
0.0
11
-0.011000
21
-54.657800
31
0.0
0
LINE
8
0
6
CONTINUOUS
10
-0.011000
20
-54.657800
30
0.0
11
0.158000
21
-54.657800
31
0.0
0
LINE
8
0
6
CONTINUOUS
10
0.158000
20
-46.138300
30
0.0
11
-0.011000
21
-46.138300
31
0.0
0
LINE
8
0
6
CONTINUOUS
10
0.158000
20
-54.657800
30
0.0
11
1.972000
21
-54.657800
31
0.0
0
LINE
8
0
6
CONTINUOUS
10
1.972000
20
-46.138300
30
0.0
11
0.158000
21
-46.138300
31
0.0
0
LINE
8
0
6
CONTINUOUS
10
1.678000
20
-45.992000
30
0.0
11
3.472000
21
-45.992000
31
0.0
0
LINE
8
0
6
CONTINUOUS
10
3.472000
20
-45.155400
30
0.0
11
1.680000
21
-45.155400
31
0.0
0
LINE
8
0
6
CONTINUOUS
10
1.680000
20
-45.155400
30
0.0
11
3.472000
21
-45.155400
31
0.0
0
LINE
8
0
6
CONTINUOUS
10
3.352000
20
-44.609200
30
0.0
11
1.621000
21
-44.609200
31
0.0
0
LINE
8
0
6
CONTINUOUS
10
3.472000
20
-45.155400
30
0.0
11
5.229000
21
-45.155400
31
0.0
0
LINE
8
0
6
CONTINUOUS
10
5.047000
20
-44.609200
30
0.0
11
3.352000
21
-44.609200
31
0.0
0
LINE
8
0
6
CONTINUOUS
10
1.972000
20
-54.657800
30
0.0
11
3.765000
21
-54.657800
31
0.0
0
LINE
8
0
6
CONTINUOUS
10
3.765000
20
-46.138300
30
0.0
11
1.972000
21
-46.138300
31
0.0
0
LINE
8
0
6
CONTINUOUS
10
1.972000
20
-54.657800
30
0.0
11
0.158000
21
-54.657800
31
0.0
0
LINE
8
0
6
CONTINUOUS
10
3.472000
20
-45.992000
30
0.0
11
1.678000
21
-45.992000
31
0.0
0
LINE
8
0
6
CONTINUOUS
10
1.972000
20
-46.138300
30
0.0
11
3.765000
21
-46.138300
31
0.0
0
LINE
8
0
6
CONTINUOUS
10
3.765000
20
-54.657800
30
0.0
11
1.972000
21
-54.657800
31
0.0
0
LINE
8
0
6
CONTINUOUS
10
8.505000
20
-67.000000
30
0.0
11
6.884000
21
-67.000000
31
0.0
0
LINE
8
0
6
CONTINUOUS
10
6.884000
20
-67.000000
30
0.0
11
5.193000
21
-67.000000
31
0.0
0
LINE
8
0
6
CONTINUOUS
10
7.179000
20
-66.453900
30
0.0
11
5.486000
21
-66.453900
31
0.0
0
LINE
8
0
6
CONTINUOUS
10
5.193000
20
-67.000000
30
0.0
11
6.884000
21
-67.000000
31
0.0
0
LINE
8
0
6
CONTINUOUS
10
8.803000
20
-66.453900
30
0.0
11
7.179000
21
-66.453900
31
0.0
0
LINE
8
0
6
CONTINUOUS
10
6.884000
20
-67.000000
30
0.0
11
8.505000
21
-67.000000
31
0.0
0
LINE
8
0
6
CONTINUOUS
10
3.449000
20
-67.000000
30
0.0
11
1.667000
21
-67.000000
31
0.0
0
LINE
8
0
6
CONTINUOUS
10
0.157000
20
-66.453900
30
0.0
11
-0.011000
21
-66.453900
31
0.0
0
LINE
8
0
6
CONTINUOUS
10
1.958000
20
-66.453900
30
0.0
11
0.157000
21
-66.453900
31
0.0
0
LINE
8
0
6
CONTINUOUS
10
1.667000
20
-67.000000
30
0.0
11
1.958000
21
-66.453900
31
0.0
0
LINE
8
0
6
CONTINUOUS
10
0.157000
20
-66.453900
30
0.0
11
1.667000
21
-67.000000
31
0.0
0
LINE
8
0
6
CONTINUOUS
10
1.958000
20
-66.453900
30
0.0
11
0.157000
21
-66.453900
31
0.0
0
LINE
8
0
6
CONTINUOUS
10
-0.011000
20
-67.000000
30
0.0
11
1.667000
21
-67.000000
31
0.0
0
LINE
8
0
6
CONTINUOUS
10
1.667000
20
-67.000000
30
0.0
11
-0.011000
21
-67.000000
31
0.0
0
LINE
8
0
6
CONTINUOUS
10
5.193000
20
-67.000000
30
0.0
11
3.449000
21
-67.000000
31
0.0
0
LINE
8
0
6
CONTINUOUS
10
3.740000
20
-66.453900
30
0.0
11
1.958000
21
-66.453900
31
0.0
0
LINE
8
0
6
CONTINUOUS
10
1.667000
20
-67.000000
30
0.0
11
3.449000
21
-67.000000
31
0.0
0
LINE
8
0
6
CONTINUOUS
10
5.486000
20
-66.453900
30
0.0
11
3.740000
21
-66.453900
31
0.0
0
LINE
8
0
6
CONTINUOUS
10
3.449000
20
-67.000000
30
0.0
11
5.193000
21
-67.000000
31
0.0
0
LINE
8
0
6
CONTINUOUS
10
5.486000
20
-66.453900
30
0.0
11
7.179000
21
-66.453900
31
0.0
0
LINE
8
0
6
CONTINUOUS
10
7.179000
20
-66.453900
30
0.0
11
8.803000
21
-66.453900
31
0.0
0
LINE
8
0
6
CONTINUOUS
10
-0.011000
20
-66.453900
30
0.0
11
0.157000
21
-66.453900
31
0.0
0
LINE
8
0
6
CONTINUOUS
10
0.157000
20
-66.453900
30
0.0
11
1.958000
21
-66.453900
31
0.0
0
LINE
8
0
6
CONTINUOUS
10
1.958000
20
-66.453900
30
0.0
11
3.740000
21
-66.453900
31
0.0
0
LINE
8
0
6
CONTINUOUS
10
3.740000
20
-66.453900
30
0.0
11
5.486000
21
-66.453900
31
0.0
0
LINE
8
0
6
CONTINUOUS
10
6.692000
20
-44.609200
30
0.0
11
8.267000
21
-44.609200
31
0.0
0
LINE
8
0
6
CONTINUOUS
10
5.047000
20
-44.609200
30
0.0
11
6.692000
21
-44.609200
31
0.0
0
LINE
8
0
6
CONTINUOUS
10
3.352000
20
-44.609200
30
0.0
11
5.047000
21
-44.609200
31
0.0
0
LINE
8
0
6
CONTINUOUS
10
1.621000
20
-44.609200
30
0.0
11
3.352000
21
-44.609200
31
0.0
0
LINE
8
0
6
CONTINUOUS
10
-0.011000
20
-44.609200
30
0.0
11
1.621000
21
-44.609200
31
0.0
0
LINE
8
0
6
CONTINUOUS
10
15.439000
20
-44.609200
30
0.0
11
14.579000
21
-44.609200
31
0.0
0
LINE
8
0
6
CONTINUOUS
10
17.226000
20
-44.609200
30
0.0
11
17.038000
21
-44.609200
31
0.0
0
LINE
8
0
6
CONTINUOUS
10
8.267000
20
-44.609200
30
0.0
11
9.757000
21
-44.609200
31
0.0
0
LINE
8
0
6
CONTINUOUS
10
9.757000
20
-44.609200
30
0.0
11
11.147000
21
-44.609200
31
0.0
0
LINE
8
0
6
CONTINUOUS
10
11.147000
20
-44.609200
30
0.0
11
12.423000
21
-44.609200
31
0.0
0
LINE
8
0
6
CONTINUOUS
10
13.571000
20
-44.609200
30
0.0
11
14.579000
21
-44.609200
31
0.0
0
LINE
8
0
6
CONTINUOUS
10
12.423000
20
-44.609200
30
0.0
11
13.571000
21
-44.609200
31
0.0
0
LINE
8
0
6
CONTINUOUS
10
8.862000
20
-54.657800
30
0.0
11
10.412000
21
-54.657800
31
0.0
0
LINE
8
0
6
CONTINUOUS
10
10.412000
20
-46.138300
30
0.0
11
8.862000
21
-46.138300
31
0.0
0
LINE
8
0
6
CONTINUOUS
10
8.803000
20
-66.453900
30
0.0
11
10.341000
21
-66.453900
31
0.0
0
LINE
8
0
6
CONTINUOUS
10
10.038000
20
-67.000000
30
0.0
11
8.505000
21
-67.000000
31
0.0
0
LINE
8
0
6
CONTINUOUS
10
8.505000
20
-67.000000
30
0.0
11
10.038000
21
-67.000000
31
0.0
0
LINE
8
0
6
CONTINUOUS
10
10.341000
20
-66.453900
30
0.0
11
8.803000
21
-66.453900
31
0.0
0
LINE
8
0
6
CONTINUOUS
10
10.412000
20
-54.657800
30
0.0
11
8.862000
21
-54.657800
31
0.0
0
LINE
8
0
6
CONTINUOUS
10
10.109000
20
-45.992000
30
0.0
11
8.565000
21
-45.992000
31
0.0
0
LINE
8
0
6
CONTINUOUS
10
8.862000
20
-46.138300
30
0.0
11
10.412000
21
-46.138300
31
0.0
0
LINE
8
0
6
CONTINUOUS
10
8.565000
20
-45.155400
30
0.0
11
10.109000
21
-45.155400
31
0.0
0
LINE
8
0
6
CONTINUOUS
10
9.757000
20
-44.609200
30
0.0
11
8.267000
21
-44.609200
31
0.0
0
LINE
8
0
6
CONTINUOUS
10
8.565000
20
-45.992000
30
0.0
11
10.109000
21
-45.992000
31
0.0
0
LINE
8
0
6
CONTINUOUS
10
10.109000
20
-45.155400
30
0.0
11
8.565000
21
-45.155400
31
0.0
0
LINE
8
0
6
CONTINUOUS
10
17.038000
20
-44.609200
30
0.0
11
17.226000
21
-44.609200
31
0.0
0
LINE
8
0
6
CONTINUOUS
10
14.579000
20
-44.609200
30
0.0
11
15.439000
21
-44.609200
31
0.0
0
LINE
8
0
6
CONTINUOUS
10
13.196000
20
-46.138300
30
0.0
11
11.860000
21
-46.138300
31
0.0
0
LINE
8
0
6
CONTINUOUS
10
15.471000
20
-46.138300
30
0.0
11
14.403000
21
-46.138300
31
0.0
0
LINE
8
0
6
CONTINUOUS
10
13.571000
20
-44.609200
30
0.0
11
14.579000
21
-44.609200
31
0.0
0
LINE
8
0
6
CONTINUOUS
10
16.390000
20
-46.138300
30
0.0
11
15.471000
21
-46.138300
31
0.0
0
LINE
8
0
6
CONTINUOUS
10
17.152000
20
-46.138300
30
0.0
11
16.390000
21
-46.138300
31
0.0
0
LINE
8
0
6
CONTINUOUS
10
14.579000
20
-44.609200
30
0.0
11
15.439000
21
-44.609200
31
0.0
0
LINE
8
0
6
CONTINUOUS
10
14.579000
20
-44.609200
30
0.0
11
13.571000
21
-44.609200
31
0.0
0
LINE
8
0
6
CONTINUOUS
10
-14.272000
20
-22.000000
30
0.0
11
-14.027000
21
-22.000000
31
0.0
0
LINE
8
0
6
CONTINUOUS
10
-10.355000
20
-39.818700
30
0.0
11
-13.732000
21
-36.737500
31
0.0
0
LINE
8
0
6
CONTINUOUS
10
-13.924000
20
-36.737500
30
0.0
11
-10.355000
21
-39.818700
31
0.0
0
LINE
8
0
6
CONTINUOUS
10
-13.732000
20
-36.737500
30
0.0
11
-13.924000
21
-36.737500
31
0.0
0
LINE
8
0
6
CONTINUOUS
10
-13.924000
20
-36.737500
30
0.0
11
-12.063000
21
-38.373900
31
0.0
0
LINE
8
0
6
CONTINUOUS
10
-10.657000
20
-41.696300
30
0.0
11
-10.322000
21
-41.399200
31
0.0
0
LINE
8
0
6
CONTINUOUS
10
-10.463000
20
-41.399200
30
0.0
11
-10.657000
21
-41.696300
31
0.0
0
LINE
8
0
6
CONTINUOUS
10
-10.322000
20
-41.399200
30
0.0
11
-10.463000
21
-41.399200
31
0.0
0
LINE
8
0
6
CONTINUOUS
10
-10.463000
20
-41.399200
30
0.0
11
-10.157000
21
-41.044200
31
0.0
0
LINE
8
0
6
CONTINUOUS
10
-10.045000
20
-40.617200
30
0.0
11
-10.134000
21
-40.185700
31
0.0
0
LINE
8
0
6
CONTINUOUS
10
-10.157000
20
-41.044200
30
0.0
11
-10.045000
21
-40.617200
31
0.0
0
LINE
8
0
6
CONTINUOUS
10
-10.304000
20
-39.966400
30
0.0
11
-10.134000
21
-40.185700
31
0.0
0
LINE
8
0
6
CONTINUOUS
10
-14.292000
20
-35.965300
30
0.0
11
-14.192000
21
-36.383600
31
0.0
0
LINE
8
0
6
CONTINUOUS
10
-14.192000
20
-36.383600
30
0.0
11
-13.924000
21
-36.737500
31
0.0
0
LINE
8
0
6
CONTINUOUS
10
-10.463000
20
-41.399200
30
0.0
11
-10.658000
21
-41.555400
31
0.0
0
LINE
8
0
6
CONTINUOUS
10
-14.272000
20
-22.000000
30
0.0
11
-14.292000
21
-35.965300
31
0.0
0
LINE
8
0
6
CONTINUOUS
10
-14.027000
20
-22.000000
30
0.0
11
-14.272000
21
-22.000000
31
0.0
0
LINE
8
0
6
CONTINUOUS
10
-12.764000
20
-22.000000
30
0.0
11
-11.769000
21
-22.000000
31
0.0
0
LINE
8
0
6
CONTINUOUS
10
-12.764000
20
-22.000000
30
0.0
11
-13.500000
21
-22.000000
31
0.0
0
LINE
8
0
6
CONTINUOUS
10
-11.769000
20
-22.000000
30
0.0
11
-12.764000
21
-22.000000
31
0.0
0
LINE
8
0
6
CONTINUOUS
10
-14.027000
20
-22.000000
30
0.0
11
-13.522000
21
-22.000000
31
0.0
0
LINE
8
0
6
CONTINUOUS
10
-13.522000
20
-22.000000
30
0.0
11
-12.764000
21
-22.000000
31
0.0
0
LINE
8
0
6
CONTINUOUS
10
-13.522000
20
-22.000000
30
0.0
11
-14.027000
21
-22.000000
31
0.0
0
LINE
8
0
6
CONTINUOUS
10
-17.673000
20
-45.155400
30
0.0
11
-17.868000
21
-45.155400
31
0.0
0
LINE
8
0
6
CONTINUOUS
10
-17.868000
20
-45.992000
30
0.0
11
-17.673000
21
-45.992000
31
0.0
0
LINE
8
0
6
CONTINUOUS
10
-17.868000
20
-45.155400
30
0.0
11
-17.673000
21
-45.155400
31
0.0
0
LINE
8
0
6
CONTINUOUS
10
-17.059000
20
-44.609200
30
0.0
11
-17.248000
21
-44.609200
31
0.0
0
LINE
8
0
6
CONTINUOUS
10
-18.445000
20
-46.138300
30
0.0
11
-17.673000
21
-45.992000
31
0.0
0
LINE
8
0
6
CONTINUOUS
10
-17.868000
20
-45.992000
30
0.0
11
-18.445000
21
-46.138300
31
0.0
0
LINE
8
0
6
CONTINUOUS
10
-17.673000
20
-45.992000
30
0.0
11
-17.868000
21
-45.992000
31
0.0
0
LINE
8
0
6
CONTINUOUS
10
-17.673000
20
-45.992000
30
0.0
11
-17.868000
21
-45.992000
31
0.0
0
LINE
8
0
6
CONTINUOUS
10
-18.445000
20
-54.657800
30
0.0
11
-18.196000
21
-54.657800
31
0.0
0
LINE
8
0
6
CONTINUOUS
10
-18.196000
20
-46.138300
30
0.0
11
-18.445000
21
-46.138300
31
0.0
0
LINE
8
0
6
CONTINUOUS
10
-18.511000
20
-46.138300
30
0.0
11
-18.445000
21
-46.138300
31
0.0
0
LINE
8
0
6
CONTINUOUS
10
-18.445000
20
-54.657800
30
0.0
11
-18.511000
21
-54.657800
31
0.0
0
LINE
8
0
6
CONTINUOUS
10
-18.196000
20
-54.657800
30
0.0
11
-18.445000
21
-54.657800
31
0.0
0
LINE
8
0
6
CONTINUOUS
10
-18.445000
20
-46.138300
30
0.0
11
-18.511000
21
-46.138300
31
0.0
0
LINE
8
0
6
CONTINUOUS
10
-18.511000
20
-54.657800
30
0.0
11
-18.445000
21
-54.657800
31
0.0
0
LINE
8
0
6
CONTINUOUS
10
-18.073000
20
-66.453900
30
0.0
11
-18.321000
21
-66.453900
31
0.0
0
LINE
8
0
6
CONTINUOUS
10
-17.745000
20
-67.000000
30
0.0
11
-17.550000
21
-67.000000
31
0.0
0
LINE
8
0
6
CONTINUOUS
10
-18.321000
20
-66.453900
30
0.0
11
-18.387000
21
-66.453900
31
0.0
0
LINE
8
0
6
CONTINUOUS
10
-18.387000
20
-66.453900
30
0.0
11
-18.321000
21
-66.453900
31
0.0
0
LINE
8
0
6
CONTINUOUS
10
-18.321000
20
-66.453900
30
0.0
11
-18.073000
21
-66.453900
31
0.0
0
LINE
8
0
6
CONTINUOUS
10
-17.297000
20
-45.155400
30
0.0
11
-16.743000
21
-45.155400
31
0.0
0
LINE
8
0
6
CONTINUOUS
10
-16.161000
20
-44.609200
30
0.0
11
-16.697000
21
-44.609200
31
0.0
0
LINE
8
0
6
CONTINUOUS
10
-16.743000
20
-45.155400
30
0.0
11
-17.297000
21
-45.155400
31
0.0
0
LINE
8
0
6
CONTINUOUS
10
-17.297000
20
-45.992000
30
0.0
11
-16.743000
21
-45.992000
31
0.0
0
LINE
8
0
6
CONTINUOUS
10
-16.412000
20
-46.138300
30
0.0
11
-17.174000
21
-46.138300
31
0.0
0
LINE
8
0
6
CONTINUOUS
10
-17.174000
20
-54.657800
30
0.0
11
-16.412000
21
-54.657800
31
0.0
0
LINE
8
0
6
CONTINUOUS
10
-16.017000
20
-45.155400
30
0.0
11
-16.743000
21
-45.155400
31
0.0
0
LINE
8
0
6
CONTINUOUS
10
-16.743000
20
-45.992000
30
0.0
11
-16.016000
21
-45.992000
31
0.0
0
LINE
8
0
6
CONTINUOUS
10
-17.770000
20
-46.138300
30
0.0
11
-17.174000
21
-46.138300
31
0.0
0
LINE
8
0
6
CONTINUOUS
10
-16.016000
20
-45.992000
30
0.0
11
-16.743000
21
-45.992000
31
0.0
0
LINE
8
0
6
CONTINUOUS
10
-16.743000
20
-45.155400
30
0.0
11
-16.017000
21
-45.155400
31
0.0
0
LINE
8
0
6
CONTINUOUS
10
-15.461000
20
-44.609200
30
0.0
11
-16.161000
21
-44.609200
31
0.0
0
LINE
8
0
6
CONTINUOUS
10
-17.174000
20
-46.138300
30
0.0
11
-17.770000
21
-46.138300
31
0.0
0
LINE
8
0
6
CONTINUOUS
10
-17.770000
20
-54.657800
30
0.0
11
-17.174000
21
-54.657800
31
0.0
0
LINE
8
0
6
CONTINUOUS
10
-16.412000
20
-54.657800
30
0.0
11
-17.174000
21
-54.657800
31
0.0
0
LINE
8
0
6
CONTINUOUS
10
-16.303000
20
-66.453900
30
0.0
11
-17.059000
21
-66.453900
31
0.0
0
LINE
8
0
6
CONTINUOUS
10
-16.626000
20
-67.000000
30
0.0
11
-15.905000
21
-67.000000
31
0.0
0
LINE
8
0
6
CONTINUOUS
10
-17.059000
20
-66.453900
30
0.0
11
-17.651000
21
-66.453900
31
0.0
0
LINE
8
0
6
CONTINUOUS
10
-17.176000
20
-67.000000
30
0.0
11
-16.626000
21
-67.000000
31
0.0
0
LINE
8
0
6
CONTINUOUS
10
-17.651000
20
-66.453900
30
0.0
11
-17.059000
21
-66.453900
31
0.0
0
LINE
8
0
6
CONTINUOUS
10
-17.059000
20
-66.453900
30
0.0
11
-16.303000
21
-66.453900
31
0.0
0
LINE
8
0
6
CONTINUOUS
10
-16.161000
20
-44.609200
30
0.0
11
-15.461000
21
-44.609200
31
0.0
0
LINE
8
0
6
CONTINUOUS
10
-16.697000
20
-44.609200
30
0.0
11
-16.161000
21
-44.609200
31
0.0
0
LINE
8
0
6
CONTINUOUS
10
-17.059000
20
-44.609200
30
0.0
11
-16.697000
21
-44.609200
31
0.0
0
LINE
8
0
6
CONTINUOUS
10
-16.967000
20
-67.000000
30
0.0
11
-16.606000
21
-67.000000
31
0.0
0
LINE
8
0
6
CONTINUOUS
10
-15.905000
20
-67.000000
30
0.0
11
-16.626000
21
-67.000000
31
0.0
0
LINE
8
0
6
CONTINUOUS
10
-18.445000
20
-46.138300
30
0.0
11
-18.196000
21
-46.138300
31
0.0
0
LINE
8
0
6
CONTINUOUS
10
-17.297000
20
-45.992000
30
0.0
11
-17.673000
21
-45.992000
31
0.0
0
LINE
8
0
6
CONTINUOUS
10
-17.297000
20
-45.155400
30
0.0
11
-17.673000
21
-45.155400
31
0.0
0
LINE
8
0
6
CONTINUOUS
10
-17.673000
20
-45.992000
30
0.0
11
-17.297000
21
-45.992000
31
0.0
0
LINE
8
0
6
CONTINUOUS
10
-17.673000
20
-45.155400
30
0.0
11
-17.297000
21
-45.155400
31
0.0
0
LINE
8
0
6
CONTINUOUS
10
-16.697000
20
-44.609200
30
0.0
11
-17.059000
21
-44.609200
31
0.0
0
LINE
8
0
6
CONTINUOUS
10
-18.196000
20
-46.138300
30
0.0
11
-17.770000
21
-46.138300
31
0.0
0
LINE
8
0
6
CONTINUOUS
10
-16.743000
20
-45.992000
30
0.0
11
-17.297000
21
-45.992000
31
0.0
0
LINE
8
0
6
CONTINUOUS
10
-17.174000
20
-54.657800
30
0.0
11
-17.770000
21
-54.657800
31
0.0
0
LINE
8
0
6
CONTINUOUS
10
-17.770000
20
-54.657800
30
0.0
11
-18.196000
21
-54.657800
31
0.0
0
LINE
8
0
6
CONTINUOUS
10
-18.196000
20
-54.657800
30
0.0
11
-17.770000
21
-54.657800
31
0.0
0
LINE
8
0
6
CONTINUOUS
10
-17.770000
20
-46.138300
30
0.0
11
-18.196000
21
-46.138300
31
0.0
0
LINE
8
0
6
CONTINUOUS
10
-17.550000
20
-67.000000
30
0.0
11
-17.745000
21
-67.000000
31
0.0
0
LINE
8
0
6
CONTINUOUS
10
-17.176000
20
-67.000000
30
0.0
11
-17.550000
21
-67.000000
31
0.0
0
LINE
8
0
6
CONTINUOUS
10
-17.651000
20
-66.453900
30
0.0
11
-18.073000
21
-66.453900
31
0.0
0
LINE
8
0
6
CONTINUOUS
10
-17.550000
20
-67.000000
30
0.0
11
-17.176000
21
-67.000000
31
0.0
0
LINE
8
0
6
CONTINUOUS
10
-17.155000
20
-67.000000
30
0.0
11
-16.967000
21
-67.000000
31
0.0
0
LINE
8
0
6
CONTINUOUS
10
-16.626000
20
-67.000000
30
0.0
11
-17.176000
21
-67.000000
31
0.0
0
LINE
8
0
6
CONTINUOUS
10
-18.073000
20
-66.453900
30
0.0
11
-17.651000
21
-66.453900
31
0.0
0
LINE
8
0
6
CONTINUOUS
10
-15.461000
20
-44.609200
30
0.0
11
-14.601000
21
-44.609200
31
0.0
0
LINE
8
0
6
CONTINUOUS
10
-17.248000
20
-44.609200
30
0.0
11
-17.059000
21
-44.609200
31
0.0
0
LINE
8
0
6
CONTINUOUS
10
-9.746000
20
-35.965300
30
0.0
11
-9.656000
21
-36.301700
31
0.0
0
LINE
8
0
6
CONTINUOUS
10
-9.746000
20
-34.346600
30
0.0
11
-9.746000
21
-35.965300
31
0.0
0
LINE
8
0
6
CONTINUOUS
10
-9.395000
20
-36.603200
30
0.0
11
-9.656000
21
-36.301700
31
0.0
0
LINE
8
0
6
CONTINUOUS
10
-9.146000
20
-22.000000
30
0.0
11
-7.564000
21
-22.000000
31
0.0
0
LINE
8
0
6
CONTINUOUS
10
-5.843000
20
-22.000000
30
0.0
11
-4.013000
21
-22.000000
31
0.0
0
LINE
8
0
6
CONTINUOUS
10
-7.564000
20
-22.000000
30
0.0
11
-5.843000
21
-22.000000
31
0.0
0
LINE
8
0
6
CONTINUOUS
10
-0.165000
20
-22.000000
30
0.0
11
-0.011000
21
-22.000000
31
0.0
0
LINE
8
0
6
CONTINUOUS
10
-2.109000
20
-22.000000
30
0.0
11
-0.165000
21
-22.000000
31
0.0
0
LINE
8
0
6
CONTINUOUS
10
-4.013000
20
-22.000000
30
0.0
11
-2.109000
21
-22.000000
31
0.0
0
LINE
8
0
6
CONTINUOUS
10
-1.245000
20
-39.641800
30
0.0
11
-2.742000
21
-39.413500
31
0.0
0
LINE
8
0
6
CONTINUOUS
10
-0.011000
20
-39.682600
30
0.0
11
-1.245000
21
-39.641800
31
0.0
0
LINE
8
0
6
CONTINUOUS
10
-2.742000
20
-39.413500
30
0.0
11
-4.493000
21
-38.931700
31
0.0
0
LINE
8
0
6
CONTINUOUS
10
-4.013000
20
-22.000000
30
0.0
11
-5.843000
21
-22.000000
31
0.0
0
LINE
8
0
6
CONTINUOUS
10
-5.017000
20
-33.669400
30
0.0
11
-3.442000
21
-33.558000
31
0.0
0
LINE
8
0
6
CONTINUOUS
10
-0.011000
20
-22.000000
30
0.0
11
-0.165000
21
-22.000000
31
0.0
0
LINE
8
0
6
CONTINUOUS
10
-0.165000
20
-33.468400
30
0.0
11
-0.011000
21
-33.470600
31
0.0
0
LINE
8
0
6
CONTINUOUS
10
-0.165000
20
-22.000000
30
0.0
11
-2.109000
21
-22.000000
31
0.0
0
LINE
8
0
6
CONTINUOUS
10
-1.816000
20
-33.491400
30
0.0
11
-0.165000
21
-33.468400
31
0.0
0
LINE
8
0
6
CONTINUOUS
10
-3.442000
20
-33.558000
30
0.0
11
-1.816000
21
-33.491400
31
0.0
0
LINE
8
0
6
CONTINUOUS
10
-2.109000
20
-22.000000
30
0.0
11
-4.013000
21
-22.000000
31
0.0
0
LINE
8
0
6
CONTINUOUS
10
-7.564000
20
-22.000000
30
0.0
11
-9.146000
21
-22.000000
31
0.0
0
LINE
8
0
6
CONTINUOUS
10
-8.746000
20
-34.148900
30
0.0
11
-7.669000
21
-33.974200
31
0.0
0
LINE
8
0
6
CONTINUOUS
10
-6.523000
20
-33.822400
30
0.0
11
-5.017000
21
-33.669400
31
0.0
0
LINE
8
0
6
CONTINUOUS
10
-5.843000
20
-22.000000
30
0.0
11
-7.564000
21
-22.000000
31
0.0
0
LINE
8
0
6
CONTINUOUS
10
-7.669000
20
-33.974200
30
0.0
11
-6.523000
21
-33.822400
31
0.0
0
LINE
8
0
6
CONTINUOUS
10
-9.746000
20
-34.346600
30
0.0
11
-8.746000
21
-34.148900
31
0.0
0
LINE
8
0
6
CONTINUOUS
10
-9.146000
20
-22.000000
30
0.0
11
-10.555000
21
-22.000000
31
0.0
0
LINE
8
0
6
CONTINUOUS
10
-9.746000
20
-34.346600
30
0.0
11
-0.011000
21
-34.346600
31
0.0
0
LINE
8
0
6
CONTINUOUS
10
-5.017000
20
-33.669400
30
0.0
11
-6.523000
21
-33.822400
31
0.0
0
LINE
8
0
6
CONTINUOUS
10
-3.442000
20
-33.558000
30
0.0
11
-5.017000
21
-33.669400
31
0.0
0
LINE
8
0
6
CONTINUOUS
10
-0.011000
20
-33.470600
30
0.0
11
-0.165000
21
-33.468400
31
0.0
0
LINE
8
0
6
CONTINUOUS
10
-1.816000
20
-33.491400
30
0.0
11
-3.442000
21
-33.558000
31
0.0
0
LINE
8
0
6
CONTINUOUS
10
-0.165000
20
-33.468400
30
0.0
11
-1.816000
21
-33.491400
31
0.0
0
LINE
8
0
6
CONTINUOUS
10
-6.468000
20
-38.147500
30
0.0
11
-4.493000
21
-38.931700
31
0.0
0
LINE
8
0
6
CONTINUOUS
10
-7.753000
20
-37.525000
30
0.0
11
-6.468000
21
-38.147500
31
0.0
0
LINE
8
0
6
CONTINUOUS
10
-1.245000
20
-39.641800
30
0.0
11
-0.011000
21
-39.682600
31
0.0
0
LINE
8
0
6
CONTINUOUS
10
-0.011000
20
-34.346600
30
0.0
11
-9.746000
21
-34.346600
31
0.0
0
LINE
8
0
6
CONTINUOUS
10
-2.742000
20
-39.413500
30
0.0
11
-1.245000
21
-39.641800
31
0.0
0
LINE
8
0
6
CONTINUOUS
10
-4.493000
20
-38.931700
30
0.0
11
-2.742000
21
-39.413500
31
0.0
0
LINE
8
0
6
CONTINUOUS
10
-7.669000
20
-33.974200
30
0.0
11
-8.746000
21
-34.148900
31
0.0
0
LINE
8
0
6
CONTINUOUS
10
-6.523000
20
-33.822400
30
0.0
11
-7.669000
21
-33.974200
31
0.0
0
LINE
8
0
6
CONTINUOUS
10
-8.746000
20
-34.148900
30
0.0
11
-9.746000
21
-34.346600
31
0.0
0
LINE
8
0
6
CONTINUOUS
10
-9.197000
20
-36.737500
30
0.0
11
-7.753000
21
-37.525000
31
0.0
0
LINE
8
0
6
CONTINUOUS
10
-9.197000
20
-36.737500
30
0.0
11
-9.395000
21
-36.603200
31
0.0
0
LINE
8
0
6
CONTINUOUS
10
-9.395000
20
-36.603200
30
0.0
11
-9.197000
21
-36.737500
31
0.0
0
LINE
8
0
6
CONTINUOUS
10
-9.656000
20
-36.301700
30
0.0
11
-9.395000
21
-36.603200
31
0.0
0
LINE
8
0
6
CONTINUOUS
10
-10.131000
20
-45.155400
30
0.0
11
-11.570000
21
-45.155400
31
0.0
0
LINE
8
0
6
CONTINUOUS
10
-11.570000
20
-45.992000
30
0.0
11
-10.131000
21
-45.992000
31
0.0
0
LINE
8
0
6
CONTINUOUS
10
-11.570000
20
-45.155400
30
0.0
11
-10.131000
21
-45.155400
31
0.0
0
LINE
8
0
6
CONTINUOUS
10
-9.779000
20
-44.609200
30
0.0
11
-11.169000
21
-44.609200
31
0.0
0
LINE
8
0
6
CONTINUOUS
10
-13.217000
20
-46.138300
30
0.0
11
-11.882000
21
-46.138300
31
0.0
0
LINE
8
0
6
CONTINUOUS
10
-10.131000
20
-45.992000
30
0.0
11
-11.570000
21
-45.992000
31
0.0
0
LINE
8
0
6
CONTINUOUS
10
-11.570000
20
-45.155400
30
0.0
11
-12.892000
21
-45.155400
31
0.0
0
LINE
8
0
6
CONTINUOUS
10
-12.892000
20
-45.992000
30
0.0
11
-11.570000
21
-45.992000
31
0.0
0
LINE
8
0
6
CONTINUOUS
10
-11.882000
20
-54.657800
30
0.0
11
-13.217000
21
-54.657800
31
0.0
0
LINE
8
0
6
CONTINUOUS
10
-11.882000
20
-46.138300
30
0.0
11
-13.217000
21
-46.138300
31
0.0
0
LINE
8
0
6
CONTINUOUS
10
-13.217000
20
-54.657800
30
0.0
11
-11.882000
21
-54.657800
31
0.0
0
LINE
8
0
6
CONTINUOUS
10
-13.217000
20
-46.138300
30
0.0
11
-14.425000
21
-46.138300
31
0.0
0
LINE
8
0
6
CONTINUOUS
10
-14.425000
20
-54.657800
30
0.0
11
-13.217000
21
-54.657800
31
0.0
0
LINE
8
0
6
CONTINUOUS
10
-12.892000
20
-45.155400
30
0.0
11
-14.082000
21
-45.155400
31
0.0
0
LINE
8
0
6
CONTINUOUS
10
-14.082000
20
-45.992000
30
0.0
11
-12.892000
21
-45.992000
31
0.0
0
LINE
8
0
6
CONTINUOUS
10
-14.082000
20
-45.155400
30
0.0
11
-12.892000
21
-45.155400
31
0.0
0
LINE
8
0
6
CONTINUOUS
10
-12.445000
20
-44.609200
30
0.0
11
-13.592000
21
-44.609200
31
0.0
0
LINE
8
0
6
CONTINUOUS
10
-14.425000
20
-46.138300
30
0.0
11
-13.217000
21
-46.138300
31
0.0
0
LINE
8
0
6
CONTINUOUS
10
-11.570000
20
-45.992000
30
0.0
11
-12.892000
21
-45.992000
31
0.0
0
LINE
8
0
6
CONTINUOUS
10
-13.217000
20
-54.657800
30
0.0
11
-14.425000
21
-54.657800
31
0.0
0
LINE
8
0
6
CONTINUOUS
10
-12.892000
20
-45.155400
30
0.0
11
-11.570000
21
-45.155400
31
0.0
0
LINE
8
0
6
CONTINUOUS
10
-11.169000
20
-44.609200
30
0.0
11
-12.445000
21
-44.609200
31
0.0
0
LINE
8
0
6
CONTINUOUS
10
-15.493000
20
-46.138300
30
0.0
11
-14.425000
21
-46.138300
31
0.0
0
LINE
8
0
6
CONTINUOUS
10
-12.892000
20
-45.992000
30
0.0
11
-14.082000
21
-45.992000
31
0.0
0
LINE
8
0
6
CONTINUOUS
10
-14.425000
20
-46.138300
30
0.0
11
-15.493000
21
-46.138300
31
0.0
0
LINE
8
0
6
CONTINUOUS
10
-15.493000
20
-54.657800
30
0.0
11
-14.425000
21
-54.657800
31
0.0
0
LINE
8
0
6
CONTINUOUS
10
-14.425000
20
-54.657800
30
0.0
11
-15.493000
21
-54.657800
31
0.0
0
LINE
8
0
6
CONTINUOUS
10
-14.082000
20
-45.155400
30
0.0
11
-15.126000
21
-45.155400
31
0.0
0
LINE
8
0
6
CONTINUOUS
10
-15.126000
20
-45.992000
30
0.0
11
-14.082000
21
-45.992000
31
0.0
0
LINE
8
0
6
CONTINUOUS
10
-10.060000
20
-67.000000
30
0.0
11
-11.491000
21
-67.000000
31
0.0
0
LINE
8
0
6
CONTINUOUS
10
-11.803000
20
-66.453900
30
0.0
11
-13.128000
21
-66.453900
31
0.0
0
LINE
8
0
6
CONTINUOUS
10
-12.802000
20
-67.000000
30
0.0
11
-11.491000
21
-67.000000
31
0.0
0
LINE
8
0
6
CONTINUOUS
10
-12.802000
20
-67.000000
30
0.0
11
-13.984000
21
-67.000000
31
0.0
0
LINE
8
0
6
CONTINUOUS
10
-13.520000
20
-67.000000
30
0.0
11
-12.378000
21
-67.000000
31
0.0
0
LINE
8
0
6
CONTINUOUS
10
-13.128000
20
-66.453900
30
0.0
11
-14.328000
21
-66.453900
31
0.0
0
LINE
8
0
6
CONTINUOUS
10
-13.984000
20
-67.000000
30
0.0
11
-12.802000
21
-67.000000
31
0.0
0
LINE
8
0
6
CONTINUOUS
10
-11.491000
20
-67.000000
30
0.0
11
-12.802000
21
-67.000000
31
0.0
0
LINE
8
0
6
CONTINUOUS
10
-14.328000
20
-66.453900
30
0.0
11
-15.389000
21
-66.453900
31
0.0
0
LINE
8
0
6
CONTINUOUS
10
-15.021000
20
-67.000000
30
0.0
11
-13.984000
21
-67.000000
31
0.0
0
LINE
8
0
6
CONTINUOUS
10
-15.389000
20
-66.453900
30
0.0
11
-14.328000
21
-66.453900
31
0.0
0
LINE
8
0
6
CONTINUOUS
10
-13.128000
20
-66.453900
30
0.0
11
-11.803000
21
-66.453900
31
0.0
0
LINE
8
0
6
CONTINUOUS
10
-14.328000
20
-66.453900
30
0.0
11
-13.128000
21
-66.453900
31
0.0
0
LINE
8
0
6
CONTINUOUS
10
-11.882000
20
-46.138300
30
0.0
11
-10.434000
21
-46.138300
31
0.0
0
LINE
8
0
6
CONTINUOUS
10
-10.434000
20
-54.657800
30
0.0
11
-11.882000
21
-54.657800
31
0.0
0
LINE
8
0
6
CONTINUOUS
10
-10.434000
20
-46.138300
30
0.0
11
-11.882000
21
-46.138300
31
0.0
0
LINE
8
0
6
CONTINUOUS
10
-11.882000
20
-54.657800
30
0.0
11
-10.434000
21
-54.657800
31
0.0
0
LINE
8
0
6
CONTINUOUS
10
-10.363000
20
-66.453900
30
0.0
11
-11.803000
21
-66.453900
31
0.0
0
LINE
8
0
6
CONTINUOUS
10
-11.491000
20
-67.000000
30
0.0
11
-10.060000
21
-67.000000
31
0.0
0
LINE
8
0
6
CONTINUOUS
10
-11.803000
20
-66.453900
30
0.0
11
-10.363000
21
-66.453900
31
0.0
0
LINE
8
0
6
CONTINUOUS
10
-6.713000
20
-44.609200
30
0.0
11
-8.288000
21
-44.609200
31
0.0
0
LINE
8
0
6
CONTINUOUS
10
-8.587000
20
-45.155400
30
0.0
11
-6.954000
21
-45.155400
31
0.0
0
LINE
8
0
6
CONTINUOUS
10
-8.883000
20
-46.138300
30
0.0
11
-7.249000
21
-46.138300
31
0.0
0
LINE
8
0
6
CONTINUOUS
10
-6.954000
20
-45.992000
30
0.0
11
-8.587000
21
-45.992000
31
0.0
0
LINE
8
0
6
CONTINUOUS
10
-6.954000
20
-45.155400
30
0.0
11
-8.587000
21
-45.155400
31
0.0
0
LINE
8
0
6
CONTINUOUS
10
-8.587000
20
-45.992000
30
0.0
11
-6.954000
21
-45.992000
31
0.0
0
LINE
8
0
6
CONTINUOUS
10
-3.494000
20
-45.155400
30
0.0
11
-5.250000
21
-45.155400
31
0.0
0
LINE
8
0
6
CONTINUOUS
10
-5.250000
20
-45.992000
30
0.0
11
-3.494000
21
-45.992000
31
0.0
0
LINE
8
0
6
CONTINUOUS
10
-6.954000
20
-45.155400
30
0.0
11
-5.250000
21
-45.155400
31
0.0
0
LINE
8
0
6
CONTINUOUS
10
-5.069000
20
-44.609200
30
0.0
11
-6.713000
21
-44.609200
31
0.0
0
LINE
8
0
6
CONTINUOUS
10
-7.249000
20
-46.138300
30
0.0
11
-5.545000
21
-46.138300
31
0.0
0
LINE
8
0
6
CONTINUOUS
10
-5.250000
20
-45.992000
30
0.0
11
-6.954000
21
-45.992000
31
0.0
0
LINE
8
0
6
CONTINUOUS
10
-5.250000
20
-45.155400
30
0.0
11
-6.954000
21
-45.155400
31
0.0
0
LINE
8
0
6
CONTINUOUS
10
-6.954000
20
-45.992000
30
0.0
11
-5.250000
21
-45.992000
31
0.0
0
LINE
8
0
6
CONTINUOUS
10
-7.249000
20
-54.657800
30
0.0
11
-8.883000
21
-54.657800
31
0.0
0
LINE
8
0
6
CONTINUOUS
10
-5.545000
20
-54.657800
30
0.0
11
-7.249000
21
-54.657800
31
0.0
0
LINE
8
0
6
CONTINUOUS
10
-5.545000
20
-46.138300
30
0.0
11
-7.249000
21
-46.138300
31
0.0
0
LINE
8
0
6
CONTINUOUS
10
-7.249000
20
-54.657800
30
0.0
11
-5.545000
21
-54.657800
31
0.0
0
LINE
8
0
6
CONTINUOUS
10
-7.249000
20
-46.138300
30
0.0
11
-8.883000
21
-46.138300
31
0.0
0
LINE
8
0
6
CONTINUOUS
10
-8.883000
20
-54.657800
30
0.0
11
-7.249000
21
-54.657800
31
0.0
0
LINE
8
0
6
CONTINUOUS
10
-3.787000
20
-54.657800
30
0.0
11
-5.545000
21
-54.657800
31
0.0
0
LINE
8
0
6
CONTINUOUS
10
-5.545000
20
-46.138300
30
0.0
11
-3.787000
21
-46.138300
31
0.0
0
LINE
8
0
6
CONTINUOUS
10
-3.494000
20
-45.992000
30
0.0
11
-5.250000
21
-45.992000
31
0.0
0
LINE
8
0
6
CONTINUOUS
10
-3.787000
20
-46.138300
30
0.0
11
-5.545000
21
-46.138300
31
0.0
0
LINE
8
0
6
CONTINUOUS
10
-5.545000
20
-54.657800
30
0.0
11
-3.787000
21
-54.657800
31
0.0
0
LINE
8
0
6
CONTINUOUS
10
-0.011000
20
-45.155400
30
0.0
11
-1.701000
21
-45.155400
31
0.0
0
LINE
8
0
6
CONTINUOUS
10
-1.700000
20
-45.992000
30
0.0
11
-0.011000
21
-45.992000
31
0.0
0
LINE
8
0
6
CONTINUOUS
10
-1.701000
20
-45.155400
30
0.0
11
-0.011000
21
-45.155400
31
0.0
0
LINE
8
0
6
CONTINUOUS
10
-0.011000
20
-44.609200
30
0.0
11
-1.643000
21
-44.609200
31
0.0
0
LINE
8
0
6
CONTINUOUS
10
-0.180000
20
-46.138300
30
0.0
11
-0.011000
21
-46.138300
31
0.0
0
LINE
8
0
6
CONTINUOUS
10
-1.993000
20
-46.138300
30
0.0
11
-0.180000
21
-46.138300
31
0.0
0
LINE
8
0
6
CONTINUOUS
10
-0.180000
20
-46.138300
30
0.0
11
-1.993000
21
-46.138300
31
0.0
0
LINE
8
0
6
CONTINUOUS
10
-1.993000
20
-54.657800
30
0.0
11
-0.180000
21
-54.657800
31
0.0
0
LINE
8
0
6
CONTINUOUS
10
-0.011000
20
-46.138300
30
0.0
11
-0.180000
21
-46.138300
31
0.0
0
LINE
8
0
6
CONTINUOUS
10
-0.180000
20
-54.657800
30
0.0
11
-0.011000
21
-54.657800
31
0.0
0
LINE
8
0
6
CONTINUOUS
10
-1.700000
20
-45.992000
30
0.0
11
-0.011000
21
-46.052900
31
0.0
0
LINE
8
0
6
CONTINUOUS
10
-0.011000
20
-45.992000
30
0.0
11
-1.700000
21
-45.992000
31
0.0
0
LINE
8
0
6
CONTINUOUS
10
-0.011000
20
-45.992000
30
0.0
11
-1.700000
21
-45.992000
31
0.0
0
LINE
8
0
6
CONTINUOUS
10
-0.011000
20
-54.657800
30
0.0
11
-0.180000
21
-54.657800
31
0.0
0
LINE
8
0
6
CONTINUOUS
10
-1.701000
20
-55.422400
30
0.0
11
-0.011000
21
-55.738800
31
0.0
0
LINE
8
0
6
CONTINUOUS
10
-0.011000
20
-55.422400
30
0.0
11
-1.701000
21
-55.422400
31
0.0
0
LINE
8
0
6
CONTINUOUS
10
-1.993000
20
-54.657800
30
0.0
11
-3.787000
21
-54.657800
31
0.0
0
LINE
8
0
6
CONTINUOUS
10
-3.787000
20
-46.138300
30
0.0
11
-1.993000
21
-46.138300
31
0.0
0
LINE
8
0
6
CONTINUOUS
10
-1.700000
20
-45.992000
30
0.0
11
-3.494000
21
-45.992000
31
0.0
0
LINE
8
0
6
CONTINUOUS
10
-0.180000
20
-54.657800
30
0.0
11
-1.993000
21
-54.657800
31
0.0
0
LINE
8
0
6
CONTINUOUS
10
-1.993000
20
-46.138300
30
0.0
11
-3.787000
21
-46.138300
31
0.0
0
LINE
8
0
6
CONTINUOUS
10
-3.787000
20
-54.657800
30
0.0
11
-1.993000
21
-54.657800
31
0.0
0
LINE
8
0
6
CONTINUOUS
10
-5.250000
20
-45.155400
30
0.0
11
-3.494000
21
-45.155400
31
0.0
0
LINE
8
0
6
CONTINUOUS
10
-3.373000
20
-44.609200
30
0.0
11
-5.069000
21
-44.609200
31
0.0
0
LINE
8
0
6
CONTINUOUS
10
-3.494000
20
-45.155400
30
0.0
11
-1.701000
21
-45.155400
31
0.0
0
LINE
8
0
6
CONTINUOUS
10
-1.643000
20
-44.609200
30
0.0
11
-3.373000
21
-44.609200
31
0.0
0
LINE
8
0
6
CONTINUOUS
10
-1.701000
20
-45.155400
30
0.0
11
-3.494000
21
-45.155400
31
0.0
0
LINE
8
0
6
CONTINUOUS
10
-3.494000
20
-45.992000
30
0.0
11
-1.700000
21
-45.992000
31
0.0
0
LINE
8
0
6
CONTINUOUS
10
-6.906000
20
-67.000000
30
0.0
11
-8.527000
21
-67.000000
31
0.0
0
LINE
8
0
6
CONTINUOUS
10
-7.200000
20
-66.453900
30
0.0
11
-8.825000
21
-66.453900
31
0.0
0
LINE
8
0
6
CONTINUOUS
10
-8.527000
20
-67.000000
30
0.0
11
-6.906000
21
-67.000000
31
0.0
0
LINE
8
0
6
CONTINUOUS
10
-5.507000
20
-66.453900
30
0.0
11
-7.200000
21
-66.453900
31
0.0
0
LINE
8
0
6
CONTINUOUS
10
-6.906000
20
-67.000000
30
0.0
11
-5.214000
21
-67.000000
31
0.0
0
LINE
8
0
6
CONTINUOUS
10
-5.214000
20
-67.000000
30
0.0
11
-6.906000
21
-67.000000
31
0.0
0
LINE
8
0
6
CONTINUOUS
10
-1.689000
20
-67.000000
30
0.0
11
-3.470000
21
-67.000000
31
0.0
0
LINE
8
0
6
CONTINUOUS
10
-0.011000
20
-67.000000
30
0.0
11
-1.689000
21
-67.000000
31
0.0
0
LINE
8
0
6
CONTINUOUS
10
-0.011000
20
-66.453900
30
0.0
11
-0.178000
21
-66.453900
31
0.0
0
LINE
8
0
6
CONTINUOUS
10
-1.689000
20
-67.000000
30
0.0
11
-0.011000
21
-67.000000
31
0.0
0
LINE
8
0
6
CONTINUOUS
10
-0.178000
20
-66.453900
30
0.0
11
-1.980000
21
-66.453900
31
0.0
0
LINE
8
0
6
CONTINUOUS
10
-1.980000
20
-66.453900
30
0.0
11
-1.689000
21
-67.000000
31
0.0
0
LINE
8
0
6
CONTINUOUS
10
-0.178000
20
-66.453900
30
0.0
11
-1.980000
21
-66.453900
31
0.0
0
LINE
8
0
6
CONTINUOUS
10
-1.689000
20
-67.000000
30
0.0
11
-0.178000
21
-66.453900
31
0.0
0
LINE
8
0
6
CONTINUOUS
10
-3.762000
20
-66.453900
30
0.0
11
-5.507000
21
-66.453900
31
0.0
0
LINE
8
0
6
CONTINUOUS
10
-5.214000
20
-67.000000
30
0.0
11
-3.470000
21
-67.000000
31
0.0
0
LINE
8
0
6
CONTINUOUS
10
-1.980000
20
-66.453900
30
0.0
11
-3.762000
21
-66.453900
31
0.0
0
LINE
8
0
6
CONTINUOUS
10
-3.470000
20
-67.000000
30
0.0
11
-1.689000
21
-67.000000
31
0.0
0
LINE
8
0
6
CONTINUOUS
10
-3.470000
20
-67.000000
30
0.0
11
-5.214000
21
-67.000000
31
0.0
0
LINE
8
0
6
CONTINUOUS
10
-5.507000
20
-66.453900
30
0.0
11
-3.762000
21
-66.453900
31
0.0
0
LINE
8
0
6
CONTINUOUS
10
-3.762000
20
-66.453900
30
0.0
11
-1.980000
21
-66.453900
31
0.0
0
LINE
8
0
6
CONTINUOUS
10
-1.980000
20
-66.453900
30
0.0
11
-0.178000
21
-66.453900
31
0.0
0
LINE
8
0
6
CONTINUOUS
10
-0.178000
20
-66.453900
30
0.0
11
-0.011000
21
-66.453900
31
0.0
0
LINE
8
0
6
CONTINUOUS
10
-8.825000
20
-66.453900
30
0.0
11
-7.200000
21
-66.453900
31
0.0
0
LINE
8
0
6
CONTINUOUS
10
-7.200000
20
-66.453900
30
0.0
11
-5.507000
21
-66.453900
31
0.0
0
LINE
8
0
6
CONTINUOUS
10
-8.587000
20
-45.155400
30
0.0
11
-10.131000
21
-45.155400
31
0.0
0
LINE
8
0
6
CONTINUOUS
10
-10.131000
20
-45.992000
30
0.0
11
-8.587000
21
-45.992000
31
0.0
0
LINE
8
0
6
CONTINUOUS
10
-10.131000
20
-45.155400
30
0.0
11
-8.587000
21
-45.155400
31
0.0
0
LINE
8
0
6
CONTINUOUS
10
-8.288000
20
-44.609200
30
0.0
11
-9.779000
21
-44.609200
31
0.0
0
LINE
8
0
6
CONTINUOUS
10
-8.587000
20
-45.992000
30
0.0
11
-10.131000
21
-45.992000
31
0.0
0
LINE
8
0
6
CONTINUOUS
10
-10.434000
20
-46.138300
30
0.0
11
-8.883000
21
-46.138300
31
0.0
0
LINE
8
0
6
CONTINUOUS
10
-8.883000
20
-54.657800
30
0.0
11
-10.434000
21
-54.657800
31
0.0
0
LINE
8
0
6
CONTINUOUS
10
-8.825000
20
-66.453900
30
0.0
11
-10.363000
21
-66.453900
31
0.0
0
LINE
8
0
6
CONTINUOUS
10
-10.060000
20
-67.000000
30
0.0
11
-8.527000
21
-67.000000
31
0.0
0
LINE
8
0
6
CONTINUOUS
10
-8.527000
20
-67.000000
30
0.0
11
-10.060000
21
-67.000000
31
0.0
0
LINE
8
0
6
CONTINUOUS
10
-10.363000
20
-66.453900
30
0.0
11
-8.825000
21
-66.453900
31
0.0
0
LINE
8
0
6
CONTINUOUS
10
-8.883000
20
-46.138300
30
0.0
11
-10.434000
21
-46.138300
31
0.0
0
LINE
8
0
6
CONTINUOUS
10
-10.434000
20
-54.657800
30
0.0
11
-8.883000
21
-54.657800
31
0.0
0
LINE
8
0
6
CONTINUOUS
10
-15.493000
20
-46.138300
30
0.0
11
-16.412000
21
-46.138300
31
0.0
0
LINE
8
0
6
CONTINUOUS
10
-16.412000
20
-54.657800
30
0.0
11
-15.493000
21
-54.657800
31
0.0
0
LINE
8
0
6
CONTINUOUS
10
-10.555000
20
-22.000000
30
0.0
11
-9.146000
21
-22.000000
31
0.0
0
LINE
8
0
6
CONTINUOUS
10
-11.769000
20
-22.000000
30
0.0
11
-10.555000
21
-22.000000
31
0.0
0
LINE
8
0
6
CONTINUOUS
10
-4.493000
20
-38.931700
30
0.0
11
-6.468000
21
-38.147500
31
0.0
0
LINE
8
0
6
CONTINUOUS
10
-9.656000
20
-36.301700
30
0.0
11
-9.746000
21
-35.965300
31
0.0
0
LINE
8
0
6
CONTINUOUS
10
-15.126000
20
-45.155400
30
0.0
11
-14.082000
21
-45.155400
31
0.0
0
LINE
8
0
6
CONTINUOUS
10
-13.592000
20
-44.609200
30
0.0
11
-14.601000
21
-44.609200
31
0.0
0
LINE
8
0
6
CONTINUOUS
10
-6.468000
20
-38.147500
30
0.0
11
-7.753000
21
-37.525000
31
0.0
0
LINE
8
0
6
CONTINUOUS
10
-7.753000
20
-37.525000
30
0.0
11
-9.197000
21
-36.737500
31
0.0
0
LINE
8
0
6
CONTINUOUS
10
-16.412000
20
-46.138300
30
0.0
11
-15.493000
21
-46.138300
31
0.0
0
LINE
8
0
6
CONTINUOUS
10
-14.082000
20
-45.992000
30
0.0
11
-15.126000
21
-45.992000
31
0.0
0
LINE
8
0
6
CONTINUOUS
10
-17.174000
20
-46.138300
30
0.0
11
-16.412000
21
-46.138300
31
0.0
0
LINE
8
0
6
CONTINUOUS
10
-15.126000
20
-45.992000
30
0.0
11
-16.016000
21
-45.992000
31
0.0
0
LINE
8
0
6
CONTINUOUS
10
-15.493000
20
-54.657800
30
0.0
11
-16.412000
21
-54.657800
31
0.0
0
LINE
8
0
6
CONTINUOUS
10
-15.126000
20
-45.155400
30
0.0
11
-16.017000
21
-45.155400
31
0.0
0
LINE
8
0
6
CONTINUOUS
10
-16.016000
20
-45.992000
30
0.0
11
-15.126000
21
-45.992000
31
0.0
0
LINE
8
0
6
CONTINUOUS
10
-16.017000
20
-45.155400
30
0.0
11
-15.126000
21
-45.155400
31
0.0
0
LINE
8
0
6
CONTINUOUS
10
-14.601000
20
-44.609200
30
0.0
11
-15.461000
21
-44.609200
31
0.0
0
LINE
8
0
6
CONTINUOUS
10
-13.984000
20
-67.000000
30
0.0
11
-15.021000
21
-67.000000
31
0.0
0
LINE
8
0
6
CONTINUOUS
10
-14.523000
20
-67.000000
30
0.0
11
-13.520000
21
-67.000000
31
0.0
0
LINE
8
0
6
CONTINUOUS
10
-15.389000
20
-66.453900
30
0.0
11
-16.303000
21
-66.453900
31
0.0
0
LINE
8
0
6
CONTINUOUS
10
-15.905000
20
-67.000000
30
0.0
11
-15.021000
21
-67.000000
31
0.0
0
LINE
8
0
6
CONTINUOUS
10
-16.606000
20
-67.000000
30
0.0
11
-16.074000
21
-67.000000
31
0.0
0
LINE
8
0
6
CONTINUOUS
10
-15.021000
20
-67.000000
30
0.0
11
-15.905000
21
-67.000000
31
0.0
0
LINE
8
0
6
CONTINUOUS
10
-16.303000
20
-66.453900
30
0.0
11
-15.389000
21
-66.453900
31
0.0
0
LINE
8
0
6
CONTINUOUS
10
-9.746000
20
-35.965300
30
0.0
11
-9.746000
21
-34.346600
31
0.0
0
LINE
8
0
6
CONTINUOUS
10
-10.555000
20
-22.000000
30
0.0
11
-11.769000
21
-22.000000
31
0.0
0
LINE
8
0
6
CONTINUOUS
10
-1.643000
20
-44.609200
30
0.0
11
-0.011000
21
-44.609200
31
0.0
0
LINE
8
0
6
CONTINUOUS
10
-3.373000
20
-44.609200
30
0.0
11
-1.643000
21
-44.609200
31
0.0
0
LINE
8
0
6
CONTINUOUS
10
-5.069000
20
-44.609200
30
0.0
11
-3.373000
21
-44.609200
31
0.0
0
LINE
8
0
6
CONTINUOUS
10
-6.713000
20
-44.609200
30
0.0
11
-5.069000
21
-44.609200
31
0.0
0
LINE
8
0
6
CONTINUOUS
10
-13.592000
20
-44.609200
30
0.0
11
-12.445000
21
-44.609200
31
0.0
0
LINE
8
0
6
CONTINUOUS
10
-14.601000
20
-44.609200
30
0.0
11
-13.592000
21
-44.609200
31
0.0
0
LINE
8
0
6
CONTINUOUS
10
-12.445000
20
-44.609200
30
0.0
11
-11.169000
21
-44.609200
31
0.0
0
LINE
8
0
6
CONTINUOUS
10
-11.169000
20
-44.609200
30
0.0
11
-9.779000
21
-44.609200
31
0.0
0
LINE
8
0
6
CONTINUOUS
10
-9.779000
20
-44.609200
30
0.0
11
-8.288000
21
-44.609200
31
0.0
0
LINE
8
0
6
CONTINUOUS
10
-8.288000
20
-44.609200
30
0.0
11
-6.713000
21
-44.609200
31
0.0
0
LINE
8
0
6
CONTINUOUS
10
-18.511000
20
-46.138300
30
0.0
11
-18.426000
21
-46.117700
31
0.0
0
LINE
8
0
6
CONTINUOUS
10
-18.426000
20
-46.117700
30
0.0
11
-17.875000
21
-45.992000
31
0.0
0
LINE
8
0
6
CONTINUOUS
10
-18.387000
20
-56.179200
30
0.0
11
-17.875000
21
-55.422400
31
0.0
0
LINE
8
0
6
CONTINUOUS
10
-17.059000
20
-44.609200
30
0.0
11
-17.248000
21
-44.609200
31
0.0
0
LINE
8
0
6
CONTINUOUS
10
-14.601000
20
-44.609200
30
0.0
11
-15.461000
21
-44.609200
31
0.0
0
LINE
8
0
6
CONTINUOUS
10
-13.592000
20
-44.609200
30
0.0
11
-14.601000
21
-44.609200
31
0.0
0
LINE
8
0
6
CONTINUOUS
10
-17.751000
20
-67.000000
30
0.0
11
-18.387000
21
-66.453900
31
0.0
0
LINE
8
0
6
CONTINUOUS
10
-17.550000
20
-67.000000
30
0.0
11
-17.745000
21
-67.000000
31
0.0
0
LINE
8
0
6
CONTINUOUS
10
-17.176000
20
-67.000000
30
0.0
11
-17.550000
21
-67.000000
31
0.0
0
LINE
8
0
6
CONTINUOUS
10
-16.626000
20
-67.000000
30
0.0
11
-17.176000
21
-67.000000
31
0.0
0
LINE
8
0
6
CONTINUOUS
10
-15.905000
20
-67.000000
30
0.0
11
-16.626000
21
-67.000000
31
0.0
0
LINE
8
0
6
CONTINUOUS
10
-15.021000
20
-67.000000
30
0.0
11
-15.905000
21
-67.000000
31
0.0
0
LINE
8
0
6
CONTINUOUS
10
-13.984000
20
-67.000000
30
0.0
11
-15.021000
21
-67.000000
31
0.0
0
LINE
8
0
6
CONTINUOUS
10
-15.905000
20
-67.000000
30
0.0
11
-15.021000
21
-67.000000
31
0.0
0
LINE
8
0
6
CONTINUOUS
10
-16.074000
20
-67.000000
30
0.0
11
-16.606000
21
-67.000000
31
0.0
0
LINE
8
0
6
CONTINUOUS
10
-16.626000
20
-67.000000
30
0.0
11
-15.905000
21
-67.000000
31
0.0
0
LINE
8
0
6
CONTINUOUS
10
-16.606000
20
-67.000000
30
0.0
11
-16.967000
21
-67.000000
31
0.0
0
LINE
8
0
6
CONTINUOUS
10
-17.176000
20
-67.000000
30
0.0
11
-16.626000
21
-67.000000
31
0.0
0
LINE
8
0
6
CONTINUOUS
10
-16.967000
20
-67.000000
30
0.0
11
-17.155000
21
-67.000000
31
0.0
0
LINE
8
0
6
CONTINUOUS
10
-17.550000
20
-67.000000
30
0.0
11
-17.176000
21
-67.000000
31
0.0
0
LINE
8
0
6
CONTINUOUS
10
-17.745000
20
-67.000000
30
0.0
11
-17.550000
21
-67.000000
31
0.0
0
LINE
8
0
6
CONTINUOUS
10
-10.723000
20
-41.615900
30
0.0
11
-10.658000
21
-41.555400
31
0.0
0
LINE
8
0
6
CONTINUOUS
10
-10.157000
20
-41.044200
30
0.0
11
-10.463000
21
-41.399200
31
0.0
0
LINE
8
0
6
CONTINUOUS
10
-10.451000
20
-41.399200
30
0.0
11
-10.150000
21
-41.044200
31
0.0
0
LINE
8
0
6
CONTINUOUS
10
-10.304000
20
-39.966400
30
0.0
11
-10.403000
21
-39.818700
31
0.0
0
LINE
8
0
6
CONTINUOUS
10
-10.403000
20
-39.818700
30
0.0
11
-12.063000
21
-38.373900
31
0.0
0
LINE
8
0
6
CONTINUOUS
10
-14.292000
20
-35.965300
30
0.0
11
-14.192000
21
-36.383600
31
0.0
0
LINE
8
0
6
CONTINUOUS
10
-18.511000
20
-54.657800
30
0.0
11
-18.511000
21
-46.138300
31
0.0
0
LINE
8
0
6
CONTINUOUS
10
-17.875000
20
-55.422400
30
0.0
11
-17.875000
21
-54.657800
31
0.0
0
LINE
8
0
6
CONTINUOUS
10
-17.875000
20
-45.992000
30
0.0
11
-17.875000
21
-45.155400
31
0.0
0
LINE
8
0
6
CONTINUOUS
10
-16.697000
20
-44.609200
30
0.0
11
-17.059000
21
-44.609200
31
0.0
0
LINE
8
0
6
CONTINUOUS
10
-16.161000
20
-44.609200
30
0.0
11
-16.697000
21
-44.609200
31
0.0
0
LINE
8
0
6
CONTINUOUS
10
-15.461000
20
-44.609200
30
0.0
11
-16.161000
21
-44.609200
31
0.0
0
LINE
8
0
6
CONTINUOUS
10
-14.601000
20
-44.609200
30
0.0
11
-13.592000
21
-44.609200
31
0.0
0
LINE
8
0
6
CONTINUOUS
10
-15.461000
20
-44.609200
30
0.0
11
-14.601000
21
-44.609200
31
0.0
0
LINE
8
0
6
CONTINUOUS
10
-16.161000
20
-44.609200
30
0.0
11
-15.461000
21
-44.609200
31
0.0
0
LINE
8
0
6
CONTINUOUS
10
-16.697000
20
-44.609200
30
0.0
11
-16.161000
21
-44.609200
31
0.0
0
LINE
8
0
6
CONTINUOUS
10
-17.059000
20
-44.609200
30
0.0
11
-16.697000
21
-44.609200
31
0.0
0
LINE
8
0
6
CONTINUOUS
10
-17.248000
20
-44.609200
30
0.0
11
-17.059000
21
-44.609200
31
0.0
0
LINE
8
0
6
CONTINUOUS
10
-17.875000
20
-45.155400
30
0.0
11
-17.254000
21
-44.609200
31
0.0
0
LINE
8
0
6
CONTINUOUS
10
-18.387000
20
-66.453900
30
0.0
11
-18.387000
21
-56.179200
31
0.0
0
LINE
8
0
6
CONTINUOUS
10
-15.021000
20
-67.000000
30
0.0
11
-13.984000
21
-67.000000
31
0.0
0
LINE
8
0
6
CONTINUOUS
10
-13.520000
20
-67.000000
30
0.0
11
-14.523000
21
-67.000000
31
0.0
0
LINE
8
0
6
CONTINUOUS
10
-12.378000
20
-67.000000
30
0.0
11
-13.520000
21
-67.000000
31
0.0
0
LINE
8
0
6
CONTINUOUS
10
-13.263000
20
-44.390800
30
0.0
11
-12.097000
21
-42.930800
31
0.0
0
LINE
8
0
6
CONTINUOUS
10
-12.097000
20
-42.930800
30
0.0
11
-10.723000
21
-41.615900
31
0.0
0
LINE
8
0
6
CONTINUOUS
10
-14.278000
20
-35.965300
30
0.0
11
-14.263000
21
-22.000000
31
0.0
0
LINE
8
0
6
CONTINUOUS
10
-14.292000
20
-35.965300
30
0.0
11
-14.272000
21
-22.000000
31
0.0
0
LINE
8
0
6
CONTINUOUS
10
15.472000
20
78.241000
30
0.0
11
21.957000
21
78.241000
31
0.0
0
LINE
8
0
6
CONTINUOUS
10
21.957000
20
78.241000
30
0.0
11
15.472000
21
78.241000
31
0.0
0
LINE
8
0
6
CONTINUOUS
10
15.657000
20
78.724000
30
0.0
11
22.235000
21
78.724000
31
0.0
0
LINE
8
0
6
CONTINUOUS
10
8.060000
20
78.724000
30
0.0
11
15.657000
21
78.724000
31
0.0
0
LINE
8
0
6
CONTINUOUS
10
0.000000
20
78.724000
30
0.0
11
8.060000
21
78.724000
31
0.0
0
LINE
8
0
6
CONTINUOUS
10
22.235000
20
78.724000
30
0.0
11
15.657000
21
78.724000
31
0.0
0
LINE
8
0
6
CONTINUOUS
10
15.657000
20
85.000000
30
0.0
11
22.235000
21
85.000000
31
0.0
0
LINE
8
0
6
CONTINUOUS
10
15.657000
20
78.724000
30
0.0
11
8.060000
21
78.724000
31
0.0
0
LINE
8
0
6
CONTINUOUS
10
8.060000
20
85.000000
30
0.0
11
15.657000
21
85.000000
31
0.0
0
LINE
8
0
6
CONTINUOUS
10
8.060000
20
78.724000
30
0.0
11
0.000000
21
78.724000
31
0.0
0
LINE
8
0
6
CONTINUOUS
10
0.000000
20
85.000000
30
0.0
11
8.060000
21
85.000000
31
0.0
0
LINE
8
0
6
CONTINUOUS
10
22.235000
20
85.000000
30
0.0
11
15.657000
21
85.000000
31
0.0
0
LINE
8
0
6
CONTINUOUS
10
15.657000
20
85.000000
30
0.0
11
8.060000
21
85.000000
31
0.0
0
LINE
8
0
6
CONTINUOUS
10
8.060000
20
85.000000
30
0.0
11
0.000000
21
85.000000
31
0.0
0
LINE
8
0
6
CONTINUOUS
10
21.309000
20
78.000000
30
0.0
11
26.034000
21
78.000000
31
0.0
0
LINE
8
0
6
CONTINUOUS
10
21.957000
20
78.241000
30
0.0
11
26.868000
21
78.241000
31
0.0
0
LINE
8
0
6
CONTINUOUS
10
31.037000
20
78.241000
30
0.0
11
30.110000
21
78.000000
31
0.0
0
LINE
8
0
6
CONTINUOUS
10
22.235000
20
78.724000
30
0.0
11
27.238000
21
78.724000
31
0.0
0
LINE
8
0
6
CONTINUOUS
10
26.868000
20
78.241000
30
0.0
11
21.957000
21
78.241000
31
0.0
0
LINE
8
0
6
CONTINUOUS
10
27.238000
20
78.724000
30
0.0
11
30.388000
21
78.724000
31
0.0
0
LINE
8
0
6
CONTINUOUS
10
31.500000
20
78.724000
30
0.0
11
31.037000
21
78.241000
31
0.0
0
LINE
8
0
6
CONTINUOUS
10
30.388000
20
78.724000
30
0.0
11
31.500000
21
78.724000
31
0.0
0
LINE
8
0
6
CONTINUOUS
10
22.235000
20
85.000000
30
0.0
11
27.238000
21
85.000000
31
0.0
0
LINE
8
0
6
CONTINUOUS
10
27.238000
20
78.724000
30
0.0
11
22.235000
21
78.724000
31
0.0
0
LINE
8
0
6
CONTINUOUS
10
27.238000
20
85.000000
30
0.0
11
30.388000
21
85.000000
31
0.0
0
LINE
8
0
6
CONTINUOUS
10
30.388000
20
78.724000
30
0.0
11
27.238000
21
78.724000
31
0.0
0
LINE
8
0
6
CONTINUOUS
10
31.500000
20
85.000000
30
0.0
11
31.500000
21
78.724000
31
0.0
0
LINE
8
0
6
CONTINUOUS
10
30.388000
20
85.000000
30
0.0
11
31.500000
21
85.000000
31
0.0
0
LINE
8
0
6
CONTINUOUS
10
31.500000
20
78.724000
30
0.0
11
30.388000
21
78.724000
31
0.0
0
LINE
8
0
6
CONTINUOUS
10
27.238000
20
85.000000
30
0.0
11
22.235000
21
85.000000
31
0.0
0
LINE
8
0
6
CONTINUOUS
10
30.388000
20
85.000000
30
0.0
11
27.238000
21
85.000000
31
0.0
0
LINE
8
0
6
CONTINUOUS
10
31.500000
20
85.000000
30
0.0
11
30.388000
21
85.000000
31
0.0
0
LINE
8
0
6
CONTINUOUS
10
-21.957000
20
78.241000
30
0.0
11
-15.472000
21
78.241000
31
0.0
0
LINE
8
0
6
CONTINUOUS
10
-22.235000
20
78.724000
30
0.0
11
-15.657000
21
78.724000
31
0.0
0
LINE
8
0
6
CONTINUOUS
10
-15.472000
20
78.241000
30
0.0
11
-21.957000
21
78.241000
31
0.0
0
LINE
8
0
6
CONTINUOUS
10
-15.657000
20
78.724000
30
0.0
11
-8.060000
21
78.724000
31
0.0
0
LINE
8
0
6
CONTINUOUS
10
-8.060000
20
78.724000
30
0.0
11
0.000000
21
78.724000
31
0.0
0
LINE
8
0
6
CONTINUOUS
10
-22.235000
20
85.000000
30
0.0
11
-15.657000
21
85.000000
31
0.0
0
LINE
8
0
6
CONTINUOUS
10
-15.657000
20
78.724000
30
0.0
11
-22.235000
21
78.724000
31
0.0
0
LINE
8
0
6
CONTINUOUS
10
-15.657000
20
85.000000
30
0.0
11
-8.060000
21
85.000000
31
0.0
0
LINE
8
0
6
CONTINUOUS
10
-8.060000
20
78.724000
30
0.0
11
-15.657000
21
78.724000
31
0.0
0
LINE
8
0
6
CONTINUOUS
10
-8.060000
20
85.000000
30
0.0
11
0.000000
21
85.000000
31
0.0
0
LINE
8
0
6
CONTINUOUS
10
0.000000
20
78.724000
30
0.0
11
-8.060000
21
78.724000
31
0.0
0
LINE
8
0
6
CONTINUOUS
10
-15.657000
20
85.000000
30
0.0
11
-22.235000
21
85.000000
31
0.0
0
LINE
8
0
6
CONTINUOUS
10
-8.060000
20
85.000000
30
0.0
11
-15.657000
21
85.000000
31
0.0
0
LINE
8
0
6
CONTINUOUS
10
0.000000
20
85.000000
30
0.0
11
-8.060000
21
85.000000
31
0.0
0
LINE
8
0
6
CONTINUOUS
10
-26.868000
20
78.241000
30
0.0
11
-21.957000
21
78.241000
31
0.0
0
LINE
8
0
6
CONTINUOUS
10
-21.957000
20
78.241000
30
0.0
11
-26.868000
21
78.241000
31
0.0
0
LINE
8
0
6
CONTINUOUS
10
-27.238000
20
78.724000
30
0.0
11
-22.235000
21
78.724000
31
0.0
0
LINE
8
0
6
CONTINUOUS
10
-30.388000
20
78.724000
30
0.0
11
-27.238000
21
78.724000
31
0.0
0
LINE
8
0
6
CONTINUOUS
10
-31.500000
20
78.724000
30
0.0
11
-30.388000
21
78.724000
31
0.0
0
LINE
8
0
6
CONTINUOUS
10
-22.235000
20
78.724000
30
0.0
11
-27.238000
21
78.724000
31
0.0
0
LINE
8
0
6
CONTINUOUS
10
-27.238000
20
85.000000
30
0.0
11
-22.235000
21
85.000000
31
0.0
0
LINE
8
0
6
CONTINUOUS
10
-27.238000
20
78.724000
30
0.0
11
-30.388000
21
78.724000
31
0.0
0
LINE
8
0
6
CONTINUOUS
10
-30.388000
20
85.000000
30
0.0
11
-27.238000
21
85.000000
31
0.0
0
LINE
8
0
6
CONTINUOUS
10
-30.388000
20
78.724000
30
0.0
11
-31.500000
21
78.724000
31
0.0
0
LINE
8
0
6
CONTINUOUS
10
-31.500000
20
85.000000
30
0.0
11
-30.388000
21
85.000000
31
0.0
0
LINE
8
0
6
CONTINUOUS
10
-22.235000
20
85.000000
30
0.0
11
-27.238000
21
85.000000
31
0.0
0
LINE
8
0
6
CONTINUOUS
10
-27.238000
20
85.000000
30
0.0
11
-30.388000
21
85.000000
31
0.0
0
LINE
8
0
6
CONTINUOUS
10
-30.388000
20
85.000000
30
0.0
11
-31.500000
21
85.000000
31
0.0
0
LINE
8
0
6
CONTINUOUS
10
-28.999000
20
78.000000
30
0.0
11
-26.034000
21
78.000000
31
0.0
0
LINE
8
0
6
CONTINUOUS
10
-31.037000
20
78.241000
30
0.0
11
-30.110000
21
78.000000
31
0.0
0
LINE
8
0
6
CONTINUOUS
10
-30.110000
20
78.000000
30
0.0
11
-28.999000
21
78.000000
31
0.0
0
LINE
8
0
6
CONTINUOUS
10
-31.500000
20
78.724000
30
0.0
11
-31.037000
21
78.241000
31
0.0
0
LINE
8
0
6
CONTINUOUS
10
-31.500000
20
85.000000
30
0.0
11
-31.500000
21
78.724000
31
0.0
0
LINE
8
0
6
CONTINUOUS
10
-21.309000
20
78.000000
30
0.0
11
-15.009000
21
78.000000
31
0.0
0
LINE
8
0
6
CONTINUOUS
10
13.500000
20
-22.000000
30
0.0
11
13.500000
21
78.000000
31
0.0
0
LINE
8
0
6
CONTINUOUS
10
9.558000
20
78.000000
30
0.0
11
6.696000
21
78.000000
31
0.0
0
LINE
8
0
6
CONTINUOUS
10
-13.500000
20
-22.000000
30
0.0
11
-13.500000
21
78.000000
31
0.0
0
ENDSEC
0
EOF
