999
Erzeugt mit innoplus bad 
0
SECTION
2
HEADER
9
$ACADVER
1
AC1009
9
$DWGCODEPAGE
3
ISO8859-1
0
ENDSEC
0
SECTION
2
TABLES
0
TABLE
2
LAYER
70
1
0
LAYER
2
0
70
0
62
7
6
CONTINUOUS
0
ENDTAB
0
ENDSEC
0
SECTION
2
ENTITIES
0
LINE
8
0
6
CONTINUOUS
10
1.536000
20
-85.000000
30
0.0
11
2.976000
21
-85.000000
31
0.0
0
LINE
8
0
6
CONTINUOUS
10
2.976000
20
-85.000000
30
0.0
11
4.248000
21
-85.000000
31
0.0
0
LINE
8
0
6
CONTINUOUS
10
2.976000
20
-85.000000
30
0.0
11
1.536000
21
-85.000000
31
0.0
0
LINE
8
0
6
CONTINUOUS
10
4.248000
20
-85.000000
30
0.0
11
2.976000
21
-85.000000
31
0.0
0
LINE
8
0
6
CONTINUOUS
10
-2.976000
20
-85.000000
30
0.0
11
-1.536000
21
-85.000000
31
0.0
0
LINE
8
0
6
CONTINUOUS
10
-4.248000
20
-85.000000
30
0.0
11
-2.976000
21
-85.000000
31
0.0
0
LINE
8
0
6
CONTINUOUS
10
-1.536000
20
-85.000000
30
0.0
11
-2.976000
21
-85.000000
31
0.0
0
LINE
8
0
6
CONTINUOUS
10
-2.976000
20
-85.000000
30
0.0
11
-4.248000
21
-85.000000
31
0.0
0
LINE
8
0
6
CONTINUOUS
10
130.076000
20
-83.000000
30
0.0
11
130.076000
21
-85.000000
31
0.0
0
LINE
8
0
6
CONTINUOUS
10
132.491000
20
-85.000000
30
0.0
11
133.139000
21
-85.000000
31
0.0
0
LINE
8
0
6
CONTINUOUS
10
130.076000
20
-85.000000
30
0.0
11
132.491000
21
-85.000000
31
0.0
0
LINE
8
0
6
CONTINUOUS
10
132.491000
20
-83.000000
30
0.0
11
132.491000
21
-85.000000
31
0.0
0
LINE
8
0
6
CONTINUOUS
10
130.076000
20
-85.000000
30
0.0
11
130.076000
21
-83.000000
31
0.0
0
LINE
8
0
6
CONTINUOUS
10
132.491000
20
-85.000000
30
0.0
11
130.076000
21
-85.000000
31
0.0
0
LINE
8
0
6
CONTINUOUS
10
133.139000
20
-83.000000
30
0.0
11
133.139000
21
-85.000000
31
0.0
0
LINE
8
0
6
CONTINUOUS
10
132.491000
20
-85.000000
30
0.0
11
132.491000
21
-83.000000
31
0.0
0
LINE
8
0
6
CONTINUOUS
10
133.139000
20
-85.000000
30
0.0
11
132.491000
21
-85.000000
31
0.0
0
LINE
8
0
6
CONTINUOUS
10
133.139000
20
-85.000000
30
0.0
11
133.139000
21
-83.000000
31
0.0
0
LINE
8
0
6
CONTINUOUS
10
111.965000
20
-83.000000
30
0.0
11
111.965000
21
-85.000000
31
0.0
0
LINE
8
0
6
CONTINUOUS
10
114.380000
20
-85.000000
30
0.0
11
115.027000
21
-85.000000
31
0.0
0
LINE
8
0
6
CONTINUOUS
10
111.965000
20
-85.000000
30
0.0
11
114.380000
21
-85.000000
31
0.0
0
LINE
8
0
6
CONTINUOUS
10
114.380000
20
-83.000000
30
0.0
11
114.380000
21
-85.000000
31
0.0
0
LINE
8
0
6
CONTINUOUS
10
111.965000
20
-85.000000
30
0.0
11
111.965000
21
-83.000000
31
0.0
0
LINE
8
0
6
CONTINUOUS
10
114.380000
20
-85.000000
30
0.0
11
111.965000
21
-85.000000
31
0.0
0
LINE
8
0
6
CONTINUOUS
10
115.027000
20
-83.000000
30
0.0
11
115.027000
21
-85.000000
31
0.0
0
LINE
8
0
6
CONTINUOUS
10
114.380000
20
-85.000000
30
0.0
11
114.380000
21
-83.000000
31
0.0
0
LINE
8
0
6
CONTINUOUS
10
115.027000
20
-85.000000
30
0.0
11
114.380000
21
-85.000000
31
0.0
0
LINE
8
0
6
CONTINUOUS
10
115.027000
20
-85.000000
30
0.0
11
115.027000
21
-83.000000
31
0.0
0
LINE
8
0
6
CONTINUOUS
10
116.289000
20
-83.000000
30
0.0
11
116.289000
21
-85.000000
31
0.0
0
LINE
8
0
6
CONTINUOUS
10
118.454000
20
-85.000000
30
0.0
11
119.704000
21
-85.000000
31
0.0
0
LINE
8
0
6
CONTINUOUS
10
116.289000
20
-85.000000
30
0.0
11
118.454000
21
-85.000000
31
0.0
0
LINE
8
0
6
CONTINUOUS
10
118.454000
20
-83.000000
30
0.0
11
118.454000
21
-85.000000
31
0.0
0
LINE
8
0
6
CONTINUOUS
10
116.289000
20
-85.000000
30
0.0
11
116.289000
21
-83.000000
31
0.0
0
LINE
8
0
6
CONTINUOUS
10
118.454000
20
-85.000000
30
0.0
11
116.289000
21
-85.000000
31
0.0
0
LINE
8
0
6
CONTINUOUS
10
119.704000
20
-83.000000
30
0.0
11
119.704000
21
-85.000000
31
0.0
0
LINE
8
0
6
CONTINUOUS
10
118.454000
20
-85.000000
30
0.0
11
118.454000
21
-83.000000
31
0.0
0
LINE
8
0
6
CONTINUOUS
10
119.704000
20
-85.000000
30
0.0
11
118.454000
21
-85.000000
31
0.0
0
LINE
8
0
6
CONTINUOUS
10
119.704000
20
-85.000000
30
0.0
11
119.704000
21
-83.000000
31
0.0
0
LINE
8
0
6
CONTINUOUS
10
75.744000
20
-83.000000
30
0.0
11
75.744000
21
-85.000000
31
0.0
0
LINE
8
0
6
CONTINUOUS
10
78.158000
20
-85.000000
30
0.0
11
78.805000
21
-85.000000
31
0.0
0
LINE
8
0
6
CONTINUOUS
10
75.744000
20
-85.000000
30
0.0
11
78.158000
21
-85.000000
31
0.0
0
LINE
8
0
6
CONTINUOUS
10
78.158000
20
-83.000000
30
0.0
11
78.158000
21
-85.000000
31
0.0
0
LINE
8
0
6
CONTINUOUS
10
75.744000
20
-83.000000
30
0.0
11
78.158000
21
-83.000000
31
0.0
0
LINE
8
0
6
CONTINUOUS
10
75.744000
20
-85.000000
30
0.0
11
75.744000
21
-83.000000
31
0.0
0
LINE
8
0
6
CONTINUOUS
10
78.158000
20
-85.000000
30
0.0
11
75.744000
21
-85.000000
31
0.0
0
LINE
8
0
6
CONTINUOUS
10
78.805000
20
-83.000000
30
0.0
11
78.805000
21
-85.000000
31
0.0
0
LINE
8
0
6
CONTINUOUS
10
78.158000
20
-83.000000
30
0.0
11
78.805000
21
-83.000000
31
0.0
0
LINE
8
0
6
CONTINUOUS
10
78.158000
20
-85.000000
30
0.0
11
78.158000
21
-83.000000
31
0.0
0
LINE
8
0
6
CONTINUOUS
10
78.805000
20
-85.000000
30
0.0
11
78.158000
21
-85.000000
31
0.0
0
LINE
8
0
6
CONTINUOUS
10
78.805000
20
-85.000000
30
0.0
11
78.805000
21
-83.000000
31
0.0
0
LINE
8
0
6
CONTINUOUS
10
23.825000
20
-83.000000
30
0.0
11
23.825000
21
-85.000000
31
0.0
0
LINE
8
0
6
CONTINUOUS
10
23.825000
20
-85.000000
30
0.0
11
23.825000
21
-83.000000
31
0.0
0
LINE
8
0
6
CONTINUOUS
10
18.860000
20
-83.000000
30
0.0
11
18.860000
21
-85.000000
31
0.0
0
LINE
8
0
6
CONTINUOUS
10
18.860000
20
-85.000000
30
0.0
11
18.860000
21
-83.000000
31
0.0
0
LINE
8
0
6
CONTINUOUS
10
60.694000
20
-83.000000
30
0.0
11
60.694000
21
-85.000000
31
0.0
0
LINE
8
0
6
CONTINUOUS
10
60.694000
20
-85.000000
30
0.0
11
60.694000
21
-83.000000
31
0.0
0
LINE
8
0
6
CONTINUOUS
10
93.854000
20
-83.000000
30
0.0
11
93.854000
21
-85.000000
31
0.0
0
LINE
8
0
6
CONTINUOUS
10
93.854000
20
-85.000000
30
0.0
11
93.854000
21
-83.000000
31
0.0
0
LINE
8
0
6
CONTINUOUS
10
85.977000
20
-85.000000
30
0.0
11
87.227000
21
-85.000000
31
0.0
0
LINE
8
0
6
CONTINUOUS
10
83.813000
20
-85.000000
30
0.0
11
85.977000
21
-85.000000
31
0.0
0
LINE
8
0
6
CONTINUOUS
10
85.977000
20
-83.000000
30
0.0
11
85.977000
21
-85.000000
31
0.0
0
LINE
8
0
6
CONTINUOUS
10
83.813000
20
-83.000000
30
0.0
11
85.977000
21
-83.000000
31
0.0
0
LINE
8
0
6
CONTINUOUS
10
85.977000
20
-85.000000
30
0.0
11
83.813000
21
-85.000000
31
0.0
0
LINE
8
0
6
CONTINUOUS
10
87.227000
20
-83.000000
30
0.0
11
87.227000
21
-85.000000
31
0.0
0
LINE
8
0
6
CONTINUOUS
10
85.977000
20
-83.000000
30
0.0
11
87.227000
21
-83.000000
31
0.0
0
LINE
8
0
6
CONTINUOUS
10
85.977000
20
-85.000000
30
0.0
11
85.977000
21
-83.000000
31
0.0
0
LINE
8
0
6
CONTINUOUS
10
87.227000
20
-85.000000
30
0.0
11
85.977000
21
-85.000000
31
0.0
0
LINE
8
0
6
CONTINUOUS
10
87.227000
20
-85.000000
30
0.0
11
87.227000
21
-83.000000
31
0.0
0
LINE
8
0
6
CONTINUOUS
10
69.826000
20
-85.000000
30
0.0
11
71.595000
21
-85.000000
31
0.0
0
LINE
8
0
6
CONTINUOUS
10
71.595000
20
-83.000000
30
0.0
11
71.595000
21
-85.000000
31
0.0
0
LINE
8
0
6
CONTINUOUS
10
71.595000
20
-85.000000
30
0.0
11
69.826000
21
-85.000000
31
0.0
0
LINE
8
0
6
CONTINUOUS
10
71.595000
20
-85.000000
30
0.0
11
71.595000
21
-83.000000
31
0.0
0
LINE
8
0
6
CONTINUOUS
10
51.336000
20
-83.000000
30
0.0
11
51.336000
21
-85.000000
31
0.0
0
LINE
8
0
6
CONTINUOUS
10
53.501000
20
-85.000000
30
0.0
11
54.751000
21
-85.000000
31
0.0
0
LINE
8
0
6
CONTINUOUS
10
51.336000
20
-85.000000
30
0.0
11
53.501000
21
-85.000000
31
0.0
0
LINE
8
0
6
CONTINUOUS
10
53.501000
20
-83.000000
30
0.0
11
53.501000
21
-85.000000
31
0.0
0
LINE
8
0
6
CONTINUOUS
10
51.336000
20
-85.000000
30
0.0
11
51.336000
21
-83.000000
31
0.0
0
LINE
8
0
6
CONTINUOUS
10
53.501000
20
-85.000000
30
0.0
11
51.336000
21
-85.000000
31
0.0
0
LINE
8
0
6
CONTINUOUS
10
54.751000
20
-83.000000
30
0.0
11
54.751000
21
-85.000000
31
0.0
0
LINE
8
0
6
CONTINUOUS
10
53.501000
20
-85.000000
30
0.0
11
53.501000
21
-83.000000
31
0.0
0
LINE
8
0
6
CONTINUOUS
10
54.751000
20
-85.000000
30
0.0
11
53.501000
21
-85.000000
31
0.0
0
LINE
8
0
6
CONTINUOUS
10
54.751000
20
-85.000000
30
0.0
11
54.751000
21
-83.000000
31
0.0
0
LINE
8
0
6
CONTINUOUS
10
43.310000
20
-85.000000
30
0.0
11
45.077000
21
-85.000000
31
0.0
0
LINE
8
0
6
CONTINUOUS
10
41.542000
20
-85.000000
30
0.0
11
43.310000
21
-85.000000
31
0.0
0
LINE
8
0
6
CONTINUOUS
10
43.310000
20
-83.000000
30
0.0
11
43.310000
21
-85.000000
31
0.0
0
LINE
8
0
6
CONTINUOUS
10
43.310000
20
-85.000000
30
0.0
11
41.542000
21
-85.000000
31
0.0
0
LINE
8
0
6
CONTINUOUS
10
45.077000
20
-83.000000
30
0.0
11
45.077000
21
-85.000000
31
0.0
0
LINE
8
0
6
CONTINUOUS
10
43.310000
20
-85.000000
30
0.0
11
43.310000
21
-83.000000
31
0.0
0
LINE
8
0
6
CONTINUOUS
10
45.077000
20
-85.000000
30
0.0
11
43.310000
21
-85.000000
31
0.0
0
LINE
8
0
6
CONTINUOUS
10
45.077000
20
-85.000000
30
0.0
11
45.077000
21
-83.000000
31
0.0
0
LINE
8
0
6
CONTINUOUS
10
28.284000
20
-83.000000
30
0.0
11
28.284000
21
-85.000000
31
0.0
0
LINE
8
0
6
CONTINUOUS
10
28.284000
20
-85.000000
30
0.0
11
28.284000
21
-83.000000
31
0.0
0
LINE
8
0
6
CONTINUOUS
10
54.801000
20
-83.000000
30
0.0
11
54.801000
21
-85.000000
31
0.0
0
LINE
8
0
6
CONTINUOUS
10
54.801000
20
-85.000000
30
0.0
11
56.569000
21
-85.000000
31
0.0
0
LINE
8
0
6
CONTINUOUS
10
56.569000
20
-83.000000
30
0.0
11
56.569000
21
-85.000000
31
0.0
0
LINE
8
0
6
CONTINUOUS
10
54.801000
20
-85.000000
30
0.0
11
54.801000
21
-83.000000
31
0.0
0
LINE
8
0
6
CONTINUOUS
10
56.569000
20
-85.000000
30
0.0
11
54.801000
21
-85.000000
31
0.0
0
LINE
8
0
6
CONTINUOUS
10
56.569000
20
-85.000000
30
0.0
11
56.569000
21
-83.000000
31
0.0
0
LINE
8
0
6
CONTINUOUS
10
37.264000
20
-85.000000
30
0.0
11
38.514000
21
-85.000000
31
0.0
0
LINE
8
0
6
CONTINUOUS
10
37.264000
20
-83.000000
30
0.0
11
37.264000
21
-85.000000
31
0.0
0
LINE
8
0
6
CONTINUOUS
10
37.264000
20
-85.000000
30
0.0
11
37.264000
21
-83.000000
31
0.0
0
LINE
8
0
6
CONTINUOUS
10
38.514000
20
-85.000000
30
0.0
11
37.264000
21
-85.000000
31
0.0
0
LINE
8
0
6
CONTINUOUS
10
100.050000
20
-83.000000
30
0.0
11
100.050000
21
-85.000000
31
0.0
0
LINE
8
0
6
CONTINUOUS
10
102.215000
20
-85.000000
30
0.0
11
103.465000
21
-85.000000
31
0.0
0
LINE
8
0
6
CONTINUOUS
10
100.050000
20
-85.000000
30
0.0
11
102.215000
21
-85.000000
31
0.0
0
LINE
8
0
6
CONTINUOUS
10
102.215000
20
-83.000000
30
0.0
11
102.215000
21
-85.000000
31
0.0
0
LINE
8
0
6
CONTINUOUS
10
100.050000
20
-85.000000
30
0.0
11
100.050000
21
-83.000000
31
0.0
0
LINE
8
0
6
CONTINUOUS
10
102.215000
20
-85.000000
30
0.0
11
100.050000
21
-85.000000
31
0.0
0
LINE
8
0
6
CONTINUOUS
10
103.465000
20
-83.000000
30
0.0
11
103.465000
21
-85.000000
31
0.0
0
LINE
8
0
6
CONTINUOUS
10
102.215000
20
-85.000000
30
0.0
11
102.215000
21
-83.000000
31
0.0
0
LINE
8
0
6
CONTINUOUS
10
103.465000
20
-85.000000
30
0.0
11
102.215000
21
-85.000000
31
0.0
0
LINE
8
0
6
CONTINUOUS
10
103.465000
20
-85.000000
30
0.0
11
103.465000
21
-83.000000
31
0.0
0
LINE
8
0
6
CONTINUOUS
10
81.318000
20
-83.000000
30
0.0
11
81.318000
21
-85.000000
31
0.0
0
LINE
8
0
6
CONTINUOUS
10
83.085000
20
-85.000000
30
0.0
11
84.852000
21
-85.000000
31
0.0
0
LINE
8
0
6
CONTINUOUS
10
81.318000
20
-85.000000
30
0.0
11
83.085000
21
-85.000000
31
0.0
0
LINE
8
0
6
CONTINUOUS
10
83.085000
20
-83.000000
30
0.0
11
83.085000
21
-85.000000
31
0.0
0
LINE
8
0
6
CONTINUOUS
10
81.318000
20
-83.000000
30
0.0
11
83.085000
21
-83.000000
31
0.0
0
LINE
8
0
6
CONTINUOUS
10
81.318000
20
-85.000000
30
0.0
11
81.318000
21
-83.000000
31
0.0
0
LINE
8
0
6
CONTINUOUS
10
83.085000
20
-85.000000
30
0.0
11
81.318000
21
-85.000000
31
0.0
0
LINE
8
0
6
CONTINUOUS
10
84.852000
20
-83.000000
30
0.0
11
84.852000
21
-85.000000
31
0.0
0
LINE
8
0
6
CONTINUOUS
10
83.085000
20
-83.000000
30
0.0
11
84.852000
21
-83.000000
31
0.0
0
LINE
8
0
6
CONTINUOUS
10
83.085000
20
-85.000000
30
0.0
11
83.085000
21
-83.000000
31
0.0
0
LINE
8
0
6
CONTINUOUS
10
84.852000
20
-85.000000
30
0.0
11
83.085000
21
-85.000000
31
0.0
0
LINE
8
0
6
CONTINUOUS
10
84.852000
20
-85.000000
30
0.0
11
84.852000
21
-83.000000
31
0.0
0
LINE
8
0
6
CONTINUOUS
10
94.575000
20
-83.000000
30
0.0
11
94.575000
21
-85.000000
31
0.0
0
LINE
8
0
6
CONTINUOUS
10
96.344000
20
-85.000000
30
0.0
11
98.111000
21
-85.000000
31
0.0
0
LINE
8
0
6
CONTINUOUS
10
94.575000
20
-85.000000
30
0.0
11
96.344000
21
-85.000000
31
0.0
0
LINE
8
0
6
CONTINUOUS
10
96.344000
20
-83.000000
30
0.0
11
96.344000
21
-85.000000
31
0.0
0
LINE
8
0
6
CONTINUOUS
10
94.575000
20
-85.000000
30
0.0
11
94.575000
21
-83.000000
31
0.0
0
LINE
8
0
6
CONTINUOUS
10
96.344000
20
-85.000000
30
0.0
11
94.575000
21
-85.000000
31
0.0
0
LINE
8
0
6
CONTINUOUS
10
98.111000
20
-83.000000
30
0.0
11
98.111000
21
-85.000000
31
0.0
0
LINE
8
0
6
CONTINUOUS
10
96.344000
20
-85.000000
30
0.0
11
96.344000
21
-83.000000
31
0.0
0
LINE
8
0
6
CONTINUOUS
10
98.111000
20
-85.000000
30
0.0
11
96.344000
21
-85.000000
31
0.0
0
LINE
8
0
6
CONTINUOUS
10
98.111000
20
-85.000000
30
0.0
11
98.111000
21
-83.000000
31
0.0
0
LINE
8
0
6
CONTINUOUS
10
16.794000
20
-85.000000
30
0.0
11
18.561000
21
-85.000000
31
0.0
0
LINE
8
0
6
CONTINUOUS
10
18.561000
20
-83.000000
30
0.0
11
18.561000
21
-85.000000
31
0.0
0
LINE
8
0
6
CONTINUOUS
10
18.561000
20
-85.000000
30
0.0
11
16.794000
21
-85.000000
31
0.0
0
LINE
8
0
6
CONTINUOUS
10
18.561000
20
-85.000000
30
0.0
11
18.561000
21
-83.000000
31
0.0
0
LINE
8
0
6
CONTINUOUS
10
22.958000
20
-83.000000
30
0.0
11
22.958000
21
-85.000000
31
0.0
0
LINE
8
0
6
CONTINUOUS
10
22.958000
20
-85.000000
30
0.0
11
22.958000
21
-83.000000
31
0.0
0
LINE
8
0
6
CONTINUOUS
10
19.175000
20
-83.000000
30
0.0
11
19.175000
21
-85.000000
31
0.0
0
LINE
8
0
6
CONTINUOUS
10
19.821000
20
-85.000000
30
0.0
11
22.236000
21
-85.000000
31
0.0
0
LINE
8
0
6
CONTINUOUS
10
19.175000
20
-85.000000
30
0.0
11
19.821000
21
-85.000000
31
0.0
0
LINE
8
0
6
CONTINUOUS
10
19.821000
20
-83.000000
30
0.0
11
19.821000
21
-85.000000
31
0.0
0
LINE
8
0
6
CONTINUOUS
10
19.175000
20
-85.000000
30
0.0
11
19.175000
21
-83.000000
31
0.0
0
LINE
8
0
6
CONTINUOUS
10
19.821000
20
-85.000000
30
0.0
11
19.175000
21
-85.000000
31
0.0
0
LINE
8
0
6
CONTINUOUS
10
22.236000
20
-83.000000
30
0.0
11
22.236000
21
-85.000000
31
0.0
0
LINE
8
0
6
CONTINUOUS
10
19.821000
20
-83.000000
30
0.0
11
22.236000
21
-83.000000
31
0.0
0
LINE
8
0
6
CONTINUOUS
10
19.821000
20
-85.000000
30
0.0
11
19.821000
21
-83.000000
31
0.0
0
LINE
8
0
6
CONTINUOUS
10
22.236000
20
-85.000000
30
0.0
11
19.821000
21
-85.000000
31
0.0
0
LINE
8
0
6
CONTINUOUS
10
22.236000
20
-85.000000
30
0.0
11
22.236000
21
-83.000000
31
0.0
0
LINE
8
0
6
CONTINUOUS
10
38.292000
20
-83.000000
30
0.0
11
38.292000
21
-85.000000
31
0.0
0
LINE
8
0
6
CONTINUOUS
10
39.542000
20
-85.000000
30
0.0
11
41.708000
21
-85.000000
31
0.0
0
LINE
8
0
6
CONTINUOUS
10
38.292000
20
-85.000000
30
0.0
11
39.542000
21
-85.000000
31
0.0
0
LINE
8
0
6
CONTINUOUS
10
39.542000
20
-83.000000
30
0.0
11
39.542000
21
-85.000000
31
0.0
0
LINE
8
0
6
CONTINUOUS
10
38.292000
20
-85.000000
30
0.0
11
38.292000
21
-83.000000
31
0.0
0
LINE
8
0
6
CONTINUOUS
10
39.542000
20
-85.000000
30
0.0
11
38.292000
21
-85.000000
31
0.0
0
LINE
8
0
6
CONTINUOUS
10
41.708000
20
-83.000000
30
0.0
11
41.708000
21
-85.000000
31
0.0
0
LINE
8
0
6
CONTINUOUS
10
39.542000
20
-85.000000
30
0.0
11
39.542000
21
-83.000000
31
0.0
0
LINE
8
0
6
CONTINUOUS
10
41.708000
20
-85.000000
30
0.0
11
39.542000
21
-85.000000
31
0.0
0
LINE
8
0
6
CONTINUOUS
10
41.708000
20
-85.000000
30
0.0
11
41.708000
21
-83.000000
31
0.0
0
LINE
8
0
6
CONTINUOUS
10
32.333000
20
-83.000000
30
0.0
11
32.333000
21
-85.000000
31
0.0
0
LINE
8
0
6
CONTINUOUS
10
32.333000
20
-85.000000
30
0.0
11
32.333000
21
-83.000000
31
0.0
0
LINE
8
0
6
CONTINUOUS
10
66.417000
20
-83.000000
30
0.0
11
66.417000
21
-85.000000
31
0.0
0
LINE
8
0
6
CONTINUOUS
10
67.667000
20
-85.000000
30
0.0
11
69.833000
21
-85.000000
31
0.0
0
LINE
8
0
6
CONTINUOUS
10
66.417000
20
-85.000000
30
0.0
11
67.667000
21
-85.000000
31
0.0
0
LINE
8
0
6
CONTINUOUS
10
67.667000
20
-83.000000
30
0.0
11
67.667000
21
-85.000000
31
0.0
0
LINE
8
0
6
CONTINUOUS
10
66.417000
20
-85.000000
30
0.0
11
66.417000
21
-83.000000
31
0.0
0
LINE
8
0
6
CONTINUOUS
10
67.667000
20
-85.000000
30
0.0
11
66.417000
21
-85.000000
31
0.0
0
LINE
8
0
6
CONTINUOUS
10
69.833000
20
-83.000000
30
0.0
11
69.833000
21
-85.000000
31
0.0
0
LINE
8
0
6
CONTINUOUS
10
67.667000
20
-85.000000
30
0.0
11
67.667000
21
-83.000000
31
0.0
0
LINE
8
0
6
CONTINUOUS
10
69.833000
20
-85.000000
30
0.0
11
67.667000
21
-85.000000
31
0.0
0
LINE
8
0
6
CONTINUOUS
10
69.833000
20
-85.000000
30
0.0
11
69.833000
21
-83.000000
31
0.0
0
LINE
8
0
6
CONTINUOUS
10
47.667000
20
-83.000000
30
0.0
11
47.667000
21
-85.000000
31
0.0
0
LINE
8
0
6
CONTINUOUS
10
48.917000
20
-85.000000
30
0.0
11
51.083000
21
-85.000000
31
0.0
0
LINE
8
0
6
CONTINUOUS
10
47.667000
20
-85.000000
30
0.0
11
48.917000
21
-85.000000
31
0.0
0
LINE
8
0
6
CONTINUOUS
10
48.917000
20
-83.000000
30
0.0
11
48.917000
21
-85.000000
31
0.0
0
LINE
8
0
6
CONTINUOUS
10
47.667000
20
-85.000000
30
0.0
11
47.667000
21
-83.000000
31
0.0
0
LINE
8
0
6
CONTINUOUS
10
48.917000
20
-85.000000
30
0.0
11
47.667000
21
-85.000000
31
0.0
0
LINE
8
0
6
CONTINUOUS
10
51.083000
20
-83.000000
30
0.0
11
51.083000
21
-85.000000
31
0.0
0
LINE
8
0
6
CONTINUOUS
10
48.917000
20
-85.000000
30
0.0
11
48.917000
21
-83.000000
31
0.0
0
LINE
8
0
6
CONTINUOUS
10
51.083000
20
-85.000000
30
0.0
11
48.917000
21
-85.000000
31
0.0
0
LINE
8
0
6
CONTINUOUS
10
51.083000
20
-85.000000
30
0.0
11
51.083000
21
-83.000000
31
0.0
0
LINE
8
0
6
CONTINUOUS
10
24.027000
20
-83.000000
30
0.0
11
24.027000
21
-85.000000
31
0.0
0
LINE
8
0
6
CONTINUOUS
10
24.675000
20
-85.000000
30
0.0
11
27.089000
21
-85.000000
31
0.0
0
LINE
8
0
6
CONTINUOUS
10
24.027000
20
-85.000000
30
0.0
11
24.675000
21
-85.000000
31
0.0
0
LINE
8
0
6
CONTINUOUS
10
24.675000
20
-83.000000
30
0.0
11
24.675000
21
-85.000000
31
0.0
0
LINE
8
0
6
CONTINUOUS
10
24.027000
20
-83.000000
30
0.0
11
24.675000
21
-83.000000
31
0.0
0
LINE
8
0
6
CONTINUOUS
10
24.027000
20
-85.000000
30
0.0
11
24.027000
21
-83.000000
31
0.0
0
LINE
8
0
6
CONTINUOUS
10
24.675000
20
-85.000000
30
0.0
11
24.027000
21
-85.000000
31
0.0
0
LINE
8
0
6
CONTINUOUS
10
27.089000
20
-83.000000
30
0.0
11
27.089000
21
-85.000000
31
0.0
0
LINE
8
0
6
CONTINUOUS
10
24.675000
20
-83.000000
30
0.0
11
27.089000
21
-83.000000
31
0.0
0
LINE
8
0
6
CONTINUOUS
10
24.675000
20
-85.000000
30
0.0
11
24.675000
21
-83.000000
31
0.0
0
LINE
8
0
6
CONTINUOUS
10
27.089000
20
-85.000000
30
0.0
11
24.675000
21
-85.000000
31
0.0
0
LINE
8
0
6
CONTINUOUS
10
27.089000
20
-85.000000
30
0.0
11
27.089000
21
-83.000000
31
0.0
0
LINE
8
0
6
CONTINUOUS
10
28.880000
20
-83.000000
30
0.0
11
28.880000
21
-85.000000
31
0.0
0
LINE
8
0
6
CONTINUOUS
10
29.527000
20
-85.000000
30
0.0
11
31.943000
21
-85.000000
31
0.0
0
LINE
8
0
6
CONTINUOUS
10
28.880000
20
-85.000000
30
0.0
11
29.527000
21
-85.000000
31
0.0
0
LINE
8
0
6
CONTINUOUS
10
29.527000
20
-83.000000
30
0.0
11
29.527000
21
-85.000000
31
0.0
0
LINE
8
0
6
CONTINUOUS
10
28.880000
20
-83.000000
30
0.0
11
29.527000
21
-83.000000
31
0.0
0
LINE
8
0
6
CONTINUOUS
10
28.880000
20
-85.000000
30
0.0
11
28.880000
21
-83.000000
31
0.0
0
LINE
8
0
6
CONTINUOUS
10
29.527000
20
-85.000000
30
0.0
11
28.880000
21
-85.000000
31
0.0
0
LINE
8
0
6
CONTINUOUS
10
31.943000
20
-83.000000
30
0.0
11
31.943000
21
-85.000000
31
0.0
0
LINE
8
0
6
CONTINUOUS
10
29.527000
20
-83.000000
30
0.0
11
31.943000
21
-83.000000
31
0.0
0
LINE
8
0
6
CONTINUOUS
10
29.527000
20
-85.000000
30
0.0
11
29.527000
21
-83.000000
31
0.0
0
LINE
8
0
6
CONTINUOUS
10
31.943000
20
-85.000000
30
0.0
11
29.527000
21
-85.000000
31
0.0
0
LINE
8
0
6
CONTINUOUS
10
31.943000
20
-85.000000
30
0.0
11
31.943000
21
-83.000000
31
0.0
0
LINE
8
0
6
CONTINUOUS
10
33.734000
20
-83.000000
30
0.0
11
33.734000
21
-85.000000
31
0.0
0
LINE
8
0
6
CONTINUOUS
10
34.380000
20
-85.000000
30
0.0
11
36.795000
21
-85.000000
31
0.0
0
LINE
8
0
6
CONTINUOUS
10
33.734000
20
-85.000000
30
0.0
11
34.380000
21
-85.000000
31
0.0
0
LINE
8
0
6
CONTINUOUS
10
34.380000
20
-83.000000
30
0.0
11
34.380000
21
-85.000000
31
0.0
0
LINE
8
0
6
CONTINUOUS
10
33.734000
20
-83.000000
30
0.0
11
34.380000
21
-83.000000
31
0.0
0
LINE
8
0
6
CONTINUOUS
10
33.734000
20
-85.000000
30
0.0
11
33.734000
21
-83.000000
31
0.0
0
LINE
8
0
6
CONTINUOUS
10
34.380000
20
-85.000000
30
0.0
11
33.734000
21
-85.000000
31
0.0
0
LINE
8
0
6
CONTINUOUS
10
36.795000
20
-83.000000
30
0.0
11
36.795000
21
-85.000000
31
0.0
0
LINE
8
0
6
CONTINUOUS
10
34.380000
20
-83.000000
30
0.0
11
36.795000
21
-83.000000
31
0.0
0
LINE
8
0
6
CONTINUOUS
10
34.380000
20
-85.000000
30
0.0
11
34.380000
21
-83.000000
31
0.0
0
LINE
8
0
6
CONTINUOUS
10
36.795000
20
-85.000000
30
0.0
11
34.380000
21
-85.000000
31
0.0
0
LINE
8
0
6
CONTINUOUS
10
36.795000
20
-85.000000
30
0.0
11
36.795000
21
-83.000000
31
0.0
0
LINE
8
0
6
CONTINUOUS
10
57.042000
20
-83.000000
30
0.0
11
57.042000
21
-85.000000
31
0.0
0
LINE
8
0
6
CONTINUOUS
10
58.292000
20
-85.000000
30
0.0
11
60.458000
21
-85.000000
31
0.0
0
LINE
8
0
6
CONTINUOUS
10
57.042000
20
-85.000000
30
0.0
11
58.292000
21
-85.000000
31
0.0
0
LINE
8
0
6
CONTINUOUS
10
58.292000
20
-83.000000
30
0.0
11
58.292000
21
-85.000000
31
0.0
0
LINE
8
0
6
CONTINUOUS
10
57.042000
20
-85.000000
30
0.0
11
57.042000
21
-83.000000
31
0.0
0
LINE
8
0
6
CONTINUOUS
10
58.292000
20
-85.000000
30
0.0
11
57.042000
21
-85.000000
31
0.0
0
LINE
8
0
6
CONTINUOUS
10
60.458000
20
-83.000000
30
0.0
11
60.458000
21
-85.000000
31
0.0
0
LINE
8
0
6
CONTINUOUS
10
58.292000
20
-85.000000
30
0.0
11
58.292000
21
-83.000000
31
0.0
0
LINE
8
0
6
CONTINUOUS
10
60.458000
20
-85.000000
30
0.0
11
58.292000
21
-85.000000
31
0.0
0
LINE
8
0
6
CONTINUOUS
10
60.458000
20
-85.000000
30
0.0
11
60.458000
21
-83.000000
31
0.0
0
LINE
8
0
6
CONTINUOUS
10
13.583000
20
-83.000000
30
0.0
11
13.583000
21
-85.000000
31
0.0
0
LINE
8
0
6
CONTINUOUS
10
13.583000
20
-85.000000
30
0.0
11
13.583000
21
-83.000000
31
0.0
0
LINE
8
0
6
CONTINUOUS
10
9.469000
20
-83.000000
30
0.0
11
9.469000
21
-85.000000
31
0.0
0
LINE
8
0
6
CONTINUOUS
10
10.116000
20
-85.000000
30
0.0
11
12.531000
21
-85.000000
31
0.0
0
LINE
8
0
6
CONTINUOUS
10
9.469000
20
-85.000000
30
0.0
11
10.116000
21
-85.000000
31
0.0
0
LINE
8
0
6
CONTINUOUS
10
10.116000
20
-83.000000
30
0.0
11
10.116000
21
-85.000000
31
0.0
0
LINE
8
0
6
CONTINUOUS
10
9.469000
20
-85.000000
30
0.0
11
9.469000
21
-83.000000
31
0.0
0
LINE
8
0
6
CONTINUOUS
10
10.116000
20
-85.000000
30
0.0
11
9.469000
21
-85.000000
31
0.0
0
LINE
8
0
6
CONTINUOUS
10
12.531000
20
-83.000000
30
0.0
11
12.531000
21
-85.000000
31
0.0
0
LINE
8
0
6
CONTINUOUS
10
10.116000
20
-85.000000
30
0.0
11
10.116000
21
-83.000000
31
0.0
0
LINE
8
0
6
CONTINUOUS
10
12.531000
20
-85.000000
30
0.0
11
10.116000
21
-85.000000
31
0.0
0
LINE
8
0
6
CONTINUOUS
10
12.531000
20
-85.000000
30
0.0
11
12.531000
21
-83.000000
31
0.0
0
LINE
8
0
6
CONTINUOUS
10
14.321000
20
-83.000000
30
0.0
11
14.321000
21
-85.000000
31
0.0
0
LINE
8
0
6
CONTINUOUS
10
14.969000
20
-85.000000
30
0.0
11
17.384000
21
-85.000000
31
0.0
0
LINE
8
0
6
CONTINUOUS
10
14.321000
20
-85.000000
30
0.0
11
14.969000
21
-85.000000
31
0.0
0
LINE
8
0
6
CONTINUOUS
10
14.969000
20
-83.000000
30
0.0
11
14.969000
21
-85.000000
31
0.0
0
LINE
8
0
6
CONTINUOUS
10
14.321000
20
-85.000000
30
0.0
11
14.321000
21
-83.000000
31
0.0
0
LINE
8
0
6
CONTINUOUS
10
14.969000
20
-85.000000
30
0.0
11
14.321000
21
-85.000000
31
0.0
0
LINE
8
0
6
CONTINUOUS
10
17.384000
20
-83.000000
30
0.0
11
17.384000
21
-85.000000
31
0.0
0
LINE
8
0
6
CONTINUOUS
10
14.969000
20
-85.000000
30
0.0
11
14.969000
21
-83.000000
31
0.0
0
LINE
8
0
6
CONTINUOUS
10
17.384000
20
-85.000000
30
0.0
11
14.969000
21
-85.000000
31
0.0
0
LINE
8
0
6
CONTINUOUS
10
17.384000
20
-85.000000
30
0.0
11
17.384000
21
-83.000000
31
0.0
0
LINE
8
0
6
CONTINUOUS
10
4.616000
20
-83.000000
30
0.0
11
4.616000
21
-85.000000
31
0.0
0
LINE
8
0
6
CONTINUOUS
10
5.262000
20
-85.000000
30
0.0
11
7.678000
21
-85.000000
31
0.0
0
LINE
8
0
6
CONTINUOUS
10
4.616000
20
-85.000000
30
0.0
11
5.262000
21
-85.000000
31
0.0
0
LINE
8
0
6
CONTINUOUS
10
5.262000
20
-83.000000
30
0.0
11
5.262000
21
-85.000000
31
0.0
0
LINE
8
0
6
CONTINUOUS
10
4.616000
20
-85.000000
30
0.0
11
4.616000
21
-83.000000
31
0.0
0
LINE
8
0
6
CONTINUOUS
10
5.262000
20
-85.000000
30
0.0
11
4.616000
21
-85.000000
31
0.0
0
LINE
8
0
6
CONTINUOUS
10
7.678000
20
-83.000000
30
0.0
11
7.678000
21
-85.000000
31
0.0
0
LINE
8
0
6
CONTINUOUS
10
5.262000
20
-85.000000
30
0.0
11
5.262000
21
-83.000000
31
0.0
0
LINE
8
0
6
CONTINUOUS
10
7.678000
20
-85.000000
30
0.0
11
5.262000
21
-85.000000
31
0.0
0
LINE
8
0
6
CONTINUOUS
10
7.678000
20
-85.000000
30
0.0
11
7.678000
21
-83.000000
31
0.0
0
LINE
8
0
6
CONTINUOUS
10
-1.250000
20
-85.000000
30
0.0
11
1.250000
21
-85.000000
31
0.0
0
LINE
8
0
6
CONTINUOUS
10
-1.250000
20
-83.000000
30
0.0
11
-1.250000
21
-85.000000
31
0.0
0
LINE
8
0
6
CONTINUOUS
10
1.250000
20
-83.000000
30
0.0
11
1.250000
21
-85.000000
31
0.0
0
LINE
8
0
6
CONTINUOUS
10
-1.250000
20
-85.000000
30
0.0
11
-1.250000
21
-83.000000
31
0.0
0
LINE
8
0
6
CONTINUOUS
10
1.250000
20
-85.000000
30
0.0
11
-1.250000
21
-85.000000
31
0.0
0
LINE
8
0
6
CONTINUOUS
10
1.250000
20
-85.000000
30
0.0
11
1.250000
21
-83.000000
31
0.0
0
LINE
8
0
6
CONTINUOUS
10
-18.561000
20
-85.000000
30
0.0
11
-16.794000
21
-85.000000
31
0.0
0
LINE
8
0
6
CONTINUOUS
10
-18.561000
20
-83.000000
30
0.0
11
-18.561000
21
-85.000000
31
0.0
0
LINE
8
0
6
CONTINUOUS
10
-18.561000
20
-85.000000
30
0.0
11
-18.561000
21
-83.000000
31
0.0
0
LINE
8
0
6
CONTINUOUS
10
-16.794000
20
-85.000000
30
0.0
11
-18.561000
21
-85.000000
31
0.0
0
LINE
8
0
6
CONTINUOUS
10
-13.583000
20
-83.000000
30
0.0
11
-13.583000
21
-85.000000
31
0.0
0
LINE
8
0
6
CONTINUOUS
10
-13.583000
20
-85.000000
30
0.0
11
-13.583000
21
-83.000000
31
0.0
0
LINE
8
0
6
CONTINUOUS
10
-9.469000
20
-85.000000
30
0.0
11
-9.469000
21
-83.000000
31
0.0
0
LINE
8
0
6
CONTINUOUS
10
-12.531000
20
-85.000000
30
0.0
11
-10.116000
21
-85.000000
31
0.0
0
LINE
8
0
6
CONTINUOUS
10
-10.116000
20
-85.000000
30
0.0
11
-9.469000
21
-85.000000
31
0.0
0
LINE
8
0
6
CONTINUOUS
10
-12.531000
20
-83.000000
30
0.0
11
-12.531000
21
-85.000000
31
0.0
0
LINE
8
0
6
CONTINUOUS
10
-10.116000
20
-83.000000
30
0.0
11
-10.116000
21
-85.000000
31
0.0
0
LINE
8
0
6
CONTINUOUS
10
-12.531000
20
-85.000000
30
0.0
11
-12.531000
21
-83.000000
31
0.0
0
LINE
8
0
6
CONTINUOUS
10
-10.116000
20
-85.000000
30
0.0
11
-12.531000
21
-85.000000
31
0.0
0
LINE
8
0
6
CONTINUOUS
10
-9.469000
20
-83.000000
30
0.0
11
-9.469000
21
-85.000000
31
0.0
0
LINE
8
0
6
CONTINUOUS
10
-10.116000
20
-85.000000
30
0.0
11
-10.116000
21
-83.000000
31
0.0
0
LINE
8
0
6
CONTINUOUS
10
-9.469000
20
-85.000000
30
0.0
11
-10.116000
21
-85.000000
31
0.0
0
LINE
8
0
6
CONTINUOUS
10
-14.321000
20
-85.000000
30
0.0
11
-14.321000
21
-83.000000
31
0.0
0
LINE
8
0
6
CONTINUOUS
10
-17.384000
20
-85.000000
30
0.0
11
-14.969000
21
-85.000000
31
0.0
0
LINE
8
0
6
CONTINUOUS
10
-14.969000
20
-85.000000
30
0.0
11
-14.321000
21
-85.000000
31
0.0
0
LINE
8
0
6
CONTINUOUS
10
-17.384000
20
-83.000000
30
0.0
11
-17.384000
21
-85.000000
31
0.0
0
LINE
8
0
6
CONTINUOUS
10
-14.969000
20
-83.000000
30
0.0
11
-14.969000
21
-85.000000
31
0.0
0
LINE
8
0
6
CONTINUOUS
10
-17.384000
20
-85.000000
30
0.0
11
-17.384000
21
-83.000000
31
0.0
0
LINE
8
0
6
CONTINUOUS
10
-14.969000
20
-85.000000
30
0.0
11
-17.384000
21
-85.000000
31
0.0
0
LINE
8
0
6
CONTINUOUS
10
-14.321000
20
-83.000000
30
0.0
11
-14.321000
21
-85.000000
31
0.0
0
LINE
8
0
6
CONTINUOUS
10
-14.969000
20
-85.000000
30
0.0
11
-14.969000
21
-83.000000
31
0.0
0
LINE
8
0
6
CONTINUOUS
10
-14.321000
20
-85.000000
30
0.0
11
-14.969000
21
-85.000000
31
0.0
0
LINE
8
0
6
CONTINUOUS
10
-19.175000
20
-85.000000
30
0.0
11
-19.175000
21
-83.000000
31
0.0
0
LINE
8
0
6
CONTINUOUS
10
-22.236000
20
-85.000000
30
0.0
11
-19.821000
21
-85.000000
31
0.0
0
LINE
8
0
6
CONTINUOUS
10
-19.821000
20
-85.000000
30
0.0
11
-19.175000
21
-85.000000
31
0.0
0
LINE
8
0
6
CONTINUOUS
10
-22.236000
20
-83.000000
30
0.0
11
-22.236000
21
-85.000000
31
0.0
0
LINE
8
0
6
CONTINUOUS
10
-19.821000
20
-83.000000
30
0.0
11
-19.821000
21
-85.000000
31
0.0
0
LINE
8
0
6
CONTINUOUS
10
-22.236000
20
-85.000000
30
0.0
11
-22.236000
21
-83.000000
31
0.0
0
LINE
8
0
6
CONTINUOUS
10
-19.821000
20
-85.000000
30
0.0
11
-22.236000
21
-85.000000
31
0.0
0
LINE
8
0
6
CONTINUOUS
10
-19.175000
20
-83.000000
30
0.0
11
-19.175000
21
-85.000000
31
0.0
0
LINE
8
0
6
CONTINUOUS
10
-19.821000
20
-85.000000
30
0.0
11
-19.821000
21
-83.000000
31
0.0
0
LINE
8
0
6
CONTINUOUS
10
-19.175000
20
-85.000000
30
0.0
11
-19.821000
21
-85.000000
31
0.0
0
LINE
8
0
6
CONTINUOUS
10
-28.284000
20
-85.000000
30
0.0
11
-28.284000
21
-83.000000
31
0.0
0
LINE
8
0
6
CONTINUOUS
10
-28.284000
20
-83.000000
30
0.0
11
-28.284000
21
-85.000000
31
0.0
0
LINE
8
0
6
CONTINUOUS
10
-45.078000
20
-85.000000
30
0.0
11
-43.310000
21
-85.000000
31
0.0
0
LINE
8
0
6
CONTINUOUS
10
-43.310000
20
-85.000000
30
0.0
11
-41.543000
21
-85.000000
31
0.0
0
LINE
8
0
6
CONTINUOUS
10
-45.078000
20
-83.000000
30
0.0
11
-45.078000
21
-85.000000
31
0.0
0
LINE
8
0
6
CONTINUOUS
10
-43.310000
20
-83.000000
30
0.0
11
-43.310000
21
-85.000000
31
0.0
0
LINE
8
0
6
CONTINUOUS
10
-45.078000
20
-83.000000
30
0.0
11
-43.310000
21
-83.000000
31
0.0
0
LINE
8
0
6
CONTINUOUS
10
-45.078000
20
-85.000000
30
0.0
11
-45.078000
21
-83.000000
31
0.0
0
LINE
8
0
6
CONTINUOUS
10
-43.310000
20
-85.000000
30
0.0
11
-45.078000
21
-85.000000
31
0.0
0
LINE
8
0
6
CONTINUOUS
10
-43.310000
20
-83.000000
30
0.0
11
-41.543000
21
-83.000000
31
0.0
0
LINE
8
0
6
CONTINUOUS
10
-43.310000
20
-85.000000
30
0.0
11
-43.310000
21
-83.000000
31
0.0
0
LINE
8
0
6
CONTINUOUS
10
-41.543000
20
-85.000000
30
0.0
11
-43.310000
21
-85.000000
31
0.0
0
LINE
8
0
6
CONTINUOUS
10
-38.293000
20
-85.000000
30
0.0
11
-38.293000
21
-83.000000
31
0.0
0
LINE
8
0
6
CONTINUOUS
10
-41.707000
20
-85.000000
30
0.0
11
-39.543000
21
-85.000000
31
0.0
0
LINE
8
0
6
CONTINUOUS
10
-39.543000
20
-85.000000
30
0.0
11
-38.293000
21
-85.000000
31
0.0
0
LINE
8
0
6
CONTINUOUS
10
-41.707000
20
-83.000000
30
0.0
11
-41.707000
21
-85.000000
31
0.0
0
LINE
8
0
6
CONTINUOUS
10
-39.543000
20
-83.000000
30
0.0
11
-39.543000
21
-85.000000
31
0.0
0
LINE
8
0
6
CONTINUOUS
10
-41.707000
20
-83.000000
30
0.0
11
-39.543000
21
-83.000000
31
0.0
0
LINE
8
0
6
CONTINUOUS
10
-41.707000
20
-85.000000
30
0.0
11
-41.707000
21
-83.000000
31
0.0
0
LINE
8
0
6
CONTINUOUS
10
-39.543000
20
-85.000000
30
0.0
11
-41.707000
21
-85.000000
31
0.0
0
LINE
8
0
6
CONTINUOUS
10
-38.293000
20
-83.000000
30
0.0
11
-38.293000
21
-85.000000
31
0.0
0
LINE
8
0
6
CONTINUOUS
10
-39.543000
20
-85.000000
30
0.0
11
-39.543000
21
-83.000000
31
0.0
0
LINE
8
0
6
CONTINUOUS
10
-38.293000
20
-85.000000
30
0.0
11
-39.543000
21
-85.000000
31
0.0
0
LINE
8
0
6
CONTINUOUS
10
-54.800800
20
-85.000000
30
0.0
11
-54.800800
21
-83.000000
31
0.0
0
LINE
8
0
6
CONTINUOUS
10
-56.568500
20
-85.000000
30
0.0
11
-54.800800
21
-85.000000
31
0.0
0
LINE
8
0
6
CONTINUOUS
10
-56.568500
20
-83.000000
30
0.0
11
-56.568500
21
-85.000000
31
0.0
0
LINE
8
0
6
CONTINUOUS
10
-54.800800
20
-83.000000
30
0.0
11
-54.800800
21
-85.000000
31
0.0
0
LINE
8
0
6
CONTINUOUS
10
-56.568500
20
-83.000000
30
0.0
11
-54.800800
21
-83.000000
31
0.0
0
LINE
8
0
6
CONTINUOUS
10
-56.568500
20
-85.000000
30
0.0
11
-56.568500
21
-83.000000
31
0.0
0
LINE
8
0
6
CONTINUOUS
10
-54.800800
20
-85.000000
30
0.0
11
-56.568500
21
-85.000000
31
0.0
0
LINE
8
0
6
CONTINUOUS
10
-32.332000
20
-83.000000
30
0.0
11
-32.332000
21
-85.000000
31
0.0
0
LINE
8
0
6
CONTINUOUS
10
-32.332000
20
-85.000000
30
0.0
11
-32.332000
21
-83.000000
31
0.0
0
LINE
8
0
6
CONTINUOUS
10
-22.957000
20
-83.000000
30
0.0
11
-22.957000
21
-85.000000
31
0.0
0
LINE
8
0
6
CONTINUOUS
10
-22.957000
20
-85.000000
30
0.0
11
-22.957000
21
-83.000000
31
0.0
0
LINE
8
0
6
CONTINUOUS
10
-4.616000
20
-85.000000
30
0.0
11
-4.616000
21
-83.000000
31
0.0
0
LINE
8
0
6
CONTINUOUS
10
-7.678000
20
-85.000000
30
0.0
11
-5.262000
21
-85.000000
31
0.0
0
LINE
8
0
6
CONTINUOUS
10
-5.262000
20
-85.000000
30
0.0
11
-4.616000
21
-85.000000
31
0.0
0
LINE
8
0
6
CONTINUOUS
10
-7.678000
20
-83.000000
30
0.0
11
-7.678000
21
-85.000000
31
0.0
0
LINE
8
0
6
CONTINUOUS
10
-5.262000
20
-83.000000
30
0.0
11
-5.262000
21
-85.000000
31
0.0
0
LINE
8
0
6
CONTINUOUS
10
-7.678000
20
-85.000000
30
0.0
11
-7.678000
21
-83.000000
31
0.0
0
LINE
8
0
6
CONTINUOUS
10
-5.262000
20
-85.000000
30
0.0
11
-7.678000
21
-85.000000
31
0.0
0
LINE
8
0
6
CONTINUOUS
10
-4.616000
20
-83.000000
30
0.0
11
-4.616000
21
-85.000000
31
0.0
0
LINE
8
0
6
CONTINUOUS
10
-5.262000
20
-85.000000
30
0.0
11
-5.262000
21
-83.000000
31
0.0
0
LINE
8
0
6
CONTINUOUS
10
-4.616000
20
-85.000000
30
0.0
11
-5.262000
21
-85.000000
31
0.0
0
LINE
8
0
6
CONTINUOUS
10
-71.594600
20
-85.000000
30
0.0
11
-69.826800
21
-85.000000
31
0.0
0
LINE
8
0
6
CONTINUOUS
10
-71.594600
20
-83.000000
30
0.0
11
-71.594600
21
-85.000000
31
0.0
0
LINE
8
0
6
CONTINUOUS
10
-71.594600
20
-85.000000
30
0.0
11
-71.594600
21
-83.000000
31
0.0
0
LINE
8
0
6
CONTINUOUS
10
-69.826800
20
-85.000000
30
0.0
11
-71.594600
21
-85.000000
31
0.0
0
LINE
8
0
6
CONTINUOUS
10
-24.027000
20
-85.000000
30
0.0
11
-24.027000
21
-83.000000
31
0.0
0
LINE
8
0
6
CONTINUOUS
10
-27.089000
20
-85.000000
30
0.0
11
-24.675000
21
-85.000000
31
0.0
0
LINE
8
0
6
CONTINUOUS
10
-24.675000
20
-85.000000
30
0.0
11
-24.027000
21
-85.000000
31
0.0
0
LINE
8
0
6
CONTINUOUS
10
-27.089000
20
-83.000000
30
0.0
11
-27.089000
21
-85.000000
31
0.0
0
LINE
8
0
6
CONTINUOUS
10
-24.675000
20
-83.000000
30
0.0
11
-24.675000
21
-85.000000
31
0.0
0
LINE
8
0
6
CONTINUOUS
10
-27.089000
20
-85.000000
30
0.0
11
-27.089000
21
-83.000000
31
0.0
0
LINE
8
0
6
CONTINUOUS
10
-24.675000
20
-85.000000
30
0.0
11
-27.089000
21
-85.000000
31
0.0
0
LINE
8
0
6
CONTINUOUS
10
-24.027000
20
-83.000000
30
0.0
11
-24.027000
21
-85.000000
31
0.0
0
LINE
8
0
6
CONTINUOUS
10
-24.675000
20
-85.000000
30
0.0
11
-24.675000
21
-83.000000
31
0.0
0
LINE
8
0
6
CONTINUOUS
10
-24.027000
20
-85.000000
30
0.0
11
-24.675000
21
-85.000000
31
0.0
0
LINE
8
0
6
CONTINUOUS
10
-47.668000
20
-85.000000
30
0.0
11
-47.668000
21
-83.000000
31
0.0
0
LINE
8
0
6
CONTINUOUS
10
-51.082500
20
-85.000000
30
0.0
11
-48.918000
21
-85.000000
31
0.0
0
LINE
8
0
6
CONTINUOUS
10
-48.918000
20
-85.000000
30
0.0
11
-47.668000
21
-85.000000
31
0.0
0
LINE
8
0
6
CONTINUOUS
10
-51.082500
20
-83.000000
30
0.0
11
-51.082500
21
-85.000000
31
0.0
0
LINE
8
0
6
CONTINUOUS
10
-48.918000
20
-83.000000
30
0.0
11
-48.918000
21
-85.000000
31
0.0
0
LINE
8
0
6
CONTINUOUS
10
-51.082500
20
-83.000000
30
0.0
11
-48.918000
21
-83.000000
31
0.0
0
LINE
8
0
6
CONTINUOUS
10
-51.082500
20
-85.000000
30
0.0
11
-51.082500
21
-83.000000
31
0.0
0
LINE
8
0
6
CONTINUOUS
10
-48.918000
20
-85.000000
30
0.0
11
-51.082500
21
-85.000000
31
0.0
0
LINE
8
0
6
CONTINUOUS
10
-47.668000
20
-83.000000
30
0.0
11
-47.668000
21
-85.000000
31
0.0
0
LINE
8
0
6
CONTINUOUS
10
-48.918000
20
-83.000000
30
0.0
11
-47.668000
21
-83.000000
31
0.0
0
LINE
8
0
6
CONTINUOUS
10
-48.918000
20
-85.000000
30
0.0
11
-48.918000
21
-83.000000
31
0.0
0
LINE
8
0
6
CONTINUOUS
10
-47.668000
20
-85.000000
30
0.0
11
-48.918000
21
-85.000000
31
0.0
0
LINE
8
0
6
CONTINUOUS
10
-57.042500
20
-85.000000
30
0.0
11
-57.042500
21
-83.000000
31
0.0
0
LINE
8
0
6
CONTINUOUS
10
-60.457500
20
-85.000000
30
0.0
11
-58.292500
21
-85.000000
31
0.0
0
LINE
8
0
6
CONTINUOUS
10
-58.292500
20
-85.000000
30
0.0
11
-57.042500
21
-85.000000
31
0.0
0
LINE
8
0
6
CONTINUOUS
10
-60.457500
20
-83.000000
30
0.0
11
-60.457500
21
-85.000000
31
0.0
0
LINE
8
0
6
CONTINUOUS
10
-58.292500
20
-83.000000
30
0.0
11
-58.292500
21
-85.000000
31
0.0
0
LINE
8
0
6
CONTINUOUS
10
-60.457500
20
-85.000000
30
0.0
11
-60.457500
21
-83.000000
31
0.0
0
LINE
8
0
6
CONTINUOUS
10
-58.292500
20
-85.000000
30
0.0
11
-60.457500
21
-85.000000
31
0.0
0
LINE
8
0
6
CONTINUOUS
10
-57.042500
20
-83.000000
30
0.0
11
-57.042500
21
-85.000000
31
0.0
0
LINE
8
0
6
CONTINUOUS
10
-58.292500
20
-85.000000
30
0.0
11
-58.292500
21
-83.000000
31
0.0
0
LINE
8
0
6
CONTINUOUS
10
-57.042500
20
-85.000000
30
0.0
11
-58.292500
21
-85.000000
31
0.0
0
LINE
8
0
6
CONTINUOUS
10
-28.880000
20
-85.000000
30
0.0
11
-28.880000
21
-83.000000
31
0.0
0
LINE
8
0
6
CONTINUOUS
10
-31.942000
20
-85.000000
30
0.0
11
-29.527000
21
-85.000000
31
0.0
0
LINE
8
0
6
CONTINUOUS
10
-29.527000
20
-85.000000
30
0.0
11
-28.880000
21
-85.000000
31
0.0
0
LINE
8
0
6
CONTINUOUS
10
-31.942000
20
-83.000000
30
0.0
11
-31.942000
21
-85.000000
31
0.0
0
LINE
8
0
6
CONTINUOUS
10
-29.527000
20
-83.000000
30
0.0
11
-29.527000
21
-85.000000
31
0.0
0
LINE
8
0
6
CONTINUOUS
10
-31.942000
20
-85.000000
30
0.0
11
-31.942000
21
-83.000000
31
0.0
0
LINE
8
0
6
CONTINUOUS
10
-29.527000
20
-85.000000
30
0.0
11
-31.942000
21
-85.000000
31
0.0
0
LINE
8
0
6
CONTINUOUS
10
-28.880000
20
-83.000000
30
0.0
11
-28.880000
21
-85.000000
31
0.0
0
LINE
8
0
6
CONTINUOUS
10
-29.527000
20
-85.000000
30
0.0
11
-29.527000
21
-83.000000
31
0.0
0
LINE
8
0
6
CONTINUOUS
10
-28.880000
20
-85.000000
30
0.0
11
-29.527000
21
-85.000000
31
0.0
0
LINE
8
0
6
CONTINUOUS
10
-33.733000
20
-85.000000
30
0.0
11
-33.733000
21
-83.000000
31
0.0
0
LINE
8
0
6
CONTINUOUS
10
-36.795000
20
-85.000000
30
0.0
11
-34.380000
21
-85.000000
31
0.0
0
LINE
8
0
6
CONTINUOUS
10
-34.380000
20
-85.000000
30
0.0
11
-33.733000
21
-85.000000
31
0.0
0
LINE
8
0
6
CONTINUOUS
10
-36.795000
20
-83.000000
30
0.0
11
-36.795000
21
-85.000000
31
0.0
0
LINE
8
0
6
CONTINUOUS
10
-34.380000
20
-83.000000
30
0.0
11
-34.380000
21
-85.000000
31
0.0
0
LINE
8
0
6
CONTINUOUS
10
-36.795000
20
-85.000000
30
0.0
11
-36.795000
21
-83.000000
31
0.0
0
LINE
8
0
6
CONTINUOUS
10
-34.380000
20
-85.000000
30
0.0
11
-36.795000
21
-85.000000
31
0.0
0
LINE
8
0
6
CONTINUOUS
10
-33.733000
20
-83.000000
30
0.0
11
-33.733000
21
-85.000000
31
0.0
0
LINE
8
0
6
CONTINUOUS
10
-34.380000
20
-85.000000
30
0.0
11
-34.380000
21
-83.000000
31
0.0
0
LINE
8
0
6
CONTINUOUS
10
-33.733000
20
-85.000000
30
0.0
11
-34.380000
21
-85.000000
31
0.0
0
LINE
8
0
6
CONTINUOUS
10
-94.575500
20
-85.000000
30
0.0
11
-94.575500
21
-83.000000
31
0.0
0
LINE
8
0
6
CONTINUOUS
10
-98.111100
20
-85.000000
30
0.0
11
-96.343300
21
-85.000000
31
0.0
0
LINE
8
0
6
CONTINUOUS
10
-96.343300
20
-85.000000
30
0.0
11
-94.575500
21
-85.000000
31
0.0
0
LINE
8
0
6
CONTINUOUS
10
-98.111100
20
-83.000000
30
0.0
11
-98.111100
21
-85.000000
31
0.0
0
LINE
8
0
6
CONTINUOUS
10
-96.343300
20
-83.000000
30
0.0
11
-96.343300
21
-85.000000
31
0.0
0
LINE
8
0
6
CONTINUOUS
10
-98.111100
20
-85.000000
30
0.0
11
-98.111100
21
-83.000000
31
0.0
0
LINE
8
0
6
CONTINUOUS
10
-96.343300
20
-85.000000
30
0.0
11
-98.111100
21
-85.000000
31
0.0
0
LINE
8
0
6
CONTINUOUS
10
-94.575500
20
-83.000000
30
0.0
11
-94.575500
21
-85.000000
31
0.0
0
LINE
8
0
6
CONTINUOUS
10
-96.343300
20
-85.000000
30
0.0
11
-96.343300
21
-83.000000
31
0.0
0
LINE
8
0
6
CONTINUOUS
10
-94.575500
20
-85.000000
30
0.0
11
-96.343300
21
-85.000000
31
0.0
0
LINE
8
0
6
CONTINUOUS
10
-81.317300
20
-85.000000
30
0.0
11
-81.317300
21
-83.000000
31
0.0
0
LINE
8
0
6
CONTINUOUS
10
-84.852900
20
-85.000000
30
0.0
11
-83.085000
21
-85.000000
31
0.0
0
LINE
8
0
6
CONTINUOUS
10
-83.085000
20
-85.000000
30
0.0
11
-81.317300
21
-85.000000
31
0.0
0
LINE
8
0
6
CONTINUOUS
10
-84.852900
20
-83.000000
30
0.0
11
-84.852900
21
-85.000000
31
0.0
0
LINE
8
0
6
CONTINUOUS
10
-83.085000
20
-83.000000
30
0.0
11
-83.085000
21
-85.000000
31
0.0
0
LINE
8
0
6
CONTINUOUS
10
-84.852900
20
-85.000000
30
0.0
11
-84.852900
21
-83.000000
31
0.0
0
LINE
8
0
6
CONTINUOUS
10
-83.085000
20
-85.000000
30
0.0
11
-84.852900
21
-85.000000
31
0.0
0
LINE
8
0
6
CONTINUOUS
10
-81.317300
20
-83.000000
30
0.0
11
-81.317300
21
-85.000000
31
0.0
0
LINE
8
0
6
CONTINUOUS
10
-83.085000
20
-85.000000
30
0.0
11
-83.085000
21
-83.000000
31
0.0
0
LINE
8
0
6
CONTINUOUS
10
-81.317300
20
-85.000000
30
0.0
11
-83.085000
21
-85.000000
31
0.0
0
LINE
8
0
6
CONTINUOUS
10
-66.417500
20
-85.000000
30
0.0
11
-66.417500
21
-83.000000
31
0.0
0
LINE
8
0
6
CONTINUOUS
10
-69.832500
20
-85.000000
30
0.0
11
-67.667500
21
-85.000000
31
0.0
0
LINE
8
0
6
CONTINUOUS
10
-67.667500
20
-85.000000
30
0.0
11
-66.417500
21
-85.000000
31
0.0
0
LINE
8
0
6
CONTINUOUS
10
-69.832500
20
-83.000000
30
0.0
11
-69.832500
21
-85.000000
31
0.0
0
LINE
8
0
6
CONTINUOUS
10
-67.667500
20
-83.000000
30
0.0
11
-67.667500
21
-85.000000
31
0.0
0
LINE
8
0
6
CONTINUOUS
10
-69.832500
20
-85.000000
30
0.0
11
-69.832500
21
-83.000000
31
0.0
0
LINE
8
0
6
CONTINUOUS
10
-67.667500
20
-85.000000
30
0.0
11
-69.832500
21
-85.000000
31
0.0
0
LINE
8
0
6
CONTINUOUS
10
-66.417500
20
-83.000000
30
0.0
11
-66.417500
21
-85.000000
31
0.0
0
LINE
8
0
6
CONTINUOUS
10
-67.667500
20
-85.000000
30
0.0
11
-67.667500
21
-83.000000
31
0.0
0
LINE
8
0
6
CONTINUOUS
10
-66.417500
20
-85.000000
30
0.0
11
-67.667500
21
-85.000000
31
0.0
0
LINE
8
0
6
CONTINUOUS
10
-18.860000
20
-85.000000
30
0.0
11
-18.860000
21
-83.000000
31
0.0
0
LINE
8
0
6
CONTINUOUS
10
-18.860000
20
-83.000000
30
0.0
11
-18.860000
21
-85.000000
31
0.0
0
LINE
8
0
6
CONTINUOUS
10
-51.336500
20
-85.000000
30
0.0
11
-51.336500
21
-83.000000
31
0.0
0
LINE
8
0
6
CONTINUOUS
10
-54.751600
20
-85.000000
30
0.0
11
-53.501600
21
-85.000000
31
0.0
0
LINE
8
0
6
CONTINUOUS
10
-53.501600
20
-85.000000
30
0.0
11
-51.336500
21
-85.000000
31
0.0
0
LINE
8
0
6
CONTINUOUS
10
-54.751600
20
-83.000000
30
0.0
11
-54.751600
21
-85.000000
31
0.0
0
LINE
8
0
6
CONTINUOUS
10
-53.501600
20
-83.000000
30
0.0
11
-53.501600
21
-85.000000
31
0.0
0
LINE
8
0
6
CONTINUOUS
10
-54.751600
20
-83.000000
30
0.0
11
-53.501600
21
-83.000000
31
0.0
0
LINE
8
0
6
CONTINUOUS
10
-54.751600
20
-85.000000
30
0.0
11
-54.751600
21
-83.000000
31
0.0
0
LINE
8
0
6
CONTINUOUS
10
-53.501600
20
-85.000000
30
0.0
11
-54.751600
21
-85.000000
31
0.0
0
LINE
8
0
6
CONTINUOUS
10
-51.336500
20
-83.000000
30
0.0
11
-51.336500
21
-85.000000
31
0.0
0
LINE
8
0
6
CONTINUOUS
10
-53.501600
20
-83.000000
30
0.0
11
-51.336500
21
-83.000000
31
0.0
0
LINE
8
0
6
CONTINUOUS
10
-53.501600
20
-85.000000
30
0.0
11
-53.501600
21
-83.000000
31
0.0
0
LINE
8
0
6
CONTINUOUS
10
-51.336500
20
-85.000000
30
0.0
11
-53.501600
21
-85.000000
31
0.0
0
LINE
8
0
6
CONTINUOUS
10
-38.514000
20
-85.000000
30
0.0
11
-37.264000
21
-85.000000
31
0.0
0
LINE
8
0
6
CONTINUOUS
10
-37.264000
20
-83.000000
30
0.0
11
-37.264000
21
-85.000000
31
0.0
0
LINE
8
0
6
CONTINUOUS
10
-37.264000
20
-85.000000
30
0.0
11
-38.514000
21
-85.000000
31
0.0
0
LINE
8
0
6
CONTINUOUS
10
-37.264000
20
-85.000000
30
0.0
11
-37.264000
21
-83.000000
31
0.0
0
LINE
8
0
6
CONTINUOUS
10
-87.227500
20
-85.000000
30
0.0
11
-85.977500
21
-85.000000
31
0.0
0
LINE
8
0
6
CONTINUOUS
10
-85.977500
20
-85.000000
30
0.0
11
-83.812500
21
-85.000000
31
0.0
0
LINE
8
0
6
CONTINUOUS
10
-87.227500
20
-83.000000
30
0.0
11
-87.227500
21
-85.000000
31
0.0
0
LINE
8
0
6
CONTINUOUS
10
-85.977500
20
-83.000000
30
0.0
11
-85.977500
21
-85.000000
31
0.0
0
LINE
8
0
6
CONTINUOUS
10
-87.227500
20
-85.000000
30
0.0
11
-87.227500
21
-83.000000
31
0.0
0
LINE
8
0
6
CONTINUOUS
10
-85.977500
20
-85.000000
30
0.0
11
-87.227500
21
-85.000000
31
0.0
0
LINE
8
0
6
CONTINUOUS
10
-85.977500
20
-85.000000
30
0.0
11
-85.977500
21
-83.000000
31
0.0
0
LINE
8
0
6
CONTINUOUS
10
-83.812500
20
-85.000000
30
0.0
11
-85.977500
21
-85.000000
31
0.0
0
LINE
8
0
6
CONTINUOUS
10
-100.050500
20
-85.000000
30
0.0
11
-100.050500
21
-83.000000
31
0.0
0
LINE
8
0
6
CONTINUOUS
10
-103.465500
20
-85.000000
30
0.0
11
-102.215500
21
-85.000000
31
0.0
0
LINE
8
0
6
CONTINUOUS
10
-102.215500
20
-85.000000
30
0.0
11
-100.050500
21
-85.000000
31
0.0
0
LINE
8
0
6
CONTINUOUS
10
-103.465500
20
-83.000000
30
0.0
11
-103.465500
21
-85.000000
31
0.0
0
LINE
8
0
6
CONTINUOUS
10
-102.215500
20
-83.000000
30
0.0
11
-102.215500
21
-85.000000
31
0.0
0
LINE
8
0
6
CONTINUOUS
10
-103.465500
20
-85.000000
30
0.0
11
-103.465500
21
-83.000000
31
0.0
0
LINE
8
0
6
CONTINUOUS
10
-102.215500
20
-85.000000
30
0.0
11
-103.465500
21
-85.000000
31
0.0
0
LINE
8
0
6
CONTINUOUS
10
-100.050500
20
-83.000000
30
0.0
11
-100.050500
21
-85.000000
31
0.0
0
LINE
8
0
6
CONTINUOUS
10
-102.215500
20
-85.000000
30
0.0
11
-102.215500
21
-83.000000
31
0.0
0
LINE
8
0
6
CONTINUOUS
10
-100.050500
20
-85.000000
30
0.0
11
-102.215500
21
-85.000000
31
0.0
0
LINE
8
0
6
CONTINUOUS
10
-116.288400
20
-85.000000
30
0.0
11
-116.288400
21
-83.000000
31
0.0
0
LINE
8
0
6
CONTINUOUS
10
-119.703500
20
-85.000000
30
0.0
11
-118.453500
21
-85.000000
31
0.0
0
LINE
8
0
6
CONTINUOUS
10
-118.453500
20
-85.000000
30
0.0
11
-116.288400
21
-85.000000
31
0.0
0
LINE
8
0
6
CONTINUOUS
10
-119.703500
20
-83.000000
30
0.0
11
-119.703500
21
-85.000000
31
0.0
0
LINE
8
0
6
CONTINUOUS
10
-118.453500
20
-83.000000
30
0.0
11
-118.453500
21
-85.000000
31
0.0
0
LINE
8
0
6
CONTINUOUS
10
-119.703500
20
-85.000000
30
0.0
11
-119.703500
21
-83.000000
31
0.0
0
LINE
8
0
6
CONTINUOUS
10
-118.453500
20
-85.000000
30
0.0
11
-119.703500
21
-85.000000
31
0.0
0
LINE
8
0
6
CONTINUOUS
10
-116.288400
20
-83.000000
30
0.0
11
-116.288400
21
-85.000000
31
0.0
0
LINE
8
0
6
CONTINUOUS
10
-118.453500
20
-85.000000
30
0.0
11
-118.453500
21
-83.000000
31
0.0
0
LINE
8
0
6
CONTINUOUS
10
-116.288400
20
-85.000000
30
0.0
11
-118.453500
21
-85.000000
31
0.0
0
LINE
8
0
6
CONTINUOUS
10
-23.825000
20
-83.000000
30
0.0
11
-23.825000
21
-85.000000
31
0.0
0
LINE
8
0
6
CONTINUOUS
10
-23.825000
20
-85.000000
30
0.0
11
-23.825000
21
-83.000000
31
0.0
0
LINE
8
0
6
CONTINUOUS
10
-60.693900
20
-83.000000
30
0.0
11
-60.693900
21
-85.000000
31
0.0
0
LINE
8
0
6
CONTINUOUS
10
-60.693900
20
-85.000000
30
0.0
11
-60.693900
21
-83.000000
31
0.0
0
LINE
8
0
6
CONTINUOUS
10
-75.743100
20
-85.000000
30
0.0
11
-75.743100
21
-83.000000
31
0.0
0
LINE
8
0
6
CONTINUOUS
10
-78.805000
20
-85.000000
30
0.0
11
-78.158000
21
-85.000000
31
0.0
0
LINE
8
0
6
CONTINUOUS
10
-78.158000
20
-85.000000
30
0.0
11
-75.743100
21
-85.000000
31
0.0
0
LINE
8
0
6
CONTINUOUS
10
-78.805000
20
-83.000000
30
0.0
11
-78.805000
21
-85.000000
31
0.0
0
LINE
8
0
6
CONTINUOUS
10
-78.158000
20
-83.000000
30
0.0
11
-78.158000
21
-85.000000
31
0.0
0
LINE
8
0
6
CONTINUOUS
10
-78.805000
20
-85.000000
30
0.0
11
-78.805000
21
-83.000000
31
0.0
0
LINE
8
0
6
CONTINUOUS
10
-78.158000
20
-85.000000
30
0.0
11
-78.805000
21
-85.000000
31
0.0
0
LINE
8
0
6
CONTINUOUS
10
-75.743100
20
-83.000000
30
0.0
11
-75.743100
21
-85.000000
31
0.0
0
LINE
8
0
6
CONTINUOUS
10
-78.158000
20
-85.000000
30
0.0
11
-78.158000
21
-83.000000
31
0.0
0
LINE
8
0
6
CONTINUOUS
10
-75.743100
20
-85.000000
30
0.0
11
-78.158000
21
-85.000000
31
0.0
0
LINE
8
0
6
CONTINUOUS
10
-93.854300
20
-85.000000
30
0.0
11
-93.854300
21
-83.000000
31
0.0
0
LINE
8
0
6
CONTINUOUS
10
-93.854300
20
-83.000000
30
0.0
11
-93.854300
21
-85.000000
31
0.0
0
LINE
8
0
6
CONTINUOUS
10
-111.965400
20
-85.000000
30
0.0
11
-111.965400
21
-83.000000
31
0.0
0
LINE
8
0
6
CONTINUOUS
10
-115.027200
20
-85.000000
30
0.0
11
-114.380100
21
-85.000000
31
0.0
0
LINE
8
0
6
CONTINUOUS
10
-114.380100
20
-85.000000
30
0.0
11
-111.965400
21
-85.000000
31
0.0
0
LINE
8
0
6
CONTINUOUS
10
-115.027200
20
-83.000000
30
0.0
11
-115.027200
21
-85.000000
31
0.0
0
LINE
8
0
6
CONTINUOUS
10
-114.380100
20
-83.000000
30
0.0
11
-114.380100
21
-85.000000
31
0.0
0
LINE
8
0
6
CONTINUOUS
10
-115.027200
20
-85.000000
30
0.0
11
-115.027200
21
-83.000000
31
0.0
0
LINE
8
0
6
CONTINUOUS
10
-114.380100
20
-85.000000
30
0.0
11
-115.027200
21
-85.000000
31
0.0
0
LINE
8
0
6
CONTINUOUS
10
-111.965400
20
-83.000000
30
0.0
11
-111.965400
21
-85.000000
31
0.0
0
LINE
8
0
6
CONTINUOUS
10
-114.380100
20
-85.000000
30
0.0
11
-114.380100
21
-83.000000
31
0.0
0
LINE
8
0
6
CONTINUOUS
10
-111.965400
20
-85.000000
30
0.0
11
-114.380100
21
-85.000000
31
0.0
0
LINE
8
0
6
CONTINUOUS
10
-130.076500
20
-85.000000
30
0.0
11
-130.076500
21
-83.000000
31
0.0
0
LINE
8
0
6
CONTINUOUS
10
-133.138400
20
-85.000000
30
0.0
11
-132.491200
21
-85.000000
31
0.0
0
LINE
8
0
6
CONTINUOUS
10
-132.491200
20
-85.000000
30
0.0
11
-130.076500
21
-85.000000
31
0.0
0
LINE
8
0
6
CONTINUOUS
10
-133.138400
20
-83.000000
30
0.0
11
-133.138400
21
-85.000000
31
0.0
0
LINE
8
0
6
CONTINUOUS
10
-132.491200
20
-83.000000
30
0.0
11
-132.491200
21
-85.000000
31
0.0
0
LINE
8
0
6
CONTINUOUS
10
-133.138400
20
-85.000000
30
0.0
11
-133.138400
21
-83.000000
31
0.0
0
LINE
8
0
6
CONTINUOUS
10
-132.491200
20
-85.000000
30
0.0
11
-133.138400
21
-85.000000
31
0.0
0
LINE
8
0
6
CONTINUOUS
10
-130.076500
20
-83.000000
30
0.0
11
-130.076500
21
-85.000000
31
0.0
0
LINE
8
0
6
CONTINUOUS
10
-132.491200
20
-85.000000
30
0.0
11
-132.491200
21
-83.000000
31
0.0
0
LINE
8
0
6
CONTINUOUS
10
-130.076500
20
-85.000000
30
0.0
11
-132.491200
21
-85.000000
31
0.0
0
LINE
8
0
6
CONTINUOUS
10
116.250000
20
-85.000000
30
0.0
11
116.250000
21
-83.000000
31
0.0
0
LINE
8
0
6
CONTINUOUS
10
116.250000
20
-83.000000
30
0.0
11
116.250000
21
-85.000000
31
0.0
0
LINE
8
0
6
CONTINUOUS
10
135.000000
20
-85.000000
30
0.0
11
135.000000
21
-83.000000
31
0.0
0
LINE
8
0
6
CONTINUOUS
10
137.500000
20
-85.000000
30
0.0
11
135.000000
21
-85.000000
31
0.0
0
LINE
8
0
6
CONTINUOUS
10
137.500000
20
-83.000000
30
0.0
11
137.500000
21
-85.000000
31
0.0
0
LINE
8
0
6
CONTINUOUS
10
135.000000
20
-83.000000
30
0.0
11
135.000000
21
-85.000000
31
0.0
0
LINE
8
0
6
CONTINUOUS
10
137.500000
20
-85.000000
30
0.0
11
137.500000
21
-83.000000
31
0.0
0
LINE
8
0
6
CONTINUOUS
10
135.000000
20
-85.000000
30
0.0
11
137.500000
21
-85.000000
31
0.0
0
LINE
8
0
6
CONTINUOUS
10
-135.000000
20
-85.000000
30
0.0
11
-135.000000
21
-83.000000
31
0.0
0
LINE
8
0
6
CONTINUOUS
10
-137.500000
20
-85.000000
30
0.0
11
-135.000000
21
-85.000000
31
0.0
0
LINE
8
0
6
CONTINUOUS
10
-137.500000
20
-83.000000
30
0.0
11
-137.500000
21
-85.000000
31
0.0
0
LINE
8
0
6
CONTINUOUS
10
-135.000000
20
-83.000000
30
0.0
11
-135.000000
21
-85.000000
31
0.0
0
LINE
8
0
6
CONTINUOUS
10
-137.500000
20
-85.000000
30
0.0
11
-137.500000
21
-83.000000
31
0.0
0
LINE
8
0
6
CONTINUOUS
10
-135.000000
20
-85.000000
30
0.0
11
-137.500000
21
-85.000000
31
0.0
0
LINE
8
0
6
CONTINUOUS
10
-116.250000
20
-85.000000
30
0.0
11
-116.250000
21
-83.000000
31
0.0
0
LINE
8
0
6
CONTINUOUS
10
-116.250000
20
-83.000000
30
0.0
11
-116.250000
21
-85.000000
31
0.0
0
LINE
8
0
6
CONTINUOUS
10
62.500000
20
-85.000000
30
0.0
11
60.000000
21
-85.000000
31
0.0
0
LINE
8
0
6
CONTINUOUS
10
62.500000
20
-83.000000
30
0.0
11
62.500000
21
-85.000000
31
0.0
0
LINE
8
0
6
CONTINUOUS
10
62.500000
20
-85.000000
30
0.0
11
62.500000
21
-83.000000
31
0.0
0
LINE
8
0
6
CONTINUOUS
10
60.000000
20
-85.000000
30
0.0
11
62.500000
21
-85.000000
31
0.0
0
LINE
8
0
6
CONTINUOUS
10
100.000000
20
-85.000000
30
0.0
11
97.500000
21
-85.000000
31
0.0
0
LINE
8
0
6
CONTINUOUS
10
100.000000
20
-83.000000
30
0.0
11
100.000000
21
-85.000000
31
0.0
0
LINE
8
0
6
CONTINUOUS
10
100.000000
20
-85.000000
30
0.0
11
100.000000
21
-83.000000
31
0.0
0
LINE
8
0
6
CONTINUOUS
10
97.500000
20
-85.000000
30
0.0
11
100.000000
21
-85.000000
31
0.0
0
LINE
8
0
6
CONTINUOUS
10
81.250000
20
-85.000000
30
0.0
11
78.750000
21
-85.000000
31
0.0
0
LINE
8
0
6
CONTINUOUS
10
81.250000
20
-83.000000
30
0.0
11
81.250000
21
-85.000000
31
0.0
0
LINE
8
0
6
CONTINUOUS
10
81.250000
20
-83.000000
30
0.0
11
78.750000
21
-83.000000
31
0.0
0
LINE
8
0
6
CONTINUOUS
10
81.250000
20
-85.000000
30
0.0
11
81.250000
21
-83.000000
31
0.0
0
LINE
8
0
6
CONTINUOUS
10
78.750000
20
-85.000000
30
0.0
11
81.250000
21
-85.000000
31
0.0
0
LINE
8
0
6
CONTINUOUS
10
-62.500000
20
-85.000000
30
0.0
11
-60.000000
21
-85.000000
31
0.0
0
LINE
8
0
6
CONTINUOUS
10
-62.500000
20
-83.000000
30
0.0
11
-62.500000
21
-85.000000
31
0.0
0
LINE
8
0
6
CONTINUOUS
10
-62.500000
20
-85.000000
30
0.0
11
-62.500000
21
-83.000000
31
0.0
0
LINE
8
0
6
CONTINUOUS
10
-60.000000
20
-85.000000
30
0.0
11
-62.500000
21
-85.000000
31
0.0
0
LINE
8
0
6
CONTINUOUS
10
-81.250000
20
-85.000000
30
0.0
11
-78.750000
21
-85.000000
31
0.0
0
LINE
8
0
6
CONTINUOUS
10
-81.250000
20
-83.000000
30
0.0
11
-81.250000
21
-85.000000
31
0.0
0
LINE
8
0
6
CONTINUOUS
10
-81.250000
20
-85.000000
30
0.0
11
-81.250000
21
-83.000000
31
0.0
0
LINE
8
0
6
CONTINUOUS
10
-78.750000
20
-85.000000
30
0.0
11
-81.250000
21
-85.000000
31
0.0
0
LINE
8
0
6
CONTINUOUS
10
-100.000000
20
-85.000000
30
0.0
11
-97.500000
21
-85.000000
31
0.0
0
LINE
8
0
6
CONTINUOUS
10
-100.000000
20
-83.000000
30
0.0
11
-100.000000
21
-85.000000
31
0.0
0
LINE
8
0
6
CONTINUOUS
10
-100.000000
20
-85.000000
30
0.0
11
-100.000000
21
-83.000000
31
0.0
0
LINE
8
0
6
CONTINUOUS
10
-97.500000
20
-85.000000
30
0.0
11
-100.000000
21
-85.000000
31
0.0
0
LINE
8
0
6
CONTINUOUS
10
-105.000000
20
-71.000000
30
0.0
11
-117.750000
21
-71.000000
31
0.0
0
LINE
8
0
6
CONTINUOUS
10
-117.750000
20
-71.000000
30
0.0
11
-128.875000
21
-71.000000
31
0.0
0
LINE
8
0
6
CONTINUOUS
10
-128.875000
20
-71.000000
30
0.0
11
-137.125000
21
-71.000000
31
0.0
0
LINE
8
0
6
CONTINUOUS
10
-137.125000
20
-71.000000
30
0.0
11
-143.375000
21
-71.000000
31
0.0
0
LINE
8
0
6
CONTINUOUS
10
-143.375000
20
-71.000000
30
0.0
11
-147.250000
21
-71.000000
31
0.0
0
LINE
8
0
6
CONTINUOUS
10
-147.250000
20
-71.000000
30
0.0
11
-148.750000
21
-71.000000
31
0.0
0
LINE
8
0
6
CONTINUOUS
10
-117.750000
20
-71.000000
30
0.0
11
-105.000000
21
-71.000000
31
0.0
0
LINE
8
0
6
CONTINUOUS
10
-128.875000
20
-71.000000
30
0.0
11
-117.750000
21
-71.000000
31
0.0
0
LINE
8
0
6
CONTINUOUS
10
-137.125000
20
-71.000000
30
0.0
11
-128.875000
21
-71.000000
31
0.0
0
LINE
8
0
6
CONTINUOUS
10
-143.375000
20
-71.000000
30
0.0
11
-137.125000
21
-71.000000
31
0.0
0
LINE
8
0
6
CONTINUOUS
10
-147.250000
20
-71.000000
30
0.0
11
-143.375000
21
-71.000000
31
0.0
0
LINE
8
0
6
CONTINUOUS
10
-148.750000
20
-71.000000
30
0.0
11
-147.250000
21
-71.000000
31
0.0
0
LINE
8
0
6
CONTINUOUS
10
-119.703500
20
-83.000000
30
0.0
11
-128.875000
21
-83.000000
31
0.0
0
LINE
8
0
6
CONTINUOUS
10
-143.375000
20
-83.000000
30
0.0
11
-147.250000
21
-83.000000
31
0.0
0
LINE
8
0
6
CONTINUOUS
10
-128.875000
20
-83.000000
30
0.0
11
-119.703500
21
-83.000000
31
0.0
0
LINE
8
0
6
CONTINUOUS
10
-147.250000
20
-83.000000
30
0.0
11
-143.375000
21
-83.000000
31
0.0
0
LINE
8
0
6
CONTINUOUS
10
-90.375000
20
-71.000000
30
0.0
11
-105.000000
21
-71.000000
31
0.0
0
LINE
8
0
6
CONTINUOUS
10
-74.000000
20
-71.000000
30
0.0
11
-90.375000
21
-71.000000
31
0.0
0
LINE
8
0
6
CONTINUOUS
10
-56.875000
20
-71.000000
30
0.0
11
-74.000000
21
-71.000000
31
0.0
0
LINE
8
0
6
CONTINUOUS
10
-105.000000
20
-71.000000
30
0.0
11
-90.375000
21
-71.000000
31
0.0
0
LINE
8
0
6
CONTINUOUS
10
-90.375000
20
-71.000000
30
0.0
11
-74.000000
21
-71.000000
31
0.0
0
LINE
8
0
6
CONTINUOUS
10
-74.000000
20
-71.000000
30
0.0
11
-56.875000
21
-71.000000
31
0.0
0
LINE
8
0
6
CONTINUOUS
10
-45.078000
20
-83.000000
30
0.0
11
-47.668000
21
-83.000000
31
0.0
0
LINE
8
0
6
CONTINUOUS
10
-51.082500
20
-83.000000
30
0.0
11
-51.336500
21
-83.000000
31
0.0
0
LINE
8
0
6
CONTINUOUS
10
-54.751600
20
-83.000000
30
0.0
11
-54.800800
21
-83.000000
31
0.0
0
LINE
8
0
6
CONTINUOUS
10
-54.800800
20
-83.000000
30
0.0
11
-54.751600
21
-83.000000
31
0.0
0
LINE
8
0
6
CONTINUOUS
10
-51.336500
20
-83.000000
30
0.0
11
-51.082500
21
-83.000000
31
0.0
0
LINE
8
0
6
CONTINUOUS
10
-47.668000
20
-83.000000
30
0.0
11
-45.078000
21
-83.000000
31
0.0
0
LINE
8
0
6
CONTINUOUS
10
105.000000
20
-71.000000
30
0.0
11
90.375000
21
-71.000000
31
0.0
0
LINE
8
0
6
CONTINUOUS
10
90.375000
20
-71.000000
30
0.0
11
74.000000
21
-71.000000
31
0.0
0
LINE
8
0
6
CONTINUOUS
10
74.000000
20
-71.000000
30
0.0
11
56.875000
21
-71.000000
31
0.0
0
LINE
8
0
6
CONTINUOUS
10
90.375000
20
-71.000000
30
0.0
11
105.000000
21
-71.000000
31
0.0
0
LINE
8
0
6
CONTINUOUS
10
74.000000
20
-71.000000
30
0.0
11
90.375000
21
-71.000000
31
0.0
0
LINE
8
0
6
CONTINUOUS
10
56.875000
20
-71.000000
30
0.0
11
74.000000
21
-71.000000
31
0.0
0
LINE
8
0
6
CONTINUOUS
10
81.318000
20
-83.000000
30
0.0
11
81.250000
21
-83.000000
31
0.0
0
LINE
8
0
6
CONTINUOUS
10
75.744000
20
-83.000000
30
0.0
11
74.000000
21
-83.000000
31
0.0
0
LINE
8
0
6
CONTINUOUS
10
33.734000
20
-83.000000
30
0.0
11
32.333000
21
-83.000000
31
0.0
0
LINE
8
0
6
CONTINUOUS
10
28.284000
20
-83.000000
30
0.0
11
27.089000
21
-83.000000
31
0.0
0
LINE
8
0
6
CONTINUOUS
10
74.000000
20
-83.000000
30
0.0
11
75.744000
21
-83.000000
31
0.0
0
LINE
8
0
6
CONTINUOUS
10
81.250000
20
-83.000000
30
0.0
11
81.318000
21
-83.000000
31
0.0
0
LINE
8
0
6
CONTINUOUS
10
27.089000
20
-83.000000
30
0.0
11
28.284000
21
-83.000000
31
0.0
0
LINE
8
0
6
CONTINUOUS
10
32.333000
20
-83.000000
30
0.0
11
33.734000
21
-83.000000
31
0.0
0
LINE
8
0
6
CONTINUOUS
10
117.750000
20
-71.000000
30
0.0
11
105.000000
21
-71.000000
31
0.0
0
LINE
8
0
6
CONTINUOUS
10
128.875000
20
-71.000000
30
0.0
11
117.750000
21
-71.000000
31
0.0
0
LINE
8
0
6
CONTINUOUS
10
137.125000
20
-71.000000
30
0.0
11
128.875000
21
-71.000000
31
0.0
0
LINE
8
0
6
CONTINUOUS
10
143.375000
20
-71.000000
30
0.0
11
137.125000
21
-71.000000
31
0.0
0
LINE
8
0
6
CONTINUOUS
10
147.250000
20
-71.000000
30
0.0
11
143.375000
21
-71.000000
31
0.0
0
LINE
8
0
6
CONTINUOUS
10
148.750000
20
-71.000000
30
0.0
11
147.250000
21
-71.000000
31
0.0
0
LINE
8
0
6
CONTINUOUS
10
105.000000
20
-71.000000
30
0.0
11
117.750000
21
-71.000000
31
0.0
0
LINE
8
0
6
CONTINUOUS
10
117.750000
20
-71.000000
30
0.0
11
128.875000
21
-71.000000
31
0.0
0
LINE
8
0
6
CONTINUOUS
10
128.875000
20
-71.000000
30
0.0
11
137.125000
21
-71.000000
31
0.0
0
LINE
8
0
6
CONTINUOUS
10
137.125000
20
-71.000000
30
0.0
11
143.375000
21
-71.000000
31
0.0
0
LINE
8
0
6
CONTINUOUS
10
143.375000
20
-71.000000
30
0.0
11
147.250000
21
-71.000000
31
0.0
0
LINE
8
0
6
CONTINUOUS
10
147.250000
20
-71.000000
30
0.0
11
148.750000
21
-71.000000
31
0.0
0
LINE
8
0
6
CONTINUOUS
10
143.375000
20
-83.000000
30
0.0
11
137.500000
21
-83.000000
31
0.0
0
LINE
8
0
6
CONTINUOUS
10
137.500000
20
-83.000000
30
0.0
11
143.375000
21
-83.000000
31
0.0
0
LINE
8
0
6
CONTINUOUS
10
105.000000
20
-71.000000
30
0.0
11
117.750000
21
-71.000000
31
0.0
0
LINE
8
0
6
CONTINUOUS
10
117.750000
20
-71.000000
30
0.0
11
128.875000
21
-71.000000
31
0.0
0
LINE
8
0
6
CONTINUOUS
10
128.875000
20
-71.000000
30
0.0
11
137.125000
21
-71.000000
31
0.0
0
LINE
8
0
6
CONTINUOUS
10
137.125000
20
-71.000000
30
0.0
11
143.375000
21
-71.000000
31
0.0
0
LINE
8
0
6
CONTINUOUS
10
143.375000
20
-71.000000
30
0.0
11
147.250000
21
-71.000000
31
0.0
0
LINE
8
0
6
CONTINUOUS
10
147.250000
20
-71.000000
30
0.0
11
148.750000
21
-71.000000
31
0.0
0
LINE
8
0
6
CONTINUOUS
10
105.875000
20
-72.000000
30
0.0
11
118.750000
21
-72.000000
31
0.0
0
LINE
8
0
6
CONTINUOUS
10
117.750000
20
-71.000000
30
0.0
11
105.000000
21
-71.000000
31
0.0
0
LINE
8
0
6
CONTINUOUS
10
118.750000
20
-72.000000
30
0.0
11
129.875000
21
-72.000000
31
0.0
0
LINE
8
0
6
CONTINUOUS
10
128.875000
20
-71.000000
30
0.0
11
117.750000
21
-71.000000
31
0.0
0
LINE
8
0
6
CONTINUOUS
10
129.875000
20
-72.000000
30
0.0
11
138.250000
21
-72.000000
31
0.0
0
LINE
8
0
6
CONTINUOUS
10
137.125000
20
-71.000000
30
0.0
11
128.875000
21
-71.000000
31
0.0
0
LINE
8
0
6
CONTINUOUS
10
138.250000
20
-72.000000
30
0.0
11
144.625000
21
-72.000000
31
0.0
0
LINE
8
0
6
CONTINUOUS
10
143.375000
20
-71.000000
30
0.0
11
137.125000
21
-71.000000
31
0.0
0
LINE
8
0
6
CONTINUOUS
10
144.625000
20
-72.000000
30
0.0
11
148.500000
21
-72.000000
31
0.0
0
LINE
8
0
6
CONTINUOUS
10
147.250000
20
-71.000000
30
0.0
11
143.375000
21
-71.000000
31
0.0
0
LINE
8
0
6
CONTINUOUS
10
148.500000
20
-72.000000
30
0.0
11
150.000000
21
-72.000000
31
0.0
0
LINE
8
0
6
CONTINUOUS
10
148.750000
20
-71.000000
30
0.0
11
147.250000
21
-71.000000
31
0.0
0
LINE
8
0
6
CONTINUOUS
10
150.000000
20
-72.000000
30
0.0
11
148.750000
21
-71.000000
31
0.0
0
LINE
8
0
6
CONTINUOUS
10
105.875000
20
-82.000000
30
0.0
11
118.750000
21
-82.000000
31
0.0
0
LINE
8
0
6
CONTINUOUS
10
118.750000
20
-72.000000
30
0.0
11
105.875000
21
-72.000000
31
0.0
0
LINE
8
0
6
CONTINUOUS
10
118.750000
20
-82.000000
30
0.0
11
129.875000
21
-82.000000
31
0.0
0
LINE
8
0
6
CONTINUOUS
10
129.875000
20
-72.000000
30
0.0
11
118.750000
21
-72.000000
31
0.0
0
LINE
8
0
6
CONTINUOUS
10
129.875000
20
-82.000000
30
0.0
11
138.250000
21
-82.000000
31
0.0
0
LINE
8
0
6
CONTINUOUS
10
138.250000
20
-72.000000
30
0.0
11
129.875000
21
-72.000000
31
0.0
0
LINE
8
0
6
CONTINUOUS
10
138.250000
20
-82.000000
30
0.0
11
144.625000
21
-82.000000
31
0.0
0
LINE
8
0
6
CONTINUOUS
10
144.625000
20
-72.000000
30
0.0
11
138.250000
21
-72.000000
31
0.0
0
LINE
8
0
6
CONTINUOUS
10
144.625000
20
-82.000000
30
0.0
11
148.500000
21
-82.000000
31
0.0
0
LINE
8
0
6
CONTINUOUS
10
148.500000
20
-72.000000
30
0.0
11
144.625000
21
-72.000000
31
0.0
0
LINE
8
0
6
CONTINUOUS
10
148.500000
20
-82.000000
30
0.0
11
150.000000
21
-82.000000
31
0.0
0
LINE
8
0
6
CONTINUOUS
10
150.000000
20
-72.000000
30
0.0
11
148.500000
21
-72.000000
31
0.0
0
LINE
8
0
6
CONTINUOUS
10
150.000000
20
-82.000000
30
0.0
11
150.000000
21
-72.000000
31
0.0
0
LINE
8
0
6
CONTINUOUS
10
105.000000
20
-83.000000
30
0.0
11
117.750000
21
-83.000000
31
0.0
0
LINE
8
0
6
CONTINUOUS
10
118.750000
20
-82.000000
30
0.0
11
105.875000
21
-82.000000
31
0.0
0
LINE
8
0
6
CONTINUOUS
10
117.750000
20
-83.000000
30
0.0
11
128.875000
21
-83.000000
31
0.0
0
LINE
8
0
6
CONTINUOUS
10
129.875000
20
-82.000000
30
0.0
11
118.750000
21
-82.000000
31
0.0
0
LINE
8
0
6
CONTINUOUS
10
128.875000
20
-83.000000
30
0.0
11
137.125000
21
-83.000000
31
0.0
0
LINE
8
0
6
CONTINUOUS
10
138.250000
20
-82.000000
30
0.0
11
129.875000
21
-82.000000
31
0.0
0
LINE
8
0
6
CONTINUOUS
10
137.125000
20
-83.000000
30
0.0
11
143.375000
21
-83.000000
31
0.0
0
LINE
8
0
6
CONTINUOUS
10
144.625000
20
-82.000000
30
0.0
11
138.250000
21
-82.000000
31
0.0
0
LINE
8
0
6
CONTINUOUS
10
143.375000
20
-83.000000
30
0.0
11
147.250000
21
-83.000000
31
0.0
0
LINE
8
0
6
CONTINUOUS
10
148.500000
20
-82.000000
30
0.0
11
144.625000
21
-82.000000
31
0.0
0
LINE
8
0
6
CONTINUOUS
10
147.250000
20
-83.000000
30
0.0
11
148.750000
21
-83.000000
31
0.0
0
LINE
8
0
6
CONTINUOUS
10
150.000000
20
-82.000000
30
0.0
11
148.500000
21
-82.000000
31
0.0
0
LINE
8
0
6
CONTINUOUS
10
148.750000
20
-83.000000
30
0.0
11
150.000000
21
-82.000000
31
0.0
0
LINE
8
0
6
CONTINUOUS
10
117.750000
20
-83.000000
30
0.0
11
105.000000
21
-83.000000
31
0.0
0
LINE
8
0
6
CONTINUOUS
10
137.125000
20
-83.000000
30
0.0
11
128.875000
21
-83.000000
31
0.0
0
LINE
8
0
6
CONTINUOUS
10
143.375000
20
-83.000000
30
0.0
11
137.125000
21
-83.000000
31
0.0
0
LINE
8
0
6
CONTINUOUS
10
148.750000
20
-83.000000
30
0.0
11
147.250000
21
-83.000000
31
0.0
0
LINE
8
0
6
CONTINUOUS
10
90.375000
20
-71.000000
30
0.0
11
105.000000
21
-71.000000
31
0.0
0
LINE
8
0
6
CONTINUOUS
10
74.000000
20
-71.000000
30
0.0
11
90.375000
21
-71.000000
31
0.0
0
LINE
8
0
6
CONTINUOUS
10
56.875000
20
-71.000000
30
0.0
11
74.000000
21
-71.000000
31
0.0
0
LINE
8
0
6
CONTINUOUS
10
38.375000
20
-71.000000
30
0.0
11
56.875000
21
-71.000000
31
0.0
0
LINE
8
0
6
CONTINUOUS
10
19.500000
20
-71.000000
30
0.0
11
38.375000
21
-71.000000
31
0.0
0
LINE
8
0
6
CONTINUOUS
10
0.000000
20
-71.000000
30
0.0
11
19.500000
21
-71.000000
31
0.0
0
LINE
8
0
6
CONTINUOUS
10
91.125000
20
-72.000000
30
0.0
11
105.875000
21
-72.000000
31
0.0
0
LINE
8
0
6
CONTINUOUS
10
105.000000
20
-71.000000
30
0.0
11
90.375000
21
-71.000000
31
0.0
0
LINE
8
0
6
CONTINUOUS
10
74.625000
20
-72.000000
30
0.0
11
91.125000
21
-72.000000
31
0.0
0
LINE
8
0
6
CONTINUOUS
10
90.375000
20
-71.000000
30
0.0
11
74.000000
21
-71.000000
31
0.0
0
LINE
8
0
6
CONTINUOUS
10
57.250000
20
-72.000000
30
0.0
11
74.625000
21
-72.000000
31
0.0
0
LINE
8
0
6
CONTINUOUS
10
74.000000
20
-71.000000
30
0.0
11
56.875000
21
-71.000000
31
0.0
0
LINE
8
0
6
CONTINUOUS
10
38.750000
20
-72.000000
30
0.0
11
57.250000
21
-72.000000
31
0.0
0
LINE
8
0
6
CONTINUOUS
10
56.875000
20
-71.000000
30
0.0
11
38.375000
21
-71.000000
31
0.0
0
LINE
8
0
6
CONTINUOUS
10
19.500000
20
-72.000000
30
0.0
11
38.750000
21
-72.000000
31
0.0
0
LINE
8
0
6
CONTINUOUS
10
38.375000
20
-71.000000
30
0.0
11
19.500000
21
-71.000000
31
0.0
0
LINE
8
0
6
CONTINUOUS
10
0.000000
20
-72.000000
30
0.0
11
19.500000
21
-72.000000
31
0.0
0
LINE
8
0
6
CONTINUOUS
10
19.500000
20
-71.000000
30
0.0
11
0.000000
21
-71.000000
31
0.0
0
LINE
8
0
6
CONTINUOUS
10
91.125000
20
-82.000000
30
0.0
11
105.875000
21
-82.000000
31
0.0
0
LINE
8
0
6
CONTINUOUS
10
105.875000
20
-72.000000
30
0.0
11
91.125000
21
-72.000000
31
0.0
0
LINE
8
0
6
CONTINUOUS
10
74.625000
20
-82.000000
30
0.0
11
91.125000
21
-82.000000
31
0.0
0
LINE
8
0
6
CONTINUOUS
10
91.125000
20
-72.000000
30
0.0
11
74.625000
21
-72.000000
31
0.0
0
LINE
8
0
6
CONTINUOUS
10
57.250000
20
-82.000000
30
0.0
11
74.625000
21
-82.000000
31
0.0
0
LINE
8
0
6
CONTINUOUS
10
74.625000
20
-72.000000
30
0.0
11
57.250000
21
-72.000000
31
0.0
0
LINE
8
0
6
CONTINUOUS
10
38.750000
20
-82.000000
30
0.0
11
57.250000
21
-82.000000
31
0.0
0
LINE
8
0
6
CONTINUOUS
10
57.250000
20
-72.000000
30
0.0
11
38.750000
21
-72.000000
31
0.0
0
LINE
8
0
6
CONTINUOUS
10
19.500000
20
-82.000000
30
0.0
11
38.750000
21
-82.000000
31
0.0
0
LINE
8
0
6
CONTINUOUS
10
38.750000
20
-72.000000
30
0.0
11
19.500000
21
-72.000000
31
0.0
0
LINE
8
0
6
CONTINUOUS
10
0.000000
20
-82.000000
30
0.0
11
19.500000
21
-82.000000
31
0.0
0
LINE
8
0
6
CONTINUOUS
10
19.500000
20
-72.000000
30
0.0
11
0.000000
21
-72.000000
31
0.0
0
LINE
8
0
6
CONTINUOUS
10
90.375000
20
-83.000000
30
0.0
11
105.000000
21
-83.000000
31
0.0
0
LINE
8
0
6
CONTINUOUS
10
105.875000
20
-82.000000
30
0.0
11
91.125000
21
-82.000000
31
0.0
0
LINE
8
0
6
CONTINUOUS
10
74.000000
20
-83.000000
30
0.0
11
90.375000
21
-83.000000
31
0.0
0
LINE
8
0
6
CONTINUOUS
10
91.125000
20
-82.000000
30
0.0
11
74.625000
21
-82.000000
31
0.0
0
LINE
8
0
6
CONTINUOUS
10
56.875000
20
-83.000000
30
0.0
11
74.000000
21
-83.000000
31
0.0
0
LINE
8
0
6
CONTINUOUS
10
74.625000
20
-82.000000
30
0.0
11
57.250000
21
-82.000000
31
0.0
0
LINE
8
0
6
CONTINUOUS
10
38.375000
20
-83.000000
30
0.0
11
56.875000
21
-83.000000
31
0.0
0
LINE
8
0
6
CONTINUOUS
10
57.250000
20
-82.000000
30
0.0
11
38.750000
21
-82.000000
31
0.0
0
LINE
8
0
6
CONTINUOUS
10
19.500000
20
-83.000000
30
0.0
11
38.375000
21
-83.000000
31
0.0
0
LINE
8
0
6
CONTINUOUS
10
38.750000
20
-82.000000
30
0.0
11
19.500000
21
-82.000000
31
0.0
0
LINE
8
0
6
CONTINUOUS
10
0.000000
20
-83.000000
30
0.0
11
19.500000
21
-83.000000
31
0.0
0
LINE
8
0
6
CONTINUOUS
10
19.500000
20
-82.000000
30
0.0
11
0.000000
21
-82.000000
31
0.0
0
LINE
8
0
6
CONTINUOUS
10
105.000000
20
-83.000000
30
0.0
11
90.375000
21
-83.000000
31
0.0
0
LINE
8
0
6
CONTINUOUS
10
90.375000
20
-83.000000
30
0.0
11
74.000000
21
-83.000000
31
0.0
0
LINE
8
0
6
CONTINUOUS
10
74.000000
20
-83.000000
30
0.0
11
56.875000
21
-83.000000
31
0.0
0
LINE
8
0
6
CONTINUOUS
10
56.875000
20
-83.000000
30
0.0
11
51.083000
21
-83.000000
31
0.0
0
LINE
8
0
6
CONTINUOUS
10
38.375000
20
-83.000000
30
0.0
11
19.500000
21
-83.000000
31
0.0
0
LINE
8
0
6
CONTINUOUS
10
19.500000
20
-83.000000
30
0.0
11
0.000000
21
-83.000000
31
0.0
0
LINE
8
0
6
CONTINUOUS
10
-105.000000
20
-71.000000
30
0.0
11
-90.375000
21
-71.000000
31
0.0
0
LINE
8
0
6
CONTINUOUS
10
-90.375000
20
-71.000000
30
0.0
11
-74.000000
21
-71.000000
31
0.0
0
LINE
8
0
6
CONTINUOUS
10
-74.000000
20
-71.000000
30
0.0
11
-56.875000
21
-71.000000
31
0.0
0
LINE
8
0
6
CONTINUOUS
10
-56.875000
20
-71.000000
30
0.0
11
-38.375000
21
-71.000000
31
0.0
0
LINE
8
0
6
CONTINUOUS
10
-38.375000
20
-71.000000
30
0.0
11
-19.500000
21
-71.000000
31
0.0
0
LINE
8
0
6
CONTINUOUS
10
-19.500000
20
-71.000000
30
0.0
11
0.000000
21
-71.000000
31
0.0
0
LINE
8
0
6
CONTINUOUS
10
-105.875000
20
-72.000000
30
0.0
11
-91.125000
21
-72.000000
31
0.0
0
LINE
8
0
6
CONTINUOUS
10
-90.375000
20
-71.000000
30
0.0
11
-105.000000
21
-71.000000
31
0.0
0
LINE
8
0
6
CONTINUOUS
10
-91.125000
20
-72.000000
30
0.0
11
-74.625000
21
-72.000000
31
0.0
0
LINE
8
0
6
CONTINUOUS
10
-74.000000
20
-71.000000
30
0.0
11
-90.375000
21
-71.000000
31
0.0
0
LINE
8
0
6
CONTINUOUS
10
-74.625000
20
-72.000000
30
0.0
11
-57.250000
21
-72.000000
31
0.0
0
LINE
8
0
6
CONTINUOUS
10
-56.875000
20
-71.000000
30
0.0
11
-74.000000
21
-71.000000
31
0.0
0
LINE
8
0
6
CONTINUOUS
10
-57.250000
20
-72.000000
30
0.0
11
-38.750000
21
-72.000000
31
0.0
0
LINE
8
0
6
CONTINUOUS
10
-38.375000
20
-71.000000
30
0.0
11
-56.875000
21
-71.000000
31
0.0
0
LINE
8
0
6
CONTINUOUS
10
-38.750000
20
-72.000000
30
0.0
11
-19.500000
21
-72.000000
31
0.0
0
LINE
8
0
6
CONTINUOUS
10
-19.500000
20
-71.000000
30
0.0
11
-38.375000
21
-71.000000
31
0.0
0
LINE
8
0
6
CONTINUOUS
10
-19.500000
20
-72.000000
30
0.0
11
0.000000
21
-72.000000
31
0.0
0
LINE
8
0
6
CONTINUOUS
10
0.000000
20
-71.000000
30
0.0
11
-19.500000
21
-71.000000
31
0.0
0
LINE
8
0
6
CONTINUOUS
10
-105.875000
20
-82.000000
30
0.0
11
-91.125000
21
-82.000000
31
0.0
0
LINE
8
0
6
CONTINUOUS
10
-91.125000
20
-72.000000
30
0.0
11
-105.875000
21
-72.000000
31
0.0
0
LINE
8
0
6
CONTINUOUS
10
-91.125000
20
-82.000000
30
0.0
11
-74.625000
21
-82.000000
31
0.0
0
LINE
8
0
6
CONTINUOUS
10
-74.625000
20
-72.000000
30
0.0
11
-91.125000
21
-72.000000
31
0.0
0
LINE
8
0
6
CONTINUOUS
10
-74.625000
20
-82.000000
30
0.0
11
-57.250000
21
-82.000000
31
0.0
0
LINE
8
0
6
CONTINUOUS
10
-57.250000
20
-72.000000
30
0.0
11
-74.625000
21
-72.000000
31
0.0
0
LINE
8
0
6
CONTINUOUS
10
-57.250000
20
-82.000000
30
0.0
11
-38.750000
21
-82.000000
31
0.0
0
LINE
8
0
6
CONTINUOUS
10
-38.750000
20
-72.000000
30
0.0
11
-57.250000
21
-72.000000
31
0.0
0
LINE
8
0
6
CONTINUOUS
10
-38.750000
20
-82.000000
30
0.0
11
-19.500000
21
-82.000000
31
0.0
0
LINE
8
0
6
CONTINUOUS
10
-19.500000
20
-72.000000
30
0.0
11
-38.750000
21
-72.000000
31
0.0
0
LINE
8
0
6
CONTINUOUS
10
-19.500000
20
-82.000000
30
0.0
11
0.000000
21
-82.000000
31
0.0
0
LINE
8
0
6
CONTINUOUS
10
0.000000
20
-72.000000
30
0.0
11
-19.500000
21
-72.000000
31
0.0
0
LINE
8
0
6
CONTINUOUS
10
-105.000000
20
-83.000000
30
0.0
11
-90.375000
21
-83.000000
31
0.0
0
LINE
8
0
6
CONTINUOUS
10
-91.125000
20
-82.000000
30
0.0
11
-105.875000
21
-82.000000
31
0.0
0
LINE
8
0
6
CONTINUOUS
10
-90.375000
20
-83.000000
30
0.0
11
-74.000000
21
-83.000000
31
0.0
0
LINE
8
0
6
CONTINUOUS
10
-74.625000
20
-82.000000
30
0.0
11
-91.125000
21
-82.000000
31
0.0
0
LINE
8
0
6
CONTINUOUS
10
-74.000000
20
-83.000000
30
0.0
11
-56.875000
21
-83.000000
31
0.0
0
LINE
8
0
6
CONTINUOUS
10
-57.250000
20
-82.000000
30
0.0
11
-74.625000
21
-82.000000
31
0.0
0
LINE
8
0
6
CONTINUOUS
10
-56.875000
20
-83.000000
30
0.0
11
-38.375000
21
-83.000000
31
0.0
0
LINE
8
0
6
CONTINUOUS
10
-38.750000
20
-82.000000
30
0.0
11
-57.250000
21
-82.000000
31
0.0
0
LINE
8
0
6
CONTINUOUS
10
-38.375000
20
-83.000000
30
0.0
11
-19.500000
21
-83.000000
31
0.0
0
LINE
8
0
6
CONTINUOUS
10
-19.500000
20
-82.000000
30
0.0
11
-38.750000
21
-82.000000
31
0.0
0
LINE
8
0
6
CONTINUOUS
10
-19.500000
20
-83.000000
30
0.0
11
0.000000
21
-83.000000
31
0.0
0
LINE
8
0
6
CONTINUOUS
10
0.000000
20
-82.000000
30
0.0
11
-19.500000
21
-82.000000
31
0.0
0
LINE
8
0
6
CONTINUOUS
10
-90.375000
20
-83.000000
30
0.0
11
-105.000000
21
-83.000000
31
0.0
0
LINE
8
0
6
CONTINUOUS
10
-74.000000
20
-83.000000
30
0.0
11
-81.317300
21
-83.000000
31
0.0
0
LINE
8
0
6
CONTINUOUS
10
-56.875000
20
-83.000000
30
0.0
11
-74.000000
21
-83.000000
31
0.0
0
LINE
8
0
6
CONTINUOUS
10
-38.375000
20
-83.000000
30
0.0
11
-56.875000
21
-83.000000
31
0.0
0
LINE
8
0
6
CONTINUOUS
10
-19.500000
20
-83.000000
30
0.0
11
-24.675000
21
-83.000000
31
0.0
0
LINE
8
0
6
CONTINUOUS
10
0.000000
20
-83.000000
30
0.0
11
-19.500000
21
-83.000000
31
0.0
0
LINE
8
0
6
CONTINUOUS
10
-117.750000
20
-71.000000
30
0.0
11
-105.000000
21
-71.000000
31
0.0
0
LINE
8
0
6
CONTINUOUS
10
-128.875000
20
-71.000000
30
0.0
11
-117.750000
21
-71.000000
31
0.0
0
LINE
8
0
6
CONTINUOUS
10
-137.125000
20
-71.000000
30
0.0
11
-128.875000
21
-71.000000
31
0.0
0
LINE
8
0
6
CONTINUOUS
10
-143.375000
20
-71.000000
30
0.0
11
-137.125000
21
-71.000000
31
0.0
0
LINE
8
0
6
CONTINUOUS
10
-147.250000
20
-71.000000
30
0.0
11
-143.375000
21
-71.000000
31
0.0
0
LINE
8
0
6
CONTINUOUS
10
-148.750000
20
-71.000000
30
0.0
11
-147.250000
21
-71.000000
31
0.0
0
LINE
8
0
6
CONTINUOUS
10
-118.750000
20
-72.000000
30
0.0
11
-105.875000
21
-72.000000
31
0.0
0
LINE
8
0
6
CONTINUOUS
10
-105.000000
20
-71.000000
30
0.0
11
-117.750000
21
-71.000000
31
0.0
0
LINE
8
0
6
CONTINUOUS
10
-129.875000
20
-72.000000
30
0.0
11
-118.750000
21
-72.000000
31
0.0
0
LINE
8
0
6
CONTINUOUS
10
-117.750000
20
-71.000000
30
0.0
11
-128.875000
21
-71.000000
31
0.0
0
LINE
8
0
6
CONTINUOUS
10
-138.250000
20
-72.000000
30
0.0
11
-129.875000
21
-72.000000
31
0.0
0
LINE
8
0
6
CONTINUOUS
10
-128.875000
20
-71.000000
30
0.0
11
-137.125000
21
-71.000000
31
0.0
0
LINE
8
0
6
CONTINUOUS
10
-144.625000
20
-72.000000
30
0.0
11
-138.250000
21
-72.000000
31
0.0
0
LINE
8
0
6
CONTINUOUS
10
-137.125000
20
-71.000000
30
0.0
11
-143.375000
21
-71.000000
31
0.0
0
LINE
8
0
6
CONTINUOUS
10
-148.500000
20
-72.000000
30
0.0
11
-144.625000
21
-72.000000
31
0.0
0
LINE
8
0
6
CONTINUOUS
10
-143.375000
20
-71.000000
30
0.0
11
-147.250000
21
-71.000000
31
0.0
0
LINE
8
0
6
CONTINUOUS
10
-150.000000
20
-72.000000
30
0.0
11
-148.500000
21
-72.000000
31
0.0
0
LINE
8
0
6
CONTINUOUS
10
-148.750000
20
-71.000000
30
0.0
11
-150.000000
21
-72.000000
31
0.0
0
LINE
8
0
6
CONTINUOUS
10
-147.250000
20
-71.000000
30
0.0
11
-148.750000
21
-71.000000
31
0.0
0
LINE
8
0
6
CONTINUOUS
10
-118.750000
20
-82.000000
30
0.0
11
-105.875000
21
-82.000000
31
0.0
0
LINE
8
0
6
CONTINUOUS
10
-105.875000
20
-72.000000
30
0.0
11
-118.750000
21
-72.000000
31
0.0
0
LINE
8
0
6
CONTINUOUS
10
-129.875000
20
-82.000000
30
0.0
11
-118.750000
21
-82.000000
31
0.0
0
LINE
8
0
6
CONTINUOUS
10
-118.750000
20
-72.000000
30
0.0
11
-129.875000
21
-72.000000
31
0.0
0
LINE
8
0
6
CONTINUOUS
10
-138.250000
20
-82.000000
30
0.0
11
-129.875000
21
-82.000000
31
0.0
0
LINE
8
0
6
CONTINUOUS
10
-129.875000
20
-72.000000
30
0.0
11
-138.250000
21
-72.000000
31
0.0
0
LINE
8
0
6
CONTINUOUS
10
-144.625000
20
-82.000000
30
0.0
11
-138.250000
21
-82.000000
31
0.0
0
LINE
8
0
6
CONTINUOUS
10
-138.250000
20
-72.000000
30
0.0
11
-144.625000
21
-72.000000
31
0.0
0
LINE
8
0
6
CONTINUOUS
10
-148.500000
20
-82.000000
30
0.0
11
-144.625000
21
-82.000000
31
0.0
0
LINE
8
0
6
CONTINUOUS
10
-144.625000
20
-72.000000
30
0.0
11
-148.500000
21
-72.000000
31
0.0
0
LINE
8
0
6
CONTINUOUS
10
-150.000000
20
-82.000000
30
0.0
11
-148.500000
21
-82.000000
31
0.0
0
LINE
8
0
6
CONTINUOUS
10
-150.000000
20
-72.000000
30
0.0
11
-150.000000
21
-82.000000
31
0.0
0
LINE
8
0
6
CONTINUOUS
10
-148.500000
20
-72.000000
30
0.0
11
-150.000000
21
-72.000000
31
0.0
0
LINE
8
0
6
CONTINUOUS
10
-117.750000
20
-83.000000
30
0.0
11
-105.000000
21
-83.000000
31
0.0
0
LINE
8
0
6
CONTINUOUS
10
-105.875000
20
-82.000000
30
0.0
11
-118.750000
21
-82.000000
31
0.0
0
LINE
8
0
6
CONTINUOUS
10
-128.875000
20
-83.000000
30
0.0
11
-117.750000
21
-83.000000
31
0.0
0
LINE
8
0
6
CONTINUOUS
10
-118.750000
20
-82.000000
30
0.0
11
-129.875000
21
-82.000000
31
0.0
0
LINE
8
0
6
CONTINUOUS
10
-137.125000
20
-83.000000
30
0.0
11
-128.875000
21
-83.000000
31
0.0
0
LINE
8
0
6
CONTINUOUS
10
-129.875000
20
-82.000000
30
0.0
11
-138.250000
21
-82.000000
31
0.0
0
LINE
8
0
6
CONTINUOUS
10
-143.375000
20
-83.000000
30
0.0
11
-137.125000
21
-83.000000
31
0.0
0
LINE
8
0
6
CONTINUOUS
10
-138.250000
20
-82.000000
30
0.0
11
-144.625000
21
-82.000000
31
0.0
0
LINE
8
0
6
CONTINUOUS
10
-147.250000
20
-83.000000
30
0.0
11
-143.375000
21
-83.000000
31
0.0
0
LINE
8
0
6
CONTINUOUS
10
-144.625000
20
-82.000000
30
0.0
11
-148.500000
21
-82.000000
31
0.0
0
LINE
8
0
6
CONTINUOUS
10
-148.750000
20
-83.000000
30
0.0
11
-147.250000
21
-83.000000
31
0.0
0
LINE
8
0
6
CONTINUOUS
10
-150.000000
20
-82.000000
30
0.0
11
-148.750000
21
-83.000000
31
0.0
0
LINE
8
0
6
CONTINUOUS
10
-148.500000
20
-82.000000
30
0.0
11
-150.000000
21
-82.000000
31
0.0
0
LINE
8
0
6
CONTINUOUS
10
-105.000000
20
-83.000000
30
0.0
11
-117.750000
21
-83.000000
31
0.0
0
LINE
8
0
6
CONTINUOUS
10
-117.750000
20
-83.000000
30
0.0
11
-128.875000
21
-83.000000
31
0.0
0
LINE
8
0
6
CONTINUOUS
10
-128.875000
20
-83.000000
30
0.0
11
-137.125000
21
-83.000000
31
0.0
0
LINE
8
0
6
CONTINUOUS
10
-137.125000
20
-83.000000
30
0.0
11
-137.500000
21
-83.000000
31
0.0
0
LINE
8
0
6
CONTINUOUS
10
-143.375000
20
-83.000000
30
0.0
11
-147.250000
21
-83.000000
31
0.0
0
LINE
8
0
6
CONTINUOUS
10
-147.250000
20
-83.000000
30
0.0
11
-148.750000
21
-83.000000
31
0.0
0
LINE
8
0
6
CONTINUOUS
10
-35.300000
20
-67.000000
30
0.0
11
-39.600000
21
-67.000000
31
0.0
0
LINE
8
0
6
CONTINUOUS
10
-39.600000
20
-67.000000
30
0.0
11
-43.300000
21
-67.000000
31
0.0
0
LINE
8
0
6
CONTINUOUS
10
-43.300000
20
-67.000000
30
0.0
11
-46.100000
21
-67.000000
31
0.0
0
LINE
8
0
6
CONTINUOUS
10
-46.100000
20
-67.000000
30
0.0
11
-48.200000
21
-67.000000
31
0.0
0
LINE
8
0
6
CONTINUOUS
10
-48.200000
20
-67.000000
30
0.0
11
-49.500000
21
-67.000000
31
0.0
0
LINE
8
0
6
CONTINUOUS
10
-49.500000
20
-67.000000
30
0.0
11
-50.000000
21
-67.000000
31
0.0
0
LINE
8
0
6
CONTINUOUS
10
-39.600000
20
-67.000000
30
0.0
11
-35.300000
21
-67.000000
31
0.0
0
LINE
8
0
6
CONTINUOUS
10
-43.300000
20
-67.000000
30
0.0
11
-39.600000
21
-67.000000
31
0.0
0
LINE
8
0
6
CONTINUOUS
10
-46.100000
20
-67.000000
30
0.0
11
-43.300000
21
-67.000000
31
0.0
0
LINE
8
0
6
CONTINUOUS
10
-48.200000
20
-67.000000
30
0.0
11
-46.100000
21
-67.000000
31
0.0
0
LINE
8
0
6
CONTINUOUS
10
-49.500000
20
-67.000000
30
0.0
11
-48.200000
21
-67.000000
31
0.0
0
LINE
8
0
6
CONTINUOUS
10
-50.000000
20
-67.000000
30
0.0
11
-49.500000
21
-67.000000
31
0.0
0
LINE
8
0
6
CONTINUOUS
10
-30.400000
20
-67.000000
30
0.0
11
-35.300000
21
-67.000000
31
0.0
0
LINE
8
0
6
CONTINUOUS
10
-24.900000
20
-67.000000
30
0.0
11
-30.400000
21
-67.000000
31
0.0
0
LINE
8
0
6
CONTINUOUS
10
-19.100000
20
-67.000000
30
0.0
11
-24.900000
21
-67.000000
31
0.0
0
LINE
8
0
6
CONTINUOUS
10
-35.300000
20
-67.000000
30
0.0
11
-30.400000
21
-67.000000
31
0.0
0
LINE
8
0
6
CONTINUOUS
10
-30.400000
20
-67.000000
30
0.0
11
-24.900000
21
-67.000000
31
0.0
0
LINE
8
0
6
CONTINUOUS
10
-24.900000
20
-67.000000
30
0.0
11
-19.100000
21
-67.000000
31
0.0
0
LINE
8
0
6
CONTINUOUS
10
35.300000
20
-67.000000
30
0.0
11
30.400000
21
-67.000000
31
0.0
0
LINE
8
0
6
CONTINUOUS
10
30.400000
20
-67.000000
30
0.0
11
24.900000
21
-67.000000
31
0.0
0
LINE
8
0
6
CONTINUOUS
10
24.900000
20
-67.000000
30
0.0
11
19.100000
21
-67.000000
31
0.0
0
LINE
8
0
6
CONTINUOUS
10
30.400000
20
-67.000000
30
0.0
11
35.300000
21
-67.000000
31
0.0
0
LINE
8
0
6
CONTINUOUS
10
24.900000
20
-67.000000
30
0.0
11
30.400000
21
-67.000000
31
0.0
0
LINE
8
0
6
CONTINUOUS
10
19.100000
20
-67.000000
30
0.0
11
24.900000
21
-67.000000
31
0.0
0
LINE
8
0
6
CONTINUOUS
10
39.600000
20
-67.000000
30
0.0
11
35.300000
21
-67.000000
31
0.0
0
LINE
8
0
6
CONTINUOUS
10
43.300000
20
-67.000000
30
0.0
11
39.600000
21
-67.000000
31
0.0
0
LINE
8
0
6
CONTINUOUS
10
46.100000
20
-67.000000
30
0.0
11
43.300000
21
-67.000000
31
0.0
0
LINE
8
0
6
CONTINUOUS
10
48.200000
20
-67.000000
30
0.0
11
46.100000
21
-67.000000
31
0.0
0
LINE
8
0
6
CONTINUOUS
10
49.500000
20
-67.000000
30
0.0
11
48.200000
21
-67.000000
31
0.0
0
LINE
8
0
6
CONTINUOUS
10
50.000000
20
-67.000000
30
0.0
11
49.500000
21
-67.000000
31
0.0
0
LINE
8
0
6
CONTINUOUS
10
35.300000
20
-67.000000
30
0.0
11
39.600000
21
-67.000000
31
0.0
0
LINE
8
0
6
CONTINUOUS
10
39.600000
20
-67.000000
30
0.0
11
43.300000
21
-67.000000
31
0.0
0
LINE
8
0
6
CONTINUOUS
10
43.300000
20
-67.000000
30
0.0
11
46.100000
21
-67.000000
31
0.0
0
LINE
8
0
6
CONTINUOUS
10
46.100000
20
-67.000000
30
0.0
11
48.200000
21
-67.000000
31
0.0
0
LINE
8
0
6
CONTINUOUS
10
48.200000
20
-67.000000
30
0.0
11
49.500000
21
-67.000000
31
0.0
0
LINE
8
0
6
CONTINUOUS
10
49.500000
20
-67.000000
30
0.0
11
50.000000
21
-67.000000
31
0.0
0
LINE
8
0
6
CONTINUOUS
10
35.300000
20
-67.000000
30
0.0
11
39.600000
21
-67.000000
31
0.0
0
LINE
8
0
6
CONTINUOUS
10
39.600000
20
-67.000000
30
0.0
11
43.300000
21
-67.000000
31
0.0
0
LINE
8
0
6
CONTINUOUS
10
43.300000
20
-67.000000
30
0.0
11
46.100000
21
-67.000000
31
0.0
0
LINE
8
0
6
CONTINUOUS
10
46.100000
20
-67.000000
30
0.0
11
48.200000
21
-67.000000
31
0.0
0
LINE
8
0
6
CONTINUOUS
10
48.200000
20
-67.000000
30
0.0
11
49.500000
21
-67.000000
31
0.0
0
LINE
8
0
6
CONTINUOUS
10
49.500000
20
-67.000000
30
0.0
11
50.000000
21
-67.000000
31
0.0
0
LINE
8
0
6
CONTINUOUS
10
35.300000
20
-71.000000
30
0.0
11
39.600000
21
-71.000000
31
0.0
0
LINE
8
0
6
CONTINUOUS
10
39.600000
20
-67.000000
30
0.0
11
35.300000
21
-67.000000
31
0.0
0
LINE
8
0
6
CONTINUOUS
10
39.600000
20
-71.000000
30
0.0
11
43.300000
21
-71.000000
31
0.0
0
LINE
8
0
6
CONTINUOUS
10
43.300000
20
-67.000000
30
0.0
11
39.600000
21
-67.000000
31
0.0
0
LINE
8
0
6
CONTINUOUS
10
43.300000
20
-71.000000
30
0.0
11
46.100000
21
-71.000000
31
0.0
0
LINE
8
0
6
CONTINUOUS
10
46.100000
20
-67.000000
30
0.0
11
43.300000
21
-67.000000
31
0.0
0
LINE
8
0
6
CONTINUOUS
10
46.100000
20
-71.000000
30
0.0
11
48.200000
21
-71.000000
31
0.0
0
LINE
8
0
6
CONTINUOUS
10
48.200000
20
-67.000000
30
0.0
11
46.100000
21
-67.000000
31
0.0
0
LINE
8
0
6
CONTINUOUS
10
48.200000
20
-71.000000
30
0.0
11
49.500000
21
-71.000000
31
0.0
0
LINE
8
0
6
CONTINUOUS
10
49.500000
20
-67.000000
30
0.0
11
48.200000
21
-67.000000
31
0.0
0
LINE
8
0
6
CONTINUOUS
10
49.500000
20
-71.000000
30
0.0
11
50.000000
21
-71.000000
31
0.0
0
LINE
8
0
6
CONTINUOUS
10
50.000000
20
-67.000000
30
0.0
11
49.500000
21
-67.000000
31
0.0
0
LINE
8
0
6
CONTINUOUS
10
50.000000
20
-71.000000
30
0.0
11
50.000000
21
-67.000000
31
0.0
0
LINE
8
0
6
CONTINUOUS
10
30.400000
20
-67.000000
30
0.0
11
35.300000
21
-67.000000
31
0.0
0
LINE
8
0
6
CONTINUOUS
10
24.900000
20
-67.000000
30
0.0
11
30.400000
21
-67.000000
31
0.0
0
LINE
8
0
6
CONTINUOUS
10
19.100000
20
-67.000000
30
0.0
11
24.900000
21
-67.000000
31
0.0
0
LINE
8
0
6
CONTINUOUS
10
12.900000
20
-67.000000
30
0.0
11
19.100000
21
-67.000000
31
0.0
0
LINE
8
0
6
CONTINUOUS
10
6.500000
20
-67.000000
30
0.0
11
12.900000
21
-67.000000
31
0.0
0
LINE
8
0
6
CONTINUOUS
10
0.000000
20
-67.000000
30
0.0
11
6.500000
21
-67.000000
31
0.0
0
LINE
8
0
6
CONTINUOUS
10
30.400000
20
-71.000000
30
0.0
11
35.300000
21
-71.000000
31
0.0
0
LINE
8
0
6
CONTINUOUS
10
35.300000
20
-67.000000
30
0.0
11
30.400000
21
-67.000000
31
0.0
0
LINE
8
0
6
CONTINUOUS
10
24.900000
20
-71.000000
30
0.0
11
30.400000
21
-71.000000
31
0.0
0
LINE
8
0
6
CONTINUOUS
10
30.400000
20
-67.000000
30
0.0
11
24.900000
21
-67.000000
31
0.0
0
LINE
8
0
6
CONTINUOUS
10
19.100000
20
-71.000000
30
0.0
11
24.900000
21
-71.000000
31
0.0
0
LINE
8
0
6
CONTINUOUS
10
24.900000
20
-67.000000
30
0.0
11
19.100000
21
-67.000000
31
0.0
0
LINE
8
0
6
CONTINUOUS
10
12.900000
20
-71.000000
30
0.0
11
19.100000
21
-71.000000
31
0.0
0
LINE
8
0
6
CONTINUOUS
10
19.100000
20
-67.000000
30
0.0
11
12.900000
21
-67.000000
31
0.0
0
LINE
8
0
6
CONTINUOUS
10
6.500000
20
-71.000000
30
0.0
11
12.900000
21
-71.000000
31
0.0
0
LINE
8
0
6
CONTINUOUS
10
12.900000
20
-67.000000
30
0.0
11
6.500000
21
-67.000000
31
0.0
0
LINE
8
0
6
CONTINUOUS
10
0.000000
20
-71.000000
30
0.0
11
6.500000
21
-71.000000
31
0.0
0
LINE
8
0
6
CONTINUOUS
10
6.500000
20
-67.000000
30
0.0
11
0.000000
21
-67.000000
31
0.0
0
LINE
8
0
6
CONTINUOUS
10
-35.300000
20
-67.000000
30
0.0
11
-30.400000
21
-67.000000
31
0.0
0
LINE
8
0
6
CONTINUOUS
10
-30.400000
20
-67.000000
30
0.0
11
-24.900000
21
-67.000000
31
0.0
0
LINE
8
0
6
CONTINUOUS
10
-24.900000
20
-67.000000
30
0.0
11
-19.100000
21
-67.000000
31
0.0
0
LINE
8
0
6
CONTINUOUS
10
-19.100000
20
-67.000000
30
0.0
11
-12.900000
21
-67.000000
31
0.0
0
LINE
8
0
6
CONTINUOUS
10
-12.900000
20
-67.000000
30
0.0
11
-6.500000
21
-67.000000
31
0.0
0
LINE
8
0
6
CONTINUOUS
10
-6.500000
20
-67.000000
30
0.0
11
0.000000
21
-67.000000
31
0.0
0
LINE
8
0
6
CONTINUOUS
10
-35.300000
20
-71.000000
30
0.0
11
-30.400000
21
-71.000000
31
0.0
0
LINE
8
0
6
CONTINUOUS
10
-30.400000
20
-67.000000
30
0.0
11
-35.300000
21
-67.000000
31
0.0
0
LINE
8
0
6
CONTINUOUS
10
-30.400000
20
-71.000000
30
0.0
11
-24.900000
21
-71.000000
31
0.0
0
LINE
8
0
6
CONTINUOUS
10
-24.900000
20
-67.000000
30
0.0
11
-30.400000
21
-67.000000
31
0.0
0
LINE
8
0
6
CONTINUOUS
10
-24.900000
20
-71.000000
30
0.0
11
-19.100000
21
-71.000000
31
0.0
0
LINE
8
0
6
CONTINUOUS
10
-19.100000
20
-67.000000
30
0.0
11
-24.900000
21
-67.000000
31
0.0
0
LINE
8
0
6
CONTINUOUS
10
-19.100000
20
-71.000000
30
0.0
11
-12.900000
21
-71.000000
31
0.0
0
LINE
8
0
6
CONTINUOUS
10
-12.900000
20
-67.000000
30
0.0
11
-19.100000
21
-67.000000
31
0.0
0
LINE
8
0
6
CONTINUOUS
10
-12.900000
20
-71.000000
30
0.0
11
-6.500000
21
-71.000000
31
0.0
0
LINE
8
0
6
CONTINUOUS
10
-6.500000
20
-67.000000
30
0.0
11
-12.900000
21
-67.000000
31
0.0
0
LINE
8
0
6
CONTINUOUS
10
-6.500000
20
-71.000000
30
0.0
11
0.000000
21
-71.000000
31
0.0
0
LINE
8
0
6
CONTINUOUS
10
0.000000
20
-67.000000
30
0.0
11
-6.500000
21
-67.000000
31
0.0
0
LINE
8
0
6
CONTINUOUS
10
-39.600000
20
-67.000000
30
0.0
11
-35.300000
21
-67.000000
31
0.0
0
LINE
8
0
6
CONTINUOUS
10
-43.300000
20
-67.000000
30
0.0
11
-39.600000
21
-67.000000
31
0.0
0
LINE
8
0
6
CONTINUOUS
10
-46.100000
20
-67.000000
30
0.0
11
-43.300000
21
-67.000000
31
0.0
0
LINE
8
0
6
CONTINUOUS
10
-48.200000
20
-67.000000
30
0.0
11
-46.100000
21
-67.000000
31
0.0
0
LINE
8
0
6
CONTINUOUS
10
-49.500000
20
-67.000000
30
0.0
11
-48.200000
21
-67.000000
31
0.0
0
LINE
8
0
6
CONTINUOUS
10
-50.000000
20
-67.000000
30
0.0
11
-49.500000
21
-67.000000
31
0.0
0
LINE
8
0
6
CONTINUOUS
10
-39.600000
20
-71.000000
30
0.0
11
-35.300000
21
-71.000000
31
0.0
0
LINE
8
0
6
CONTINUOUS
10
-35.300000
20
-67.000000
30
0.0
11
-39.600000
21
-67.000000
31
0.0
0
LINE
8
0
6
CONTINUOUS
10
-43.300000
20
-71.000000
30
0.0
11
-39.600000
21
-71.000000
31
0.0
0
LINE
8
0
6
CONTINUOUS
10
-39.600000
20
-67.000000
30
0.0
11
-43.300000
21
-67.000000
31
0.0
0
LINE
8
0
6
CONTINUOUS
10
-46.100000
20
-71.000000
30
0.0
11
-43.300000
21
-71.000000
31
0.0
0
LINE
8
0
6
CONTINUOUS
10
-43.300000
20
-67.000000
30
0.0
11
-46.100000
21
-67.000000
31
0.0
0
LINE
8
0
6
CONTINUOUS
10
-48.200000
20
-71.000000
30
0.0
11
-46.100000
21
-71.000000
31
0.0
0
LINE
8
0
6
CONTINUOUS
10
-46.100000
20
-67.000000
30
0.0
11
-48.200000
21
-67.000000
31
0.0
0
LINE
8
0
6
CONTINUOUS
10
-49.500000
20
-71.000000
30
0.0
11
-48.200000
21
-71.000000
31
0.0
0
LINE
8
0
6
CONTINUOUS
10
-48.200000
20
-67.000000
30
0.0
11
-49.500000
21
-67.000000
31
0.0
0
LINE
8
0
6
CONTINUOUS
10
-50.000000
20
-71.000000
30
0.0
11
-49.500000
21
-71.000000
31
0.0
0
LINE
8
0
6
CONTINUOUS
10
-50.000000
20
-67.000000
30
0.0
11
-50.000000
21
-71.000000
31
0.0
0
LINE
8
0
6
CONTINUOUS
10
-49.500000
20
-67.000000
30
0.0
11
-50.000000
21
-67.000000
31
0.0
0
LINE
8
0
6
CONTINUOUS
10
9.493000
20
-67.000000
30
0.0
11
10.963000
21
-67.000000
31
0.0
0
LINE
8
0
6
CONTINUOUS
10
10.963000
20
-67.000000
30
0.0
11
9.493000
21
-67.000000
31
0.0
0
LINE
8
0
6
CONTINUOUS
10
4.566000
20
-67.000000
30
0.0
11
2.806000
21
-67.000000
31
0.0
0
LINE
8
0
6
CONTINUOUS
10
6.278000
20
-67.000000
30
0.0
11
7.926000
21
-67.000000
31
0.0
0
LINE
8
0
6
CONTINUOUS
10
4.414000
20
-67.000000
30
0.0
11
2.713000
21
-67.000000
31
0.0
0
LINE
8
0
6
CONTINUOUS
10
6.278000
20
-67.000000
30
0.0
11
4.566000
21
-67.000000
31
0.0
0
LINE
8
0
6
CONTINUOUS
10
7.926000
20
-67.000000
30
0.0
11
9.493000
21
-67.000000
31
0.0
0
LINE
8
0
6
CONTINUOUS
10
6.069000
20
-67.000000
30
0.0
11
4.414000
21
-67.000000
31
0.0
0
LINE
8
0
6
CONTINUOUS
10
7.664000
20
-67.000000
30
0.0
11
6.069000
21
-67.000000
31
0.0
0
LINE
8
0
6
CONTINUOUS
10
9.493000
20
-67.000000
30
0.0
11
7.926000
21
-67.000000
31
0.0
0
LINE
8
0
6
CONTINUOUS
10
9.177000
20
-67.000000
30
0.0
11
7.664000
21
-67.000000
31
0.0
0
LINE
8
0
6
CONTINUOUS
10
7.926000
20
-67.000000
30
0.0
11
6.278000
21
-67.000000
31
0.0
0
LINE
8
0
6
CONTINUOUS
10
0.985000
20
-67.000000
30
0.0
11
0.000000
21
-67.000000
31
0.0
0
LINE
8
0
6
CONTINUOUS
10
0.000000
20
-67.000000
30
0.0
11
1.018000
21
-67.000000
31
0.0
0
LINE
8
0
6
CONTINUOUS
10
1.018000
20
-67.000000
30
0.0
11
0.000000
21
-67.000000
31
0.0
0
LINE
8
0
6
CONTINUOUS
10
-5.209000
20
-46.138300
30
0.0
11
-6.924000
21
-46.138300
31
0.0
0
LINE
8
0
6
CONTINUOUS
10
-1.645000
20
-46.138300
30
0.0
11
-3.443000
21
-46.138300
31
0.0
0
LINE
8
0
6
CONTINUOUS
10
4.566000
20
-67.000000
30
0.0
11
6.278000
21
-67.000000
31
0.0
0
LINE
8
0
6
CONTINUOUS
10
2.713000
20
-67.000000
30
0.0
11
0.985000
21
-67.000000
31
0.0
0
LINE
8
0
6
CONTINUOUS
10
2.806000
20
-67.000000
30
0.0
11
4.566000
21
-67.000000
31
0.0
0
LINE
8
0
6
CONTINUOUS
10
1.018000
20
-67.000000
30
0.0
11
2.806000
21
-67.000000
31
0.0
0
LINE
8
0
6
CONTINUOUS
10
2.806000
20
-67.000000
30
0.0
11
1.018000
21
-67.000000
31
0.0
0
LINE
8
0
6
CONTINUOUS
10
13.171000
20
-44.609200
30
0.0
11
14.232000
21
-44.609200
31
0.0
0
LINE
8
0
6
CONTINUOUS
10
15.146000
20
-44.609200
30
0.0
11
15.906000
21
-44.609200
31
0.0
0
LINE
8
0
6
CONTINUOUS
10
15.906000
20
-44.609200
30
0.0
11
16.502000
21
-44.609200
31
0.0
0
LINE
8
0
6
CONTINUOUS
10
17.183000
20
-44.609200
30
0.0
11
17.255000
21
-44.609200
31
0.0
0
LINE
8
0
6
CONTINUOUS
10
16.929000
20
-44.609200
30
0.0
11
17.183000
21
-44.609200
31
0.0
0
LINE
8
0
6
CONTINUOUS
10
16.502000
20
-44.609200
30
0.0
11
16.929000
21
-44.609200
31
0.0
0
LINE
8
0
6
CONTINUOUS
10
15.906000
20
-44.609200
30
0.0
11
15.146000
21
-44.609200
31
0.0
0
LINE
8
0
6
CONTINUOUS
10
16.502000
20
-44.609200
30
0.0
11
15.906000
21
-44.609200
31
0.0
0
LINE
8
0
6
CONTINUOUS
10
16.929000
20
-44.609200
30
0.0
11
16.502000
21
-44.609200
31
0.0
0
LINE
8
0
6
CONTINUOUS
10
17.183000
20
-44.609200
30
0.0
11
16.929000
21
-44.609200
31
0.0
0
LINE
8
0
6
CONTINUOUS
10
17.255000
20
-44.609200
30
0.0
11
17.183000
21
-44.609200
31
0.0
0
LINE
8
0
6
CONTINUOUS
10
15.146000
20
-44.609200
30
0.0
11
14.232000
21
-44.609200
31
0.0
0
LINE
8
0
6
CONTINUOUS
10
14.232000
20
-44.609200
30
0.0
11
13.171000
21
-44.609200
31
0.0
0
LINE
8
0
6
CONTINUOUS
10
14.232000
20
-44.609200
30
0.0
11
15.146000
21
-44.609200
31
0.0
0
LINE
8
0
6
CONTINUOUS
10
-14.232000
20
-44.609200
30
0.0
11
-13.171000
21
-44.609200
31
0.0
0
LINE
8
0
6
CONTINUOUS
10
-12.962000
20
-46.138300
30
0.0
11
-14.194000
21
-46.138300
31
0.0
0
LINE
8
0
6
CONTINUOUS
10
-11.606000
20
-46.138300
30
0.0
11
-12.962000
21
-46.138300
31
0.0
0
LINE
8
0
6
CONTINUOUS
10
-10.138000
20
-46.138300
30
0.0
11
-11.606000
21
-46.138300
31
0.0
0
LINE
8
0
6
CONTINUOUS
10
-15.906000
20
-44.609200
30
0.0
11
-15.146000
21
-44.609200
31
0.0
0
LINE
8
0
6
CONTINUOUS
10
-16.502000
20
-44.609200
30
0.0
11
-15.906000
21
-44.609200
31
0.0
0
LINE
8
0
6
CONTINUOUS
10
-17.254000
20
-44.609200
30
0.0
11
-17.183000
21
-44.609200
31
0.0
0
LINE
8
0
6
CONTINUOUS
10
-16.929000
20
-44.609200
30
0.0
11
-16.502000
21
-44.609200
31
0.0
0
LINE
8
0
6
CONTINUOUS
10
-17.183000
20
-44.609200
30
0.0
11
-16.929000
21
-44.609200
31
0.0
0
LINE
8
0
6
CONTINUOUS
10
-15.146000
20
-44.609200
30
0.0
11
-14.232000
21
-44.609200
31
0.0
0
LINE
8
0
6
CONTINUOUS
10
-8.573000
20
-46.138300
30
0.0
11
-10.138000
21
-46.138300
31
0.0
0
LINE
8
0
6
CONTINUOUS
10
-6.924000
20
-46.138300
30
0.0
11
-8.573000
21
-46.138300
31
0.0
0
LINE
8
0
6
CONTINUOUS
10
-17.183000
20
-44.609200
30
0.0
11
-17.254000
21
-44.609200
31
0.0
0
LINE
8
0
6
CONTINUOUS
10
-16.929000
20
-44.609200
30
0.0
11
-17.183000
21
-44.609200
31
0.0
0
LINE
8
0
6
CONTINUOUS
10
-16.502000
20
-44.609200
30
0.0
11
-16.929000
21
-44.609200
31
0.0
0
LINE
8
0
6
CONTINUOUS
10
-15.906000
20
-44.609200
30
0.0
11
-16.502000
21
-44.609200
31
0.0
0
LINE
8
0
6
CONTINUOUS
10
-13.171000
20
-44.609200
30
0.0
11
-14.232000
21
-44.609200
31
0.0
0
LINE
8
0
6
CONTINUOUS
10
-14.232000
20
-44.609200
30
0.0
11
-15.146000
21
-44.609200
31
0.0
0
LINE
8
0
6
CONTINUOUS
10
-15.146000
20
-44.609200
30
0.0
11
-15.906000
21
-44.609200
31
0.0
0
LINE
8
0
6
CONTINUOUS
10
0.000000
20
-22.000000
30
0.0
11
0.821000
21
-22.000000
31
0.0
0
LINE
8
0
6
CONTINUOUS
10
0.821000
20
-22.000000
30
0.0
11
2.754000
21
-22.000000
31
0.0
0
LINE
8
0
6
CONTINUOUS
10
1.221000
20
-39.818700
30
0.0
11
2.349000
21
-36.737500
31
0.0
0
LINE
8
0
6
CONTINUOUS
10
0.467000
20
-36.737500
30
0.0
11
1.221000
21
-39.818700
31
0.0
0
LINE
8
0
6
CONTINUOUS
10
2.349000
20
-36.737500
30
0.0
11
0.467000
21
-36.737500
31
0.0
0
LINE
8
0
6
CONTINUOUS
10
1.911000
20
-41.696300
30
0.0
11
1.747000
21
-41.399200
31
0.0
0
LINE
8
0
6
CONTINUOUS
10
0.324000
20
-41.399200
30
0.0
11
1.911000
21
-41.696300
31
0.0
0
LINE
8
0
6
CONTINUOUS
10
1.747000
20
-41.399200
30
0.0
11
0.324000
21
-41.399200
31
0.0
0
LINE
8
0
6
CONTINUOUS
10
0.821000
20
-22.000000
30
0.0
11
0.000000
21
-22.000000
31
0.0
0
LINE
8
0
6
CONTINUOUS
10
2.754000
20
-22.000000
30
0.0
11
0.821000
21
-22.000000
31
0.0
0
LINE
8
0
6
CONTINUOUS
10
6.432000
20
-22.000000
30
0.0
11
8.108000
21
-22.000000
31
0.0
0
LINE
8
0
6
CONTINUOUS
10
6.432000
20
-22.000000
30
0.0
11
4.637000
21
-22.000000
31
0.0
0
LINE
8
0
6
CONTINUOUS
10
8.108000
20
-22.000000
30
0.0
11
6.432000
21
-22.000000
31
0.0
0
LINE
8
0
6
CONTINUOUS
10
2.754000
20
-22.000000
30
0.0
11
4.637000
21
-22.000000
31
0.0
0
LINE
8
0
6
CONTINUOUS
10
4.637000
20
-22.000000
30
0.0
11
6.432000
21
-22.000000
31
0.0
0
LINE
8
0
6
CONTINUOUS
10
4.637000
20
-22.000000
30
0.0
11
2.754000
21
-22.000000
31
0.0
0
LINE
8
0
6
CONTINUOUS
10
2.826000
20
-45.155400
30
0.0
11
1.026000
21
-45.155400
31
0.0
0
LINE
8
0
6
CONTINUOUS
10
1.026000
20
-45.992000
30
0.0
11
2.826000
21
-45.992000
31
0.0
0
LINE
8
0
6
CONTINUOUS
10
1.026000
20
-45.155400
30
0.0
11
2.826000
21
-45.155400
31
0.0
0
LINE
8
0
6
CONTINUOUS
10
2.728000
20
-44.609200
30
0.0
11
0.990000
21
-44.609200
31
0.0
0
LINE
8
0
6
CONTINUOUS
10
1.645000
20
-46.138300
30
0.0
11
2.826000
21
-45.992000
31
0.0
0
LINE
8
0
6
CONTINUOUS
10
1.026000
20
-45.992000
30
0.0
11
1.645000
21
-46.138300
31
0.0
0
LINE
8
0
6
CONTINUOUS
10
2.826000
20
-45.992000
30
0.0
11
1.026000
21
-45.992000
31
0.0
0
LINE
8
0
6
CONTINUOUS
10
2.826000
20
-45.992000
30
0.0
11
1.026000
21
-45.992000
31
0.0
0
LINE
8
0
6
CONTINUOUS
10
1.645000
20
-54.657800
30
0.0
11
3.443000
21
-54.657800
31
0.0
0
LINE
8
0
6
CONTINUOUS
10
3.443000
20
-46.138300
30
0.0
11
1.645000
21
-46.138300
31
0.0
0
LINE
8
0
6
CONTINUOUS
10
0.000000
20
-46.138300
30
0.0
11
1.645000
21
-46.138300
31
0.0
0
LINE
8
0
6
CONTINUOUS
10
1.026000
20
-45.992000
30
0.0
11
0.000000
21
-45.992000
31
0.0
0
LINE
8
0
6
CONTINUOUS
10
1.026000
20
-45.155400
30
0.0
11
0.000000
21
-45.155400
31
0.0
0
LINE
8
0
6
CONTINUOUS
10
0.000000
20
-45.992000
30
0.0
11
1.026000
21
-45.992000
31
0.0
0
LINE
8
0
6
CONTINUOUS
10
0.000000
20
-45.155400
30
0.0
11
1.026000
21
-45.155400
31
0.0
0
LINE
8
0
6
CONTINUOUS
10
0.990000
20
-44.609200
30
0.0
11
0.000000
21
-44.609200
31
0.0
0
LINE
8
0
6
CONTINUOUS
10
1.645000
20
-54.657800
30
0.0
11
0.000000
21
-54.657800
31
0.0
0
LINE
8
0
6
CONTINUOUS
10
3.443000
20
-54.657800
30
0.0
11
1.645000
21
-54.657800
31
0.0
0
LINE
8
0
6
CONTINUOUS
10
1.645000
20
-46.138300
30
0.0
11
0.000000
21
-46.138300
31
0.0
0
LINE
8
0
6
CONTINUOUS
10
0.000000
20
-54.657800
30
0.0
11
1.645000
21
-54.657800
31
0.0
0
LINE
8
0
6
CONTINUOUS
10
3.421000
20
-66.453900
30
0.0
11
1.634000
21
-66.453900
31
0.0
0
LINE
8
0
6
CONTINUOUS
10
1.018000
20
-67.000000
30
0.0
11
2.806000
21
-67.000000
31
0.0
0
LINE
8
0
6
CONTINUOUS
10
1.634000
20
-66.453900
30
0.0
11
0.000000
21
-66.453900
31
0.0
0
LINE
8
0
6
CONTINUOUS
10
0.000000
20
-67.000000
30
0.0
11
1.018000
21
-67.000000
31
0.0
0
LINE
8
0
6
CONTINUOUS
10
1.018000
20
-67.000000
30
0.0
11
0.000000
21
-67.000000
31
0.0
0
LINE
8
0
6
CONTINUOUS
10
0.000000
20
-67.000000
30
0.0
11
0.985000
21
-67.000000
31
0.0
0
LINE
8
0
6
CONTINUOUS
10
0.000000
20
-66.453900
30
0.0
11
1.634000
21
-66.453900
31
0.0
0
LINE
8
0
6
CONTINUOUS
10
1.634000
20
-66.453900
30
0.0
11
3.421000
21
-66.453900
31
0.0
0
LINE
8
0
6
CONTINUOUS
10
4.598000
20
-45.155400
30
0.0
11
6.323000
21
-45.155400
31
0.0
0
LINE
8
0
6
CONTINUOUS
10
6.103000
20
-44.609200
30
0.0
11
4.438000
21
-44.609200
31
0.0
0
LINE
8
0
6
CONTINUOUS
10
6.323000
20
-45.155400
30
0.0
11
4.598000
21
-45.155400
31
0.0
0
LINE
8
0
6
CONTINUOUS
10
4.598000
20
-45.992000
30
0.0
11
6.323000
21
-45.992000
31
0.0
0
LINE
8
0
6
CONTINUOUS
10
8.573000
20
-46.138300
30
0.0
11
6.924000
21
-46.138300
31
0.0
0
LINE
8
0
6
CONTINUOUS
10
6.924000
20
-54.657800
30
0.0
11
8.573000
21
-54.657800
31
0.0
0
LINE
8
0
6
CONTINUOUS
10
7.982000
20
-45.155400
30
0.0
11
6.323000
21
-45.155400
31
0.0
0
LINE
8
0
6
CONTINUOUS
10
6.323000
20
-45.992000
30
0.0
11
7.982000
21
-45.992000
31
0.0
0
LINE
8
0
6
CONTINUOUS
10
5.209000
20
-46.138300
30
0.0
11
6.924000
21
-46.138300
31
0.0
0
LINE
8
0
6
CONTINUOUS
10
7.982000
20
-45.992000
30
0.0
11
6.323000
21
-45.992000
31
0.0
0
LINE
8
0
6
CONTINUOUS
10
6.323000
20
-45.155400
30
0.0
11
7.982000
21
-45.155400
31
0.0
0
LINE
8
0
6
CONTINUOUS
10
7.705000
20
-44.609200
30
0.0
11
6.103000
21
-44.609200
31
0.0
0
LINE
8
0
6
CONTINUOUS
10
6.924000
20
-46.138300
30
0.0
11
5.209000
21
-46.138300
31
0.0
0
LINE
8
0
6
CONTINUOUS
10
5.209000
20
-54.657800
30
0.0
11
6.924000
21
-54.657800
31
0.0
0
LINE
8
0
6
CONTINUOUS
10
8.573000
20
-54.657800
30
0.0
11
6.924000
21
-54.657800
31
0.0
0
LINE
8
0
6
CONTINUOUS
10
8.514000
20
-66.453900
30
0.0
11
6.878000
21
-66.453900
31
0.0
0
LINE
8
0
6
CONTINUOUS
10
6.278000
20
-67.000000
30
0.0
11
7.926000
21
-67.000000
31
0.0
0
LINE
8
0
6
CONTINUOUS
10
6.878000
20
-66.453900
30
0.0
11
5.174000
21
-66.453900
31
0.0
0
LINE
8
0
6
CONTINUOUS
10
4.566000
20
-67.000000
30
0.0
11
6.278000
21
-67.000000
31
0.0
0
LINE
8
0
6
CONTINUOUS
10
5.174000
20
-66.453900
30
0.0
11
6.878000
21
-66.453900
31
0.0
0
LINE
8
0
6
CONTINUOUS
10
6.878000
20
-66.453900
30
0.0
11
8.514000
21
-66.453900
31
0.0
0
LINE
8
0
6
CONTINUOUS
10
6.103000
20
-44.609200
30
0.0
11
7.705000
21
-44.609200
31
0.0
0
LINE
8
0
6
CONTINUOUS
10
4.438000
20
-44.609200
30
0.0
11
6.103000
21
-44.609200
31
0.0
0
LINE
8
0
6
CONTINUOUS
10
2.728000
20
-44.609200
30
0.0
11
4.438000
21
-44.609200
31
0.0
0
LINE
8
0
6
CONTINUOUS
10
2.713000
20
-67.000000
30
0.0
11
4.414000
21
-67.000000
31
0.0
0
LINE
8
0
6
CONTINUOUS
10
7.926000
20
-67.000000
30
0.0
11
6.278000
21
-67.000000
31
0.0
0
LINE
8
0
6
CONTINUOUS
10
1.645000
20
-46.138300
30
0.0
11
3.443000
21
-46.138300
31
0.0
0
LINE
8
0
6
CONTINUOUS
10
4.598000
20
-45.992000
30
0.0
11
2.826000
21
-45.992000
31
0.0
0
LINE
8
0
6
CONTINUOUS
10
4.598000
20
-45.155400
30
0.0
11
2.826000
21
-45.155400
31
0.0
0
LINE
8
0
6
CONTINUOUS
10
2.826000
20
-45.992000
30
0.0
11
4.598000
21
-45.992000
31
0.0
0
LINE
8
0
6
CONTINUOUS
10
2.826000
20
-45.155400
30
0.0
11
4.598000
21
-45.155400
31
0.0
0
LINE
8
0
6
CONTINUOUS
10
4.438000
20
-44.609200
30
0.0
11
2.728000
21
-44.609200
31
0.0
0
LINE
8
0
6
CONTINUOUS
10
3.443000
20
-46.138300
30
0.0
11
5.209000
21
-46.138300
31
0.0
0
LINE
8
0
6
CONTINUOUS
10
6.323000
20
-45.992000
30
0.0
11
4.598000
21
-45.992000
31
0.0
0
LINE
8
0
6
CONTINUOUS
10
6.924000
20
-54.657800
30
0.0
11
5.209000
21
-54.657800
31
0.0
0
LINE
8
0
6
CONTINUOUS
10
5.209000
20
-54.657800
30
0.0
11
3.443000
21
-54.657800
31
0.0
0
LINE
8
0
6
CONTINUOUS
10
3.443000
20
-54.657800
30
0.0
11
5.209000
21
-54.657800
31
0.0
0
LINE
8
0
6
CONTINUOUS
10
5.209000
20
-46.138300
30
0.0
11
3.443000
21
-46.138300
31
0.0
0
LINE
8
0
6
CONTINUOUS
10
2.806000
20
-67.000000
30
0.0
11
1.018000
21
-67.000000
31
0.0
0
LINE
8
0
6
CONTINUOUS
10
4.566000
20
-67.000000
30
0.0
11
2.806000
21
-67.000000
31
0.0
0
LINE
8
0
6
CONTINUOUS
10
5.174000
20
-66.453900
30
0.0
11
3.421000
21
-66.453900
31
0.0
0
LINE
8
0
6
CONTINUOUS
10
2.806000
20
-67.000000
30
0.0
11
4.566000
21
-67.000000
31
0.0
0
LINE
8
0
6
CONTINUOUS
10
0.985000
20
-67.000000
30
0.0
11
2.713000
21
-67.000000
31
0.0
0
LINE
8
0
6
CONTINUOUS
10
6.278000
20
-67.000000
30
0.0
11
4.566000
21
-67.000000
31
0.0
0
LINE
8
0
6
CONTINUOUS
10
3.421000
20
-66.453900
30
0.0
11
5.174000
21
-66.453900
31
0.0
0
LINE
8
0
6
CONTINUOUS
10
7.705000
20
-44.609200
30
0.0
11
9.228000
21
-44.609200
31
0.0
0
LINE
8
0
6
CONTINUOUS
10
0.990000
20
-44.609200
30
0.0
11
2.728000
21
-44.609200
31
0.0
0
LINE
8
0
6
CONTINUOUS
10
0.000000
20
-44.609200
30
0.0
11
0.990000
21
-44.609200
31
0.0
0
LINE
8
0
6
CONTINUOUS
10
10.450000
20
-35.965300
30
0.0
11
10.451000
21
-36.301700
31
0.0
0
LINE
8
0
6
CONTINUOUS
10
10.450000
20
-34.346600
30
0.0
11
10.450000
21
-35.965300
31
0.0
0
LINE
8
0
6
CONTINUOUS
10
10.454000
20
-36.603200
30
0.0
11
10.451000
21
-36.301700
31
0.0
0
LINE
8
0
6
CONTINUOUS
10
10.979000
20
-22.000000
30
0.0
11
12.120000
21
-22.000000
31
0.0
0
LINE
8
0
6
CONTINUOUS
10
13.035000
20
-22.000000
30
0.0
11
13.707000
21
-22.000000
31
0.0
0
LINE
8
0
6
CONTINUOUS
10
12.120000
20
-22.000000
30
0.0
11
13.035000
21
-22.000000
31
0.0
0
LINE
8
0
6
CONTINUOUS
10
13.707000
20
-22.000000
30
0.0
11
14.124000
21
-22.000000
31
0.0
0
LINE
8
0
6
CONTINUOUS
10
10.542000
20
-39.641800
30
0.0
11
10.526000
21
-39.413500
31
0.0
0
LINE
8
0
6
CONTINUOUS
10
10.976000
20
-41.844500
30
0.0
11
10.444000
21
-41.399200
31
0.0
0
LINE
8
0
6
CONTINUOUS
10
10.444000
20
-41.399200
30
0.0
11
10.135000
21
-41.044200
31
0.0
0
LINE
8
0
6
CONTINUOUS
10
10.504000
20
-39.734300
30
0.0
11
10.555000
21
-39.682600
31
0.0
0
LINE
8
0
6
CONTINUOUS
10
10.404000
20
-39.818700
30
0.0
11
10.504000
21
-39.734300
31
0.0
0
LINE
8
0
6
CONTINUOUS
10
10.555000
20
-39.682600
30
0.0
11
10.542000
21
-39.641800
31
0.0
0
LINE
8
0
6
CONTINUOUS
10
10.135000
20
-41.044200
30
0.0
11
10.024000
21
-40.617200
31
0.0
0
LINE
8
0
6
CONTINUOUS
10
10.113000
20
-40.185700
30
0.0
11
10.290000
21
-39.966400
31
0.0
0
LINE
8
0
6
CONTINUOUS
10
10.290000
20
-39.966400
30
0.0
11
10.404000
21
-39.818700
31
0.0
0
LINE
8
0
6
CONTINUOUS
10
10.024000
20
-40.617200
30
0.0
11
10.113000
21
-40.185700
31
0.0
0
LINE
8
0
6
CONTINUOUS
10
12.314000
20
-43.184900
30
0.0
11
10.976000
21
-41.844500
31
0.0
0
LINE
8
0
6
CONTINUOUS
10
10.526000
20
-39.413500
30
0.0
11
10.506000
21
-38.931700
31
0.0
0
LINE
8
0
6
CONTINUOUS
10
13.707000
20
-22.000000
30
0.0
11
13.035000
21
-22.000000
31
0.0
0
LINE
8
0
6
CONTINUOUS
10
13.374000
20
-33.669400
30
0.0
11
13.861000
21
-33.558000
31
0.0
0
LINE
8
0
6
CONTINUOUS
10
14.278000
20
-22.000000
30
0.0
11
14.124000
21
-22.000000
31
0.0
0
LINE
8
0
6
CONTINUOUS
10
14.278000
20
-33.468400
30
0.0
11
14.278000
21
-22.000000
31
0.0
0
LINE
8
0
6
CONTINUOUS
10
14.165000
20
-33.491400
30
0.0
11
14.278000
21
-33.468400
31
0.0
0
LINE
8
0
6
CONTINUOUS
10
13.861000
20
-33.558000
30
0.0
11
14.165000
21
-33.491400
31
0.0
0
LINE
8
0
6
CONTINUOUS
10
14.124000
20
-22.000000
30
0.0
11
13.707000
21
-22.000000
31
0.0
0
LINE
8
0
6
CONTINUOUS
10
12.120000
20
-22.000000
30
0.0
11
10.979000
21
-22.000000
31
0.0
0
LINE
8
0
6
CONTINUOUS
10
11.298000
20
-34.148900
30
0.0
11
12.054000
21
-33.974200
31
0.0
0
LINE
8
0
6
CONTINUOUS
10
12.710000
20
-33.822400
30
0.0
11
13.374000
21
-33.669400
31
0.0
0
LINE
8
0
6
CONTINUOUS
10
13.035000
20
-22.000000
30
0.0
11
12.120000
21
-22.000000
31
0.0
0
LINE
8
0
6
CONTINUOUS
10
12.054000
20
-33.974200
30
0.0
11
12.710000
21
-33.822400
31
0.0
0
LINE
8
0
6
CONTINUOUS
10
10.450000
20
-34.346600
30
0.0
11
11.298000
21
-34.148900
31
0.0
0
LINE
8
0
6
CONTINUOUS
10
10.979000
20
-22.000000
30
0.0
11
9.633000
21
-22.000000
31
0.0
0
LINE
8
0
6
CONTINUOUS
10
10.555000
20
-34.346600
30
0.0
11
11.003000
21
-34.241000
31
0.0
0
LINE
8
0
6
CONTINUOUS
10
10.450000
20
-34.346600
30
0.0
11
10.555000
21
-34.346600
31
0.0
0
LINE
8
0
6
CONTINUOUS
10
11.003000
20
-34.241000
30
0.0
11
11.911000
21
-34.027100
31
0.0
0
LINE
8
0
6
CONTINUOUS
10
11.911000
20
-34.027100
30
0.0
11
13.086000
21
-33.749800
31
0.0
0
LINE
8
0
6
CONTINUOUS
10
13.374000
20
-33.669400
30
0.0
11
12.710000
21
-33.822400
31
0.0
0
LINE
8
0
6
CONTINUOUS
10
13.861000
20
-33.558000
30
0.0
11
13.374000
21
-33.669400
31
0.0
0
LINE
8
0
6
CONTINUOUS
10
13.086000
20
-33.749800
30
0.0
11
14.271000
21
-33.470600
31
0.0
0
LINE
8
0
6
CONTINUOUS
10
14.165000
20
-33.491400
30
0.0
11
13.861000
21
-33.558000
31
0.0
0
LINE
8
0
6
CONTINUOUS
10
10.485000
20
-38.147500
30
0.0
11
10.506000
21
-38.931700
31
0.0
0
LINE
8
0
6
CONTINUOUS
10
10.471000
20
-37.525000
30
0.0
11
10.485000
21
-38.147500
31
0.0
0
LINE
8
0
6
CONTINUOUS
10
10.555000
20
-35.509400
30
0.0
11
10.555000
21
-35.340400
31
0.0
0
LINE
8
0
6
CONTINUOUS
10
10.555000
20
-39.682600
30
0.0
11
10.555000
21
-39.573000
31
0.0
0
LINE
8
0
6
CONTINUOUS
10
10.542000
20
-39.641800
30
0.0
11
10.555000
21
-39.682600
31
0.0
0
LINE
8
0
6
CONTINUOUS
10
10.555000
20
-36.492500
30
0.0
11
10.555000
21
-35.509400
31
0.0
0
LINE
8
0
6
CONTINUOUS
10
10.555000
20
-35.340400
30
0.0
11
10.555000
21
-34.346600
31
0.0
0
LINE
8
0
6
CONTINUOUS
10
10.555000
20
-34.346600
30
0.0
11
10.450000
21
-34.346600
31
0.0
0
LINE
8
0
6
CONTINUOUS
10
10.526000
20
-39.413500
30
0.0
11
10.542000
21
-39.641800
31
0.0
0
LINE
8
0
6
CONTINUOUS
10
10.506000
20
-38.931700
30
0.0
11
10.526000
21
-39.413500
31
0.0
0
LINE
8
0
6
CONTINUOUS
10
10.555000
20
-39.573000
30
0.0
11
10.555000
21
-38.069100
31
0.0
0
LINE
8
0
6
CONTINUOUS
10
10.555000
20
-38.069100
30
0.0
11
10.555000
21
-36.492500
31
0.0
0
LINE
8
0
6
CONTINUOUS
10
12.054000
20
-33.974200
30
0.0
11
11.298000
21
-34.148900
31
0.0
0
LINE
8
0
6
CONTINUOUS
10
12.710000
20
-33.822400
30
0.0
11
12.054000
21
-33.974200
31
0.0
0
LINE
8
0
6
CONTINUOUS
10
11.298000
20
-34.148900
30
0.0
11
10.450000
21
-34.346600
31
0.0
0
LINE
8
0
6
CONTINUOUS
10
10.456000
20
-36.737500
30
0.0
11
10.471000
21
-37.525000
31
0.0
0
LINE
8
0
6
CONTINUOUS
10
10.456000
20
-36.737500
30
0.0
11
10.454000
21
-36.603200
31
0.0
0
LINE
8
0
6
CONTINUOUS
10
10.454000
20
-36.603200
30
0.0
11
10.456000
21
-36.737500
31
0.0
0
LINE
8
0
6
CONTINUOUS
10
10.451000
20
-36.301700
30
0.0
11
10.454000
21
-36.603200
31
0.0
0
LINE
8
0
6
CONTINUOUS
10
14.744000
20
-45.155400
30
0.0
11
13.645000
21
-45.155400
31
0.0
0
LINE
8
0
6
CONTINUOUS
10
13.645000
20
-45.992000
30
0.0
11
14.744000
21
-45.992000
31
0.0
0
LINE
8
0
6
CONTINUOUS
10
13.645000
20
-45.155400
30
0.0
11
14.744000
21
-45.155400
31
0.0
0
LINE
8
0
6
CONTINUOUS
10
14.232000
20
-44.609200
30
0.0
11
13.171000
21
-44.609200
31
0.0
0
LINE
8
0
6
CONTINUOUS
10
12.962000
20
-46.138300
30
0.0
11
14.194000
21
-46.138300
31
0.0
0
LINE
8
0
6
CONTINUOUS
10
14.744000
20
-45.992000
30
0.0
11
13.645000
21
-45.992000
31
0.0
0
LINE
8
0
6
CONTINUOUS
10
13.645000
20
-45.155400
30
0.0
11
12.406000
21
-45.155400
31
0.0
0
LINE
8
0
6
CONTINUOUS
10
12.406000
20
-45.992000
30
0.0
11
13.645000
21
-45.992000
31
0.0
0
LINE
8
0
6
CONTINUOUS
10
14.194000
20
-54.657800
30
0.0
11
12.962000
21
-54.657800
31
0.0
0
LINE
8
0
6
CONTINUOUS
10
14.194000
20
-46.138300
30
0.0
11
12.962000
21
-46.138300
31
0.0
0
LINE
8
0
6
CONTINUOUS
10
12.962000
20
-54.657800
30
0.0
11
14.194000
21
-54.657800
31
0.0
0
LINE
8
0
6
CONTINUOUS
10
12.962000
20
-46.138300
30
0.0
11
11.606000
21
-46.138300
31
0.0
0
LINE
8
0
6
CONTINUOUS
10
11.606000
20
-54.657800
30
0.0
11
12.962000
21
-54.657800
31
0.0
0
LINE
8
0
6
CONTINUOUS
10
12.406000
20
-45.155400
30
0.0
11
11.039000
21
-45.155400
31
0.0
0
LINE
8
0
6
CONTINUOUS
10
11.039000
20
-45.992000
30
0.0
11
12.406000
21
-45.992000
31
0.0
0
LINE
8
0
6
CONTINUOUS
10
11.039000
20
-45.155400
30
0.0
11
12.406000
21
-45.155400
31
0.0
0
LINE
8
0
6
CONTINUOUS
10
11.975000
20
-44.609200
30
0.0
11
10.656000
21
-44.609200
31
0.0
0
LINE
8
0
6
CONTINUOUS
10
11.606000
20
-46.138300
30
0.0
11
12.962000
21
-46.138300
31
0.0
0
LINE
8
0
6
CONTINUOUS
10
13.645000
20
-45.992000
30
0.0
11
12.406000
21
-45.992000
31
0.0
0
LINE
8
0
6
CONTINUOUS
10
12.962000
20
-54.657800
30
0.0
11
11.606000
21
-54.657800
31
0.0
0
LINE
8
0
6
CONTINUOUS
10
12.406000
20
-45.155400
30
0.0
11
13.645000
21
-45.155400
31
0.0
0
LINE
8
0
6
CONTINUOUS
10
13.171000
20
-44.609200
30
0.0
11
11.975000
21
-44.609200
31
0.0
0
LINE
8
0
6
CONTINUOUS
10
10.139000
20
-46.138300
30
0.0
11
11.606000
21
-46.138300
31
0.0
0
LINE
8
0
6
CONTINUOUS
10
12.406000
20
-45.992000
30
0.0
11
11.039000
21
-45.992000
31
0.0
0
LINE
8
0
6
CONTINUOUS
10
11.606000
20
-46.138300
30
0.0
11
10.139000
21
-46.138300
31
0.0
0
LINE
8
0
6
CONTINUOUS
10
10.139000
20
-54.657800
30
0.0
11
11.606000
21
-54.657800
31
0.0
0
LINE
8
0
6
CONTINUOUS
10
11.606000
20
-54.657800
30
0.0
11
10.139000
21
-54.657800
31
0.0
0
LINE
8
0
6
CONTINUOUS
10
11.039000
20
-45.155400
30
0.0
11
9.560000
21
-45.155400
31
0.0
0
LINE
8
0
6
CONTINUOUS
10
9.560000
20
-45.992000
30
0.0
11
11.039000
21
-45.992000
31
0.0
0
LINE
8
0
6
CONTINUOUS
10
14.642000
20
-67.000000
30
0.0
11
13.551000
21
-67.000000
31
0.0
0
LINE
8
0
6
CONTINUOUS
10
14.100000
20
-66.453900
30
0.0
11
12.875000
21
-66.453900
31
0.0
0
LINE
8
0
6
CONTINUOUS
10
12.320000
20
-67.000000
30
0.0
11
13.551000
21
-67.000000
31
0.0
0
LINE
8
0
6
CONTINUOUS
10
12.320000
20
-67.000000
30
0.0
11
10.963000
21
-67.000000
31
0.0
0
LINE
8
0
6
CONTINUOUS
10
12.875000
20
-66.453900
30
0.0
11
11.528000
21
-66.453900
31
0.0
0
LINE
8
0
6
CONTINUOUS
10
10.963000
20
-67.000000
30
0.0
11
12.320000
21
-67.000000
31
0.0
0
LINE
8
0
6
CONTINUOUS
10
13.551000
20
-67.000000
30
0.0
11
12.320000
21
-67.000000
31
0.0
0
LINE
8
0
6
CONTINUOUS
10
11.528000
20
-66.453900
30
0.0
11
10.070000
21
-66.453900
31
0.0
0
LINE
8
0
6
CONTINUOUS
10
9.493000
20
-67.000000
30
0.0
11
10.963000
21
-67.000000
31
0.0
0
LINE
8
0
6
CONTINUOUS
10
10.070000
20
-66.453900
30
0.0
11
11.528000
21
-66.453900
31
0.0
0
LINE
8
0
6
CONTINUOUS
10
12.875000
20
-66.453900
30
0.0
11
14.100000
21
-66.453900
31
0.0
0
LINE
8
0
6
CONTINUOUS
10
11.528000
20
-66.453900
30
0.0
11
12.875000
21
-66.453900
31
0.0
0
LINE
8
0
6
CONTINUOUS
10
14.194000
20
-46.138300
30
0.0
11
15.289000
21
-46.138300
31
0.0
0
LINE
8
0
6
CONTINUOUS
10
15.289000
20
-54.657800
30
0.0
11
14.194000
21
-54.657800
31
0.0
0
LINE
8
0
6
CONTINUOUS
10
15.289000
20
-46.138300
30
0.0
11
14.194000
21
-46.138300
31
0.0
0
LINE
8
0
6
CONTINUOUS
10
14.194000
20
-54.657800
30
0.0
11
15.289000
21
-54.657800
31
0.0
0
LINE
8
0
6
CONTINUOUS
10
15.186000
20
-66.453900
30
0.0
11
14.100000
21
-66.453900
31
0.0
0
LINE
8
0
6
CONTINUOUS
10
13.551000
20
-67.000000
30
0.0
11
14.642000
21
-67.000000
31
0.0
0
LINE
8
0
6
CONTINUOUS
10
14.100000
20
-66.453900
30
0.0
11
15.186000
21
-66.453900
31
0.0
0
LINE
8
0
6
CONTINUOUS
10
15.906000
20
-44.609200
30
0.0
11
15.146000
21
-44.609200
31
0.0
0
LINE
8
0
6
CONTINUOUS
10
15.691000
20
-45.155400
30
0.0
11
16.479000
21
-45.155400
31
0.0
0
LINE
8
0
6
CONTINUOUS
10
16.236000
20
-46.138300
30
0.0
11
17.027000
21
-46.138300
31
0.0
0
LINE
8
0
6
CONTINUOUS
10
16.479000
20
-45.992000
30
0.0
11
15.691000
21
-45.992000
31
0.0
0
LINE
8
0
6
CONTINUOUS
10
16.479000
20
-45.155400
30
0.0
11
15.691000
21
-45.155400
31
0.0
0
LINE
8
0
6
CONTINUOUS
10
15.691000
20
-45.992000
30
0.0
11
16.479000
21
-45.992000
31
0.0
0
LINE
8
0
6
CONTINUOUS
10
17.539000
20
-45.155400
30
0.0
11
17.096000
21
-45.155400
31
0.0
0
LINE
8
0
6
CONTINUOUS
10
17.096000
20
-45.992000
30
0.0
11
17.538000
21
-45.992000
31
0.0
0
LINE
8
0
6
CONTINUOUS
10
16.479000
20
-45.155400
30
0.0
11
17.096000
21
-45.155400
31
0.0
0
LINE
8
0
6
CONTINUOUS
10
16.502000
20
-44.609200
30
0.0
11
15.906000
21
-44.609200
31
0.0
0
LINE
8
0
6
CONTINUOUS
10
17.027000
20
-46.138300
30
0.0
11
17.654000
21
-46.138300
31
0.0
0
LINE
8
0
6
CONTINUOUS
10
17.096000
20
-45.992000
30
0.0
11
16.479000
21
-45.992000
31
0.0
0
LINE
8
0
6
CONTINUOUS
10
17.096000
20
-45.155400
30
0.0
11
16.479000
21
-45.155400
31
0.0
0
LINE
8
0
6
CONTINUOUS
10
16.479000
20
-45.992000
30
0.0
11
17.096000
21
-45.992000
31
0.0
0
LINE
8
0
6
CONTINUOUS
10
17.027000
20
-54.657800
30
0.0
11
16.236000
21
-54.657800
31
0.0
0
LINE
8
0
6
CONTINUOUS
10
17.654000
20
-54.657800
30
0.0
11
17.027000
21
-54.657800
31
0.0
0
LINE
8
0
6
CONTINUOUS
10
17.654000
20
-46.138300
30
0.0
11
17.027000
21
-46.138300
31
0.0
0
LINE
8
0
6
CONTINUOUS
10
17.027000
20
-54.657800
30
0.0
11
17.654000
21
-54.657800
31
0.0
0
LINE
8
0
6
CONTINUOUS
10
17.027000
20
-46.138300
30
0.0
11
16.236000
21
-46.138300
31
0.0
0
LINE
8
0
6
CONTINUOUS
10
16.236000
20
-54.657800
30
0.0
11
17.027000
21
-54.657800
31
0.0
0
LINE
8
0
6
CONTINUOUS
10
18.113000
20
-54.657800
30
0.0
11
17.654000
21
-54.657800
31
0.0
0
LINE
8
0
6
CONTINUOUS
10
17.654000
20
-46.138300
30
0.0
11
18.111000
21
-46.138300
31
0.0
0
LINE
8
0
6
CONTINUOUS
10
17.538000
20
-45.992000
30
0.0
11
17.096000
21
-45.992000
31
0.0
0
LINE
8
0
6
CONTINUOUS
10
18.111000
20
-46.138300
30
0.0
11
17.654000
21
-46.138300
31
0.0
0
LINE
8
0
6
CONTINUOUS
10
17.654000
20
-54.657800
30
0.0
11
18.113000
21
-54.657800
31
0.0
0
LINE
8
0
6
CONTINUOUS
10
17.875000
20
-45.155400
30
0.0
11
17.801000
21
-45.155400
31
0.0
0
LINE
8
0
6
CONTINUOUS
10
17.874000
20
-45.992000
30
0.0
11
17.875000
21
-45.155400
31
0.0
0
LINE
8
0
6
CONTINUOUS
10
17.800000
20
-45.992000
30
0.0
11
17.874000
21
-45.992000
31
0.0
0
LINE
8
0
6
CONTINUOUS
10
17.875000
20
-45.155400
30
0.0
11
17.255000
21
-44.609200
31
0.0
0
LINE
8
0
6
CONTINUOUS
10
17.801000
20
-45.155400
30
0.0
11
17.875000
21
-45.155400
31
0.0
0
LINE
8
0
6
CONTINUOUS
10
17.255000
20
-44.609200
30
0.0
11
17.183000
21
-44.609200
31
0.0
0
LINE
8
0
6
CONTINUOUS
10
17.875000
20
-55.422400
30
0.0
11
17.875000
21
-54.657800
31
0.0
0
LINE
8
0
6
CONTINUOUS
10
18.500000
20
-46.138300
30
0.0
11
18.138000
21
-46.052900
31
0.0
0
LINE
8
0
6
CONTINUOUS
10
18.394000
20
-46.138300
30
0.0
11
18.500000
21
-46.138300
31
0.0
0
LINE
8
0
6
CONTINUOUS
10
18.376000
20
-56.179200
30
0.0
11
18.088000
21
-55.738800
31
0.0
0
LINE
8
0
6
CONTINUOUS
10
18.500000
20
-46.138300
30
0.0
11
18.394000
21
-46.138300
31
0.0
0
LINE
8
0
6
CONTINUOUS
10
18.394000
20
-54.657800
30
0.0
11
18.500000
21
-54.657800
31
0.0
0
LINE
8
0
6
CONTINUOUS
10
18.500000
20
-46.138300
30
0.0
11
18.500000
21
-54.657800
31
0.0
0
LINE
8
0
6
CONTINUOUS
10
18.138000
20
-46.052900
30
0.0
11
17.874000
21
-45.992000
31
0.0
0
LINE
8
0
6
CONTINUOUS
10
17.800000
20
-45.992000
30
0.0
11
18.138000
21
-46.052900
31
0.0
0
LINE
8
0
6
CONTINUOUS
10
17.874000
20
-45.992000
30
0.0
11
17.800000
21
-45.992000
31
0.0
0
LINE
8
0
6
CONTINUOUS
10
18.138000
20
-46.052900
30
0.0
11
17.874000
21
-45.992000
31
0.0
0
LINE
8
0
6
CONTINUOUS
10
17.874000
20
-45.992000
30
0.0
11
17.800000
21
-45.992000
31
0.0
0
LINE
8
0
6
CONTINUOUS
10
18.088000
20
-55.738800
30
0.0
11
17.875000
21
-55.422400
31
0.0
0
LINE
8
0
6
CONTINUOUS
10
17.801000
20
-55.422400
30
0.0
11
18.088000
21
-55.738800
31
0.0
0
LINE
8
0
6
CONTINUOUS
10
18.088000
20
-55.738800
30
0.0
11
17.875000
21
-55.422400
31
0.0
0
LINE
8
0
6
CONTINUOUS
10
17.875000
20
-55.422400
30
0.0
11
17.801000
21
-55.422400
31
0.0
0
LINE
8
0
6
CONTINUOUS
10
18.394000
20
-54.657800
30
0.0
11
18.113000
21
-54.657800
31
0.0
0
LINE
8
0
6
CONTINUOUS
10
18.111000
20
-46.138300
30
0.0
11
18.394000
21
-46.138300
31
0.0
0
LINE
8
0
6
CONTINUOUS
10
17.800000
20
-45.992000
30
0.0
11
17.538000
21
-45.992000
31
0.0
0
LINE
8
0
6
CONTINUOUS
10
18.500000
20
-54.657800
30
0.0
11
18.394000
21
-54.657800
31
0.0
0
LINE
8
0
6
CONTINUOUS
10
18.394000
20
-46.138300
30
0.0
11
18.111000
21
-46.138300
31
0.0
0
LINE
8
0
6
CONTINUOUS
10
18.113000
20
-54.657800
30
0.0
11
18.394000
21
-54.657800
31
0.0
0
LINE
8
0
6
CONTINUOUS
10
17.096000
20
-45.155400
30
0.0
11
17.539000
21
-45.155400
31
0.0
0
LINE
8
0
6
CONTINUOUS
10
16.929000
20
-44.609200
30
0.0
11
16.502000
21
-44.609200
31
0.0
0
LINE
8
0
6
CONTINUOUS
10
17.539000
20
-45.155400
30
0.0
11
17.801000
21
-45.155400
31
0.0
0
LINE
8
0
6
CONTINUOUS
10
17.183000
20
-44.609200
30
0.0
11
16.929000
21
-44.609200
31
0.0
0
LINE
8
0
6
CONTINUOUS
10
17.801000
20
-45.155400
30
0.0
11
17.539000
21
-45.155400
31
0.0
0
LINE
8
0
6
CONTINUOUS
10
17.538000
20
-45.992000
30
0.0
11
17.800000
21
-45.992000
31
0.0
0
LINE
8
0
6
CONTINUOUS
10
16.364000
20
-67.000000
30
0.0
11
15.582000
21
-67.000000
31
0.0
0
LINE
8
0
6
CONTINUOUS
10
16.913000
20
-66.453900
30
0.0
11
16.127000
21
-66.453900
31
0.0
0
LINE
8
0
6
CONTINUOUS
10
15.582000
20
-67.000000
30
0.0
11
16.364000
21
-67.000000
31
0.0
0
LINE
8
0
6
CONTINUOUS
10
17.536000
20
-66.453900
30
0.0
11
16.913000
21
-66.453900
31
0.0
0
LINE
8
0
6
CONTINUOUS
10
16.364000
20
-67.000000
30
0.0
11
16.978000
21
-67.000000
31
0.0
0
LINE
8
0
6
CONTINUOUS
10
16.978000
20
-67.000000
30
0.0
11
16.364000
21
-67.000000
31
0.0
0
LINE
8
0
6
CONTINUOUS
10
17.677000
20
-67.000000
30
0.0
11
17.416000
21
-67.000000
31
0.0
0
LINE
8
0
6
CONTINUOUS
10
17.751000
20
-67.000000
30
0.0
11
17.677000
21
-67.000000
31
0.0
0
LINE
8
0
6
CONTINUOUS
10
17.677000
20
-67.000000
30
0.0
11
17.751000
21
-67.000000
31
0.0
0
LINE
8
0
6
CONTINUOUS
10
18.014000
20
-66.773000
30
0.0
11
18.376000
21
-66.453900
31
0.0
0
LINE
8
0
6
CONTINUOUS
10
17.751000
20
-67.000000
30
0.0
11
18.014000
21
-66.773000
31
0.0
0
LINE
8
0
6
CONTINUOUS
10
18.376000
20
-66.453900
30
0.0
11
18.272000
21
-66.453900
31
0.0
0
LINE
8
0
6
CONTINUOUS
10
18.272000
20
-66.453900
30
0.0
11
17.677000
21
-67.000000
31
0.0
0
LINE
8
0
6
CONTINUOUS
10
18.376000
20
-66.453900
30
0.0
11
18.272000
21
-66.453900
31
0.0
0
LINE
8
0
6
CONTINUOUS
10
17.677000
20
-67.000000
30
0.0
11
18.376000
21
-66.453900
31
0.0
0
LINE
8
0
6
CONTINUOUS
10
17.991000
20
-66.453900
30
0.0
11
17.536000
21
-66.453900
31
0.0
0
LINE
8
0
6
CONTINUOUS
10
16.978000
20
-67.000000
30
0.0
11
17.416000
21
-67.000000
31
0.0
0
LINE
8
0
6
CONTINUOUS
10
18.272000
20
-66.453900
30
0.0
11
17.991000
21
-66.453900
31
0.0
0
LINE
8
0
6
CONTINUOUS
10
17.416000
20
-67.000000
30
0.0
11
17.677000
21
-67.000000
31
0.0
0
LINE
8
0
6
CONTINUOUS
10
17.416000
20
-67.000000
30
0.0
11
16.978000
21
-67.000000
31
0.0
0
LINE
8
0
6
CONTINUOUS
10
17.536000
20
-66.453900
30
0.0
11
17.991000
21
-66.453900
31
0.0
0
LINE
8
0
6
CONTINUOUS
10
17.991000
20
-66.453900
30
0.0
11
18.272000
21
-66.453900
31
0.0
0
LINE
8
0
6
CONTINUOUS
10
18.272000
20
-66.453900
30
0.0
11
18.376000
21
-66.453900
31
0.0
0
LINE
8
0
6
CONTINUOUS
10
18.376000
20
-56.179200
30
0.0
11
18.376000
21
-66.453900
31
0.0
0
LINE
8
0
6
CONTINUOUS
10
16.127000
20
-66.453900
30
0.0
11
16.913000
21
-66.453900
31
0.0
0
LINE
8
0
6
CONTINUOUS
10
16.913000
20
-66.453900
30
0.0
11
17.536000
21
-66.453900
31
0.0
0
LINE
8
0
6
CONTINUOUS
10
15.691000
20
-45.155400
30
0.0
11
14.744000
21
-45.155400
31
0.0
0
LINE
8
0
6
CONTINUOUS
10
14.744000
20
-45.992000
30
0.0
11
15.691000
21
-45.992000
31
0.0
0
LINE
8
0
6
CONTINUOUS
10
14.744000
20
-45.155400
30
0.0
11
15.691000
21
-45.155400
31
0.0
0
LINE
8
0
6
CONTINUOUS
10
15.146000
20
-44.609200
30
0.0
11
14.232000
21
-44.609200
31
0.0
0
LINE
8
0
6
CONTINUOUS
10
15.691000
20
-45.992000
30
0.0
11
14.744000
21
-45.992000
31
0.0
0
LINE
8
0
6
CONTINUOUS
10
15.289000
20
-46.138300
30
0.0
11
16.236000
21
-46.138300
31
0.0
0
LINE
8
0
6
CONTINUOUS
10
16.236000
20
-54.657800
30
0.0
11
15.289000
21
-54.657800
31
0.0
0
LINE
8
0
6
CONTINUOUS
10
16.127000
20
-66.453900
30
0.0
11
15.186000
21
-66.453900
31
0.0
0
LINE
8
0
6
CONTINUOUS
10
14.642000
20
-67.000000
30
0.0
11
15.582000
21
-67.000000
31
0.0
0
LINE
8
0
6
CONTINUOUS
10
15.582000
20
-67.000000
30
0.0
11
14.642000
21
-67.000000
31
0.0
0
LINE
8
0
6
CONTINUOUS
10
15.186000
20
-66.453900
30
0.0
11
16.127000
21
-66.453900
31
0.0
0
LINE
8
0
6
CONTINUOUS
10
16.236000
20
-46.138300
30
0.0
11
15.289000
21
-46.138300
31
0.0
0
LINE
8
0
6
CONTINUOUS
10
15.289000
20
-54.657800
30
0.0
11
16.236000
21
-54.657800
31
0.0
0
LINE
8
0
6
CONTINUOUS
10
13.442000
20
-44.667400
30
0.0
11
12.314000
21
-43.184900
31
0.0
0
LINE
8
0
6
CONTINUOUS
10
10.139000
20
-46.138300
30
0.0
11
8.573000
21
-46.138300
31
0.0
0
LINE
8
0
6
CONTINUOUS
10
8.573000
20
-54.657800
30
0.0
11
10.139000
21
-54.657800
31
0.0
0
LINE
8
0
6
CONTINUOUS
10
9.633000
20
-22.000000
30
0.0
11
10.979000
21
-22.000000
31
0.0
0
LINE
8
0
6
CONTINUOUS
10
8.108000
20
-22.000000
30
0.0
11
9.633000
21
-22.000000
31
0.0
0
LINE
8
0
6
CONTINUOUS
10
10.506000
20
-38.931700
30
0.0
11
10.485000
21
-38.147500
31
0.0
0
LINE
8
0
6
CONTINUOUS
10
10.451000
20
-36.301700
30
0.0
11
10.450000
21
-35.965300
31
0.0
0
LINE
8
0
6
CONTINUOUS
10
9.560000
20
-45.155400
30
0.0
11
11.039000
21
-45.155400
31
0.0
0
LINE
8
0
6
CONTINUOUS
10
10.656000
20
-44.609200
30
0.0
11
9.228000
21
-44.609200
31
0.0
0
LINE
8
0
6
CONTINUOUS
10
10.485000
20
-38.147500
30
0.0
11
10.471000
21
-37.525000
31
0.0
0
LINE
8
0
6
CONTINUOUS
10
10.471000
20
-37.525000
30
0.0
11
10.456000
21
-36.737500
31
0.0
0
LINE
8
0
6
CONTINUOUS
10
8.573000
20
-46.138300
30
0.0
11
10.139000
21
-46.138300
31
0.0
0
LINE
8
0
6
CONTINUOUS
10
11.039000
20
-45.992000
30
0.0
11
9.560000
21
-45.992000
31
0.0
0
LINE
8
0
6
CONTINUOUS
10
6.924000
20
-46.138300
30
0.0
11
8.573000
21
-46.138300
31
0.0
0
LINE
8
0
6
CONTINUOUS
10
9.560000
20
-45.992000
30
0.0
11
7.982000
21
-45.992000
31
0.0
0
LINE
8
0
6
CONTINUOUS
10
10.139000
20
-54.657800
30
0.0
11
8.573000
21
-54.657800
31
0.0
0
LINE
8
0
6
CONTINUOUS
10
9.560000
20
-45.155400
30
0.0
11
7.982000
21
-45.155400
31
0.0
0
LINE
8
0
6
CONTINUOUS
10
7.982000
20
-45.992000
30
0.0
11
9.560000
21
-45.992000
31
0.0
0
LINE
8
0
6
CONTINUOUS
10
7.982000
20
-45.155400
30
0.0
11
9.560000
21
-45.155400
31
0.0
0
LINE
8
0
6
CONTINUOUS
10
9.228000
20
-44.609200
30
0.0
11
7.705000
21
-44.609200
31
0.0
0
LINE
8
0
6
CONTINUOUS
10
10.963000
20
-67.000000
30
0.0
11
9.493000
21
-67.000000
31
0.0
0
LINE
8
0
6
CONTINUOUS
10
7.664000
20
-67.000000
30
0.0
11
9.177000
21
-67.000000
31
0.0
0
LINE
8
0
6
CONTINUOUS
10
10.070000
20
-66.453900
30
0.0
11
8.514000
21
-66.453900
31
0.0
0
LINE
8
0
6
CONTINUOUS
10
7.926000
20
-67.000000
30
0.0
11
9.493000
21
-67.000000
31
0.0
0
LINE
8
0
6
CONTINUOUS
10
6.069000
20
-67.000000
30
0.0
11
7.664000
21
-67.000000
31
0.0
0
LINE
8
0
6
CONTINUOUS
10
4.414000
20
-67.000000
30
0.0
11
6.069000
21
-67.000000
31
0.0
0
LINE
8
0
6
CONTINUOUS
10
9.493000
20
-67.000000
30
0.0
11
7.926000
21
-67.000000
31
0.0
0
LINE
8
0
6
CONTINUOUS
10
8.514000
20
-66.453900
30
0.0
11
10.070000
21
-66.453900
31
0.0
0
LINE
8
0
6
CONTINUOUS
10
10.450000
20
-35.965300
30
0.0
11
10.450000
21
-34.346600
31
0.0
0
LINE
8
0
6
CONTINUOUS
10
9.633000
20
-22.000000
30
0.0
11
8.108000
21
-22.000000
31
0.0
0
LINE
8
0
6
CONTINUOUS
10
17.183000
20
-44.609200
30
0.0
11
17.255000
21
-44.609200
31
0.0
0
LINE
8
0
6
CONTINUOUS
10
16.929000
20
-44.609200
30
0.0
11
17.183000
21
-44.609200
31
0.0
0
LINE
8
0
6
CONTINUOUS
10
16.502000
20
-44.609200
30
0.0
11
16.929000
21
-44.609200
31
0.0
0
LINE
8
0
6
CONTINUOUS
10
15.906000
20
-44.609200
30
0.0
11
16.502000
21
-44.609200
31
0.0
0
LINE
8
0
6
CONTINUOUS
10
10.656000
20
-44.609200
30
0.0
11
11.975000
21
-44.609200
31
0.0
0
LINE
8
0
6
CONTINUOUS
10
9.228000
20
-44.609200
30
0.0
11
10.656000
21
-44.609200
31
0.0
0
LINE
8
0
6
CONTINUOUS
10
11.975000
20
-44.609200
30
0.0
11
13.171000
21
-44.609200
31
0.0
0
LINE
8
0
6
CONTINUOUS
10
13.171000
20
-44.609200
30
0.0
11
14.232000
21
-44.609200
31
0.0
0
LINE
8
0
6
CONTINUOUS
10
14.232000
20
-44.609200
30
0.0
11
15.146000
21
-44.609200
31
0.0
0
LINE
8
0
6
CONTINUOUS
10
15.146000
20
-44.609200
30
0.0
11
15.906000
21
-44.609200
31
0.0
0
LINE
8
0
6
CONTINUOUS
10
-17.874000
20
-45.992000
30
0.0
11
-18.138000
21
-46.052900
31
0.0
0
LINE
8
0
6
CONTINUOUS
10
-17.800000
20
-45.992000
30
0.0
11
-17.874000
21
-45.992000
31
0.0
0
LINE
8
0
6
CONTINUOUS
10
-18.138000
20
-46.052900
30
0.0
11
-17.800000
21
-45.992000
31
0.0
0
LINE
8
0
6
CONTINUOUS
10
-17.874000
20
-45.992000
30
0.0
11
-18.138000
21
-46.052900
31
0.0
0
LINE
8
0
6
CONTINUOUS
10
-17.800000
20
-45.992000
30
0.0
11
-17.874000
21
-45.992000
31
0.0
0
LINE
8
0
6
CONTINUOUS
10
-18.500000
20
-46.138300
30
0.0
11
-18.394000
21
-46.138300
31
0.0
0
LINE
8
0
6
CONTINUOUS
10
-18.138000
20
-46.052900
30
0.0
11
-18.500000
21
-46.138300
31
0.0
0
LINE
8
0
6
CONTINUOUS
10
-17.538000
20
-45.992000
30
0.0
11
-17.800000
21
-45.992000
31
0.0
0
LINE
8
0
6
CONTINUOUS
10
-18.394000
20
-46.138300
30
0.0
11
-18.111000
21
-46.138300
31
0.0
0
LINE
8
0
6
CONTINUOUS
10
-17.096000
20
-45.992000
30
0.0
11
-17.538000
21
-45.992000
31
0.0
0
LINE
8
0
6
CONTINUOUS
10
-18.111000
20
-46.138300
30
0.0
11
-17.654000
21
-46.138300
31
0.0
0
LINE
8
0
6
CONTINUOUS
10
-16.479000
20
-45.992000
30
0.0
11
-17.096000
21
-45.992000
31
0.0
0
LINE
8
0
6
CONTINUOUS
10
-17.654000
20
-46.138300
30
0.0
11
-17.027000
21
-46.138300
31
0.0
0
LINE
8
0
6
CONTINUOUS
10
-15.289000
20
-46.138300
30
0.0
11
-14.194000
21
-46.138300
31
0.0
0
LINE
8
0
6
CONTINUOUS
10
-13.645000
20
-45.992000
30
0.0
11
-14.744000
21
-45.992000
31
0.0
0
LINE
8
0
6
CONTINUOUS
10
-14.194000
20
-46.138300
30
0.0
11
-12.962000
21
-46.138300
31
0.0
0
LINE
8
0
6
CONTINUOUS
10
-12.406000
20
-45.992000
30
0.0
11
-13.645000
21
-45.992000
31
0.0
0
LINE
8
0
6
CONTINUOUS
10
-12.962000
20
-46.138300
30
0.0
11
-11.606000
21
-46.138300
31
0.0
0
LINE
8
0
6
CONTINUOUS
10
-11.039000
20
-45.992000
30
0.0
11
-12.406000
21
-45.992000
31
0.0
0
LINE
8
0
6
CONTINUOUS
10
-11.606000
20
-46.138300
30
0.0
11
-10.138000
21
-46.138300
31
0.0
0
LINE
8
0
6
CONTINUOUS
10
-9.560000
20
-45.992000
30
0.0
11
-11.039000
21
-45.992000
31
0.0
0
LINE
8
0
6
CONTINUOUS
10
-10.138000
20
-46.138300
30
0.0
11
-8.573000
21
-46.138300
31
0.0
0
LINE
8
0
6
CONTINUOUS
10
-7.982000
20
-45.992000
30
0.0
11
-9.560000
21
-45.992000
31
0.0
0
LINE
8
0
6
CONTINUOUS
10
-8.573000
20
-46.138300
30
0.0
11
-6.924000
21
-46.138300
31
0.0
0
LINE
8
0
6
CONTINUOUS
10
-6.323000
20
-45.992000
30
0.0
11
-7.982000
21
-45.992000
31
0.0
0
LINE
8
0
6
CONTINUOUS
10
-6.924000
20
-46.138300
30
0.0
11
-5.209000
21
-46.138300
31
0.0
0
LINE
8
0
6
CONTINUOUS
10
-4.598000
20
-45.992000
30
0.0
11
-6.323000
21
-45.992000
31
0.0
0
LINE
8
0
6
CONTINUOUS
10
-5.209000
20
-46.138300
30
0.0
11
-3.443000
21
-46.138300
31
0.0
0
LINE
8
0
6
CONTINUOUS
10
-2.826000
20
-45.992000
30
0.0
11
-4.598000
21
-45.992000
31
0.0
0
LINE
8
0
6
CONTINUOUS
10
-3.443000
20
-46.138300
30
0.0
11
-1.645000
21
-46.138300
31
0.0
0
LINE
8
0
6
CONTINUOUS
10
-1.026000
20
-45.992000
30
0.0
11
-2.826000
21
-45.992000
31
0.0
0
LINE
8
0
6
CONTINUOUS
10
-1.645000
20
-46.138300
30
0.0
11
-1.026000
21
-45.992000
31
0.0
0
LINE
8
0
6
CONTINUOUS
10
-1.026000
20
-45.992000
30
0.0
11
-2.826000
21
-45.992000
31
0.0
0
LINE
8
0
6
CONTINUOUS
10
-1.645000
20
-46.138300
30
0.0
11
0.000000
21
-46.138300
31
0.0
0
LINE
8
0
6
CONTINUOUS
10
0.000000
20
-45.992000
30
0.0
11
-1.026000
21
-45.992000
31
0.0
0
LINE
8
0
6
CONTINUOUS
10
-17.875000
20
-55.422400
30
0.0
11
-18.088000
21
-55.738800
31
0.0
0
LINE
8
0
6
CONTINUOUS
10
-17.801000
20
-55.422400
30
0.0
11
-17.875000
21
-55.422400
31
0.0
0
LINE
8
0
6
CONTINUOUS
10
-18.088000
20
-55.738800
30
0.0
11
-17.801000
21
-55.422400
31
0.0
0
LINE
8
0
6
CONTINUOUS
10
-17.875000
20
-55.422400
30
0.0
11
-18.088000
21
-55.738800
31
0.0
0
LINE
8
0
6
CONTINUOUS
10
-18.088000
20
-55.738800
30
0.0
11
-18.376000
21
-56.179200
31
0.0
0
LINE
8
0
6
CONTINUOUS
10
-6.924000
20
-54.657800
30
0.0
11
-8.573000
21
-54.657800
31
0.0
0
LINE
8
0
6
CONTINUOUS
10
-5.209000
20
-54.657800
30
0.0
11
-6.924000
21
-54.657800
31
0.0
0
LINE
8
0
6
CONTINUOUS
10
0.000000
20
-54.657800
30
0.0
11
-1.645000
21
-54.657800
31
0.0
0
LINE
8
0
6
CONTINUOUS
10
-8.573000
20
-54.657800
30
0.0
11
-10.138000
21
-54.657800
31
0.0
0
LINE
8
0
6
CONTINUOUS
10
-10.138000
20
-54.657800
30
0.0
11
-11.606000
21
-54.657800
31
0.0
0
LINE
8
0
6
CONTINUOUS
10
-11.606000
20
-54.657800
30
0.0
11
-12.962000
21
-54.657800
31
0.0
0
LINE
8
0
6
CONTINUOUS
10
-12.962000
20
-54.657800
30
0.0
11
-14.194000
21
-54.657800
31
0.0
0
LINE
8
0
6
CONTINUOUS
10
-14.194000
20
-54.657800
30
0.0
11
-15.289000
21
-54.657800
31
0.0
0
LINE
8
0
6
CONTINUOUS
10
-17.027000
20
-54.657800
30
0.0
11
-17.654000
21
-54.657800
31
0.0
0
LINE
8
0
6
CONTINUOUS
10
-17.654000
20
-54.657800
30
0.0
11
-18.113000
21
-54.657800
31
0.0
0
LINE
8
0
6
CONTINUOUS
10
-18.113000
20
-54.657800
30
0.0
11
-18.394000
21
-54.657800
31
0.0
0
LINE
8
0
6
CONTINUOUS
10
-18.394000
20
-54.657800
30
0.0
11
-18.500000
21
-54.657800
31
0.0
0
LINE
8
0
6
CONTINUOUS
10
-0.990000
20
-44.609200
30
0.0
11
0.000000
21
-44.609200
31
0.0
0
LINE
8
0
6
CONTINUOUS
10
-2.728000
20
-44.609200
30
0.0
11
-0.990000
21
-44.609200
31
0.0
0
LINE
8
0
6
CONTINUOUS
10
-9.228000
20
-44.609200
30
0.0
11
-7.705000
21
-44.609200
31
0.0
0
LINE
8
0
6
CONTINUOUS
10
-10.656000
20
-44.609200
30
0.0
11
-9.228000
21
-44.609200
31
0.0
0
LINE
8
0
6
CONTINUOUS
10
-11.975000
20
-44.609200
30
0.0
11
-10.656000
21
-44.609200
31
0.0
0
LINE
8
0
6
CONTINUOUS
10
-16.502000
20
-44.609200
30
0.0
11
-15.906000
21
-44.609200
31
0.0
0
LINE
8
0
6
CONTINUOUS
10
-15.906000
20
-44.609200
30
0.0
11
-15.146000
21
-44.609200
31
0.0
0
LINE
8
0
6
CONTINUOUS
10
-15.146000
20
-44.609200
30
0.0
11
-14.232000
21
-44.609200
31
0.0
0
LINE
8
0
6
CONTINUOUS
10
-14.232000
20
-44.609200
30
0.0
11
-13.171000
21
-44.609200
31
0.0
0
LINE
8
0
6
CONTINUOUS
10
-13.171000
20
-44.609200
30
0.0
11
-11.975000
21
-44.609200
31
0.0
0
LINE
8
0
6
CONTINUOUS
10
-17.254000
20
-44.609200
30
0.0
11
-17.183000
21
-44.609200
31
0.0
0
LINE
8
0
6
CONTINUOUS
10
-17.183000
20
-44.609200
30
0.0
11
-16.929000
21
-44.609200
31
0.0
0
LINE
8
0
6
CONTINUOUS
10
-16.929000
20
-44.609200
30
0.0
11
-16.502000
21
-44.609200
31
0.0
0
LINE
8
0
6
CONTINUOUS
10
-16.913000
20
-66.453900
30
0.0
11
-17.536000
21
-66.453900
31
0.0
0
LINE
8
0
6
CONTINUOUS
10
-16.978000
20
-67.000000
30
0.0
11
-16.364000
21
-67.000000
31
0.0
0
LINE
8
0
6
CONTINUOUS
10
-17.536000
20
-66.453900
30
0.0
11
-17.991000
21
-66.453900
31
0.0
0
LINE
8
0
6
CONTINUOUS
10
-17.416000
20
-67.000000
30
0.0
11
-16.978000
21
-67.000000
31
0.0
0
LINE
8
0
6
CONTINUOUS
10
-17.991000
20
-66.453900
30
0.0
11
-18.272000
21
-66.453900
31
0.0
0
LINE
8
0
6
CONTINUOUS
10
-17.677000
20
-67.000000
30
0.0
11
-17.416000
21
-67.000000
31
0.0
0
LINE
8
0
6
CONTINUOUS
10
-18.272000
20
-66.453900
30
0.0
11
-18.376000
21
-66.453900
31
0.0
0
LINE
8
0
6
CONTINUOUS
10
-18.376000
20
-66.453900
30
0.0
11
-17.677000
21
-67.000000
31
0.0
0
LINE
8
0
6
CONTINUOUS
10
-18.272000
20
-66.453900
30
0.0
11
-18.376000
21
-66.453900
31
0.0
0
LINE
8
0
6
CONTINUOUS
10
-17.751000
20
-67.000000
30
0.0
11
-17.677000
21
-67.000000
31
0.0
0
LINE
8
0
6
CONTINUOUS
10
-18.014000
20
-66.773000
30
0.0
11
-17.751000
21
-67.000000
31
0.0
0
LINE
8
0
6
CONTINUOUS
10
-18.014000
20
-66.773000
30
0.0
11
-18.376000
21
-66.453900
31
0.0
0
LINE
8
0
6
CONTINUOUS
10
-1.018000
20
-67.000000
30
0.0
11
0.000000
21
-67.000000
31
0.0
0
LINE
8
0
6
CONTINUOUS
10
0.000000
20
-66.453900
30
0.0
11
-1.634000
21
-66.453900
31
0.0
0
LINE
8
0
6
CONTINUOUS
10
-2.806000
20
-67.000000
30
0.0
11
-1.018000
21
-67.000000
31
0.0
0
LINE
8
0
6
CONTINUOUS
10
-1.634000
20
-66.453900
30
0.0
11
-3.421000
21
-66.453900
31
0.0
0
LINE
8
0
6
CONTINUOUS
10
-4.566000
20
-67.000000
30
0.0
11
-2.806000
21
-67.000000
31
0.0
0
LINE
8
0
6
CONTINUOUS
10
-3.421000
20
-66.453900
30
0.0
11
-5.174000
21
-66.453900
31
0.0
0
LINE
8
0
6
CONTINUOUS
10
-6.278000
20
-67.000000
30
0.0
11
-4.566000
21
-67.000000
31
0.0
0
LINE
8
0
6
CONTINUOUS
10
-5.174000
20
-66.453900
30
0.0
11
-6.878000
21
-66.453900
31
0.0
0
LINE
8
0
6
CONTINUOUS
10
-7.926000
20
-67.000000
30
0.0
11
-6.278000
21
-67.000000
31
0.0
0
LINE
8
0
6
CONTINUOUS
10
-6.878000
20
-66.453900
30
0.0
11
-8.514000
21
-66.453900
31
0.0
0
LINE
8
0
6
CONTINUOUS
10
-9.493000
20
-67.000000
30
0.0
11
-7.926000
21
-67.000000
31
0.0
0
LINE
8
0
6
CONTINUOUS
10
-8.514000
20
-66.453900
30
0.0
11
-10.070000
21
-66.453900
31
0.0
0
LINE
8
0
6
CONTINUOUS
10
-10.963000
20
-67.000000
30
0.0
11
-9.493000
21
-67.000000
31
0.0
0
LINE
8
0
6
CONTINUOUS
10
-10.070000
20
-66.453900
30
0.0
11
-11.528000
21
-66.453900
31
0.0
0
LINE
8
0
6
CONTINUOUS
10
-12.320000
20
-67.000000
30
0.0
11
-10.963000
21
-67.000000
31
0.0
0
LINE
8
0
6
CONTINUOUS
10
-11.528000
20
-66.453900
30
0.0
11
-12.875000
21
-66.453900
31
0.0
0
LINE
8
0
6
CONTINUOUS
10
-13.551000
20
-67.000000
30
0.0
11
-12.320000
21
-67.000000
31
0.0
0
LINE
8
0
6
CONTINUOUS
10
-12.875000
20
-66.453900
30
0.0
11
-14.099000
21
-66.453900
31
0.0
0
LINE
8
0
6
CONTINUOUS
10
-14.642000
20
-67.000000
30
0.0
11
-13.551000
21
-67.000000
31
0.0
0
LINE
8
0
6
CONTINUOUS
10
-14.099000
20
-66.453900
30
0.0
11
-15.186000
21
-66.453900
31
0.0
0
LINE
8
0
6
CONTINUOUS
10
-7.926000
20
-67.000000
30
0.0
11
-9.493000
21
-67.000000
31
0.0
0
LINE
8
0
6
CONTINUOUS
10
-10.444000
20
-41.399200
30
0.0
11
-10.976000
21
-41.844500
31
0.0
0
LINE
8
0
6
CONTINUOUS
10
-1.911000
20
-41.696300
30
0.0
11
-0.324000
21
-41.399200
31
0.0
0
LINE
8
0
6
CONTINUOUS
10
-10.135000
20
-41.044200
30
0.0
11
-10.444000
21
-41.399200
31
0.0
0
LINE
8
0
6
CONTINUOUS
10
-10.290000
20
-39.966400
30
0.0
11
-10.113000
21
-40.185700
31
0.0
0
LINE
8
0
6
CONTINUOUS
10
-10.404000
20
-39.818700
30
0.0
11
-10.290000
21
-39.966400
31
0.0
0
LINE
8
0
6
CONTINUOUS
10
-10.471000
20
-37.525000
30
0.0
11
-10.485000
21
-38.147500
31
0.0
0
LINE
8
0
6
CONTINUOUS
10
-10.456000
20
-36.737500
30
0.0
11
-10.471000
21
-37.525000
31
0.0
0
LINE
8
0
6
CONTINUOUS
10
-10.555000
20
-39.682600
30
0.0
11
-10.504000
21
-39.734300
31
0.0
0
LINE
8
0
6
CONTINUOUS
10
-10.542000
20
-39.641800
30
0.0
11
-10.555000
21
-39.682600
31
0.0
0
LINE
8
0
6
CONTINUOUS
10
-10.504000
20
-39.734300
30
0.0
11
-10.404000
21
-39.818700
31
0.0
0
LINE
8
0
6
CONTINUOUS
10
-10.526000
20
-39.413500
30
0.0
11
-10.542000
21
-39.641800
31
0.0
0
LINE
8
0
6
CONTINUOUS
10
-10.506000
20
-38.931700
30
0.0
11
-10.526000
21
-39.413500
31
0.0
0
LINE
8
0
6
CONTINUOUS
10
-10.485000
20
-38.147500
30
0.0
11
-10.506000
21
-38.931700
31
0.0
0
LINE
8
0
6
CONTINUOUS
10
-0.467000
20
-36.737500
30
0.0
11
-2.349000
21
-36.737500
31
0.0
0
LINE
8
0
6
CONTINUOUS
10
-1.221000
20
-39.818700
30
0.0
11
-0.467000
21
-36.737500
31
0.0
0
LINE
8
0
6
CONTINUOUS
10
-10.450000
20
-35.965300
30
0.0
11
-10.451000
21
-36.301700
31
0.0
0
LINE
8
0
6
CONTINUOUS
10
-10.451000
20
-36.301700
30
0.0
11
-10.454000
21
-36.603200
31
0.0
0
LINE
8
0
6
CONTINUOUS
10
-10.454000
20
-36.603200
30
0.0
11
-10.456000
21
-36.737500
31
0.0
0
LINE
8
0
6
CONTINUOUS
10
-10.471000
20
-37.525000
30
0.0
11
-10.456000
21
-36.737500
31
0.0
0
LINE
8
0
6
CONTINUOUS
10
-10.485000
20
-38.147500
30
0.0
11
-10.471000
21
-37.525000
31
0.0
0
LINE
8
0
6
CONTINUOUS
10
-10.451000
20
-36.301700
30
0.0
11
-10.450000
21
-35.965300
31
0.0
0
LINE
8
0
6
CONTINUOUS
10
-10.450000
20
-35.965300
30
0.0
11
-10.450000
21
-34.346600
31
0.0
0
LINE
8
0
6
CONTINUOUS
10
-10.555000
20
-35.340400
30
0.0
11
-10.555000
21
-35.509400
31
0.0
0
LINE
8
0
6
CONTINUOUS
10
-10.555000
20
-39.682600
30
0.0
11
-10.542000
21
-39.641800
31
0.0
0
LINE
8
0
6
CONTINUOUS
10
-10.555000
20
-39.573000
30
0.0
11
-10.555000
21
-39.682600
31
0.0
0
LINE
8
0
6
CONTINUOUS
10
-10.555000
20
-35.509400
30
0.0
11
-10.555000
21
-36.492500
31
0.0
0
LINE
8
0
6
CONTINUOUS
10
-10.454000
20
-36.603200
30
0.0
11
-10.451000
21
-36.301700
31
0.0
0
LINE
8
0
6
CONTINUOUS
10
-10.456000
20
-36.737500
30
0.0
11
-10.454000
21
-36.603200
31
0.0
0
LINE
8
0
6
CONTINUOUS
10
-10.555000
20
-34.346600
30
0.0
11
-10.555000
21
-35.340400
31
0.0
0
LINE
8
0
6
CONTINUOUS
10
-10.450000
20
-34.346600
30
0.0
11
-10.555000
21
-34.346600
31
0.0
0
LINE
8
0
6
CONTINUOUS
10
-10.542000
20
-39.641800
30
0.0
11
-10.526000
21
-39.413500
31
0.0
0
LINE
8
0
6
CONTINUOUS
10
-10.555000
20
-38.069100
30
0.0
11
-10.555000
21
-39.573000
31
0.0
0
LINE
8
0
6
CONTINUOUS
10
-10.555000
20
-36.492500
30
0.0
11
-10.555000
21
-38.069100
31
0.0
0
LINE
8
0
6
CONTINUOUS
10
-10.450000
20
-34.346600
30
0.0
11
-10.450000
21
-35.965300
31
0.0
0
LINE
8
0
6
CONTINUOUS
10
-13.374000
20
-33.669400
30
0.0
11
-12.710000
21
-33.822400
31
0.0
0
LINE
8
0
6
CONTINUOUS
10
-11.003000
20
-34.241000
30
0.0
11
-10.555000
21
-34.346600
31
0.0
0
LINE
8
0
6
CONTINUOUS
10
-10.555000
20
-34.346600
30
0.0
11
-10.450000
21
-34.346600
31
0.0
0
LINE
8
0
6
CONTINUOUS
10
-11.911000
20
-34.027100
30
0.0
11
-11.003000
21
-34.241000
31
0.0
0
LINE
8
0
6
CONTINUOUS
10
-13.086000
20
-33.749800
30
0.0
11
-11.911000
21
-34.027100
31
0.0
0
LINE
8
0
6
CONTINUOUS
10
-12.710000
20
-33.822400
30
0.0
11
-13.374000
21
-33.669400
31
0.0
0
LINE
8
0
6
CONTINUOUS
10
-14.271000
20
-33.470600
30
0.0
11
-13.086000
21
-33.749800
31
0.0
0
LINE
8
0
6
CONTINUOUS
10
-14.165000
20
-33.491400
30
0.0
11
-14.278000
21
-33.468400
31
0.0
0
LINE
8
0
6
CONTINUOUS
10
-0.821000
20
-22.000000
30
0.0
11
0.000000
21
-22.000000
31
0.0
0
LINE
8
0
6
CONTINUOUS
10
-14.278000
20
-22.000000
30
0.0
11
-14.124000
21
-22.000000
31
0.0
0
LINE
8
0
6
CONTINUOUS
10
-12.120000
20
-22.000000
30
0.0
11
-10.979000
21
-22.000000
31
0.0
0
LINE
8
0
6
CONTINUOUS
10
-8.991000
20
-22.000000
30
0.0
11
-10.307000
21
-22.000000
31
0.0
0
LINE
8
0
6
CONTINUOUS
10
-10.307000
20
-22.000000
30
0.0
11
-8.991000
21
-22.000000
31
0.0
0
LINE
8
0
6
CONTINUOUS
10
-3.443000
20
-54.657800
30
0.0
11
-5.209000
21
-54.657800
31
0.0
0
LINE
8
0
6
CONTINUOUS
10
-1.645000
20
-54.657800
30
0.0
11
-3.443000
21
-54.657800
31
0.0
0
LINE
8
0
6
CONTINUOUS
10
-15.691000
20
-45.992000
30
0.0
11
-16.479000
21
-45.992000
31
0.0
0
LINE
8
0
6
CONTINUOUS
10
-17.027000
20
-46.138300
30
0.0
11
-16.236000
21
-46.138300
31
0.0
0
LINE
8
0
6
CONTINUOUS
10
-14.744000
20
-45.992000
30
0.0
11
-15.691000
21
-45.992000
31
0.0
0
LINE
8
0
6
CONTINUOUS
10
-16.236000
20
-46.138300
30
0.0
11
-15.289000
21
-46.138300
31
0.0
0
LINE
8
0
6
CONTINUOUS
10
-17.027000
20
-54.657800
30
0.0
11
-16.236000
21
-54.657800
31
0.0
0
LINE
8
0
6
CONTINUOUS
10
-16.236000
20
-46.138300
30
0.0
11
-17.027000
21
-46.138300
31
0.0
0
LINE
8
0
6
CONTINUOUS
10
-17.654000
20
-54.657800
30
0.0
11
-17.027000
21
-54.657800
31
0.0
0
LINE
8
0
6
CONTINUOUS
10
-17.027000
20
-46.138300
30
0.0
11
-17.654000
21
-46.138300
31
0.0
0
LINE
8
0
6
CONTINUOUS
10
-18.113000
20
-54.657800
30
0.0
11
-17.654000
21
-54.657800
31
0.0
0
LINE
8
0
6
CONTINUOUS
10
-18.394000
20
-54.657800
30
0.0
11
-18.113000
21
-54.657800
31
0.0
0
LINE
8
0
6
CONTINUOUS
10
-18.500000
20
-54.657800
30
0.0
11
-18.394000
21
-54.657800
31
0.0
0
LINE
8
0
6
CONTINUOUS
10
-18.394000
20
-46.138300
30
0.0
11
-18.500000
21
-46.138300
31
0.0
0
LINE
8
0
6
CONTINUOUS
10
-18.500000
20
-54.657800
30
0.0
11
-18.500000
21
-46.138300
31
0.0
0
LINE
8
0
6
CONTINUOUS
10
-1.645000
20
-54.657800
30
0.0
11
0.000000
21
-54.657800
31
0.0
0
LINE
8
0
6
CONTINUOUS
10
0.000000
20
-46.138300
30
0.0
11
-1.645000
21
-46.138300
31
0.0
0
LINE
8
0
6
CONTINUOUS
10
-6.924000
20
-54.657800
30
0.0
11
-5.209000
21
-54.657800
31
0.0
0
LINE
8
0
6
CONTINUOUS
10
-5.209000
20
-46.138300
30
0.0
11
-6.924000
21
-46.138300
31
0.0
0
LINE
8
0
6
CONTINUOUS
10
-8.573000
20
-54.657800
30
0.0
11
-6.924000
21
-54.657800
31
0.0
0
LINE
8
0
6
CONTINUOUS
10
-6.924000
20
-46.138300
30
0.0
11
-8.573000
21
-46.138300
31
0.0
0
LINE
8
0
6
CONTINUOUS
10
-10.138000
20
-54.657800
30
0.0
11
-8.573000
21
-54.657800
31
0.0
0
LINE
8
0
6
CONTINUOUS
10
-8.573000
20
-46.138300
30
0.0
11
-10.138000
21
-46.138300
31
0.0
0
LINE
8
0
6
CONTINUOUS
10
-11.606000
20
-54.657800
30
0.0
11
-10.138000
21
-54.657800
31
0.0
0
LINE
8
0
6
CONTINUOUS
10
-10.138000
20
-46.138300
30
0.0
11
-11.606000
21
-46.138300
31
0.0
0
LINE
8
0
6
CONTINUOUS
10
-12.962000
20
-54.657800
30
0.0
11
-11.606000
21
-54.657800
31
0.0
0
LINE
8
0
6
CONTINUOUS
10
-11.606000
20
-46.138300
30
0.0
11
-12.962000
21
-46.138300
31
0.0
0
LINE
8
0
6
CONTINUOUS
10
-14.194000
20
-54.657800
30
0.0
11
-12.962000
21
-54.657800
31
0.0
0
LINE
8
0
6
CONTINUOUS
10
-12.962000
20
-46.138300
30
0.0
11
-14.194000
21
-46.138300
31
0.0
0
LINE
8
0
6
CONTINUOUS
10
-15.289000
20
-54.657800
30
0.0
11
-14.194000
21
-54.657800
31
0.0
0
LINE
8
0
6
CONTINUOUS
10
-14.194000
20
-46.138300
30
0.0
11
-15.289000
21
-46.138300
31
0.0
0
LINE
8
0
6
CONTINUOUS
10
-16.236000
20
-54.657800
30
0.0
11
-15.289000
21
-54.657800
31
0.0
0
LINE
8
0
6
CONTINUOUS
10
-15.289000
20
-46.138300
30
0.0
11
-16.236000
21
-46.138300
31
0.0
0
LINE
8
0
6
CONTINUOUS
10
-17.875000
20
-54.657800
30
0.0
11
-17.875000
21
-55.422400
31
0.0
0
LINE
8
0
6
CONTINUOUS
10
-15.289000
20
-54.657800
30
0.0
11
-16.236000
21
-54.657800
31
0.0
0
LINE
8
0
6
CONTINUOUS
10
-16.236000
20
-54.657800
30
0.0
11
-17.027000
21
-54.657800
31
0.0
0
LINE
8
0
6
CONTINUOUS
10
-16.479000
20
-45.992000
30
0.0
11
-15.691000
21
-45.992000
31
0.0
0
LINE
8
0
6
CONTINUOUS
10
-15.691000
20
-45.155400
30
0.0
11
-16.479000
21
-45.155400
31
0.0
0
LINE
8
0
6
CONTINUOUS
10
-17.096000
20
-45.992000
30
0.0
11
-16.479000
21
-45.992000
31
0.0
0
LINE
8
0
6
CONTINUOUS
10
-16.479000
20
-45.155400
30
0.0
11
-17.096000
21
-45.155400
31
0.0
0
LINE
8
0
6
CONTINUOUS
10
-17.096000
20
-45.155400
30
0.0
11
-17.539000
21
-45.155400
31
0.0
0
LINE
8
0
6
CONTINUOUS
10
-17.539000
20
-45.155400
30
0.0
11
-17.801000
21
-45.155400
31
0.0
0
LINE
8
0
6
CONTINUOUS
10
-17.874000
20
-45.992000
30
0.0
11
-17.800000
21
-45.992000
31
0.0
0
LINE
8
0
6
CONTINUOUS
10
-17.875000
20
-45.155400
30
0.0
11
-17.874000
21
-45.992000
31
0.0
0
LINE
8
0
6
CONTINUOUS
10
-17.801000
20
-45.155400
30
0.0
11
-17.875000
21
-45.155400
31
0.0
0
LINE
8
0
6
CONTINUOUS
10
-1.026000
20
-45.992000
30
0.0
11
0.000000
21
-45.992000
31
0.0
0
LINE
8
0
6
CONTINUOUS
10
0.000000
20
-45.155400
30
0.0
11
-1.026000
21
-45.155400
31
0.0
0
LINE
8
0
6
CONTINUOUS
10
-2.826000
20
-45.992000
30
0.0
11
-1.026000
21
-45.992000
31
0.0
0
LINE
8
0
6
CONTINUOUS
10
-1.026000
20
-45.155400
30
0.0
11
-2.826000
21
-45.155400
31
0.0
0
LINE
8
0
6
CONTINUOUS
10
-2.826000
20
-45.155400
30
0.0
11
-4.598000
21
-45.155400
31
0.0
0
LINE
8
0
6
CONTINUOUS
10
-4.598000
20
-45.155400
30
0.0
11
-6.323000
21
-45.155400
31
0.0
0
LINE
8
0
6
CONTINUOUS
10
-6.323000
20
-45.155400
30
0.0
11
-7.982000
21
-45.155400
31
0.0
0
LINE
8
0
6
CONTINUOUS
10
-7.982000
20
-45.155400
30
0.0
11
-9.560000
21
-45.155400
31
0.0
0
LINE
8
0
6
CONTINUOUS
10
-9.560000
20
-45.155400
30
0.0
11
-11.039000
21
-45.155400
31
0.0
0
LINE
8
0
6
CONTINUOUS
10
-11.039000
20
-45.155400
30
0.0
11
-12.406000
21
-45.155400
31
0.0
0
LINE
8
0
6
CONTINUOUS
10
-12.406000
20
-45.155400
30
0.0
11
-13.645000
21
-45.155400
31
0.0
0
LINE
8
0
6
CONTINUOUS
10
-13.645000
20
-45.155400
30
0.0
11
-14.744000
21
-45.155400
31
0.0
0
LINE
8
0
6
CONTINUOUS
10
-15.691000
20
-45.992000
30
0.0
11
-14.744000
21
-45.992000
31
0.0
0
LINE
8
0
6
CONTINUOUS
10
-14.744000
20
-45.155400
30
0.0
11
-15.691000
21
-45.155400
31
0.0
0
LINE
8
0
6
CONTINUOUS
10
-4.438000
20
-44.609200
30
0.0
11
-2.728000
21
-44.609200
31
0.0
0
LINE
8
0
6
CONTINUOUS
10
-6.103000
20
-44.609200
30
0.0
11
-4.438000
21
-44.609200
31
0.0
0
LINE
8
0
6
CONTINUOUS
10
-7.705000
20
-44.609200
30
0.0
11
-6.103000
21
-44.609200
31
0.0
0
LINE
8
0
6
CONTINUOUS
10
-17.254000
20
-44.609200
30
0.0
11
-17.875000
21
-45.155400
31
0.0
0
LINE
8
0
6
CONTINUOUS
10
-17.183000
20
-44.609200
30
0.0
11
-17.254000
21
-44.609200
31
0.0
0
LINE
8
0
6
CONTINUOUS
10
-17.875000
20
-45.155400
30
0.0
11
-17.801000
21
-45.155400
31
0.0
0
LINE
8
0
6
CONTINUOUS
10
-17.801000
20
-45.155400
30
0.0
11
-17.539000
21
-45.155400
31
0.0
0
LINE
8
0
6
CONTINUOUS
10
-16.929000
20
-44.609200
30
0.0
11
-17.183000
21
-44.609200
31
0.0
0
LINE
8
0
6
CONTINUOUS
10
-17.539000
20
-45.155400
30
0.0
11
-17.096000
21
-45.155400
31
0.0
0
LINE
8
0
6
CONTINUOUS
10
-16.502000
20
-44.609200
30
0.0
11
-16.929000
21
-44.609200
31
0.0
0
LINE
8
0
6
CONTINUOUS
10
-17.096000
20
-45.155400
30
0.0
11
-16.479000
21
-45.155400
31
0.0
0
LINE
8
0
6
CONTINUOUS
10
-15.906000
20
-44.609200
30
0.0
11
-16.502000
21
-44.609200
31
0.0
0
LINE
8
0
6
CONTINUOUS
10
-15.146000
20
-44.609200
30
0.0
11
-15.906000
21
-44.609200
31
0.0
0
LINE
8
0
6
CONTINUOUS
10
-16.479000
20
-45.155400
30
0.0
11
-15.691000
21
-45.155400
31
0.0
0
LINE
8
0
6
CONTINUOUS
10
-15.691000
20
-45.155400
30
0.0
11
-14.744000
21
-45.155400
31
0.0
0
LINE
8
0
6
CONTINUOUS
10
-14.232000
20
-44.609200
30
0.0
11
-15.146000
21
-44.609200
31
0.0
0
LINE
8
0
6
CONTINUOUS
10
-14.744000
20
-45.155400
30
0.0
11
-13.645000
21
-45.155400
31
0.0
0
LINE
8
0
6
CONTINUOUS
10
-13.171000
20
-44.609200
30
0.0
11
-14.232000
21
-44.609200
31
0.0
0
LINE
8
0
6
CONTINUOUS
10
-13.645000
20
-45.155400
30
0.0
11
-12.406000
21
-45.155400
31
0.0
0
LINE
8
0
6
CONTINUOUS
10
-11.975000
20
-44.609200
30
0.0
11
-13.171000
21
-44.609200
31
0.0
0
LINE
8
0
6
CONTINUOUS
10
-12.406000
20
-45.155400
30
0.0
11
-11.039000
21
-45.155400
31
0.0
0
LINE
8
0
6
CONTINUOUS
10
-10.656000
20
-44.609200
30
0.0
11
-11.975000
21
-44.609200
31
0.0
0
LINE
8
0
6
CONTINUOUS
10
-11.039000
20
-45.155400
30
0.0
11
-9.560000
21
-45.155400
31
0.0
0
LINE
8
0
6
CONTINUOUS
10
-9.228000
20
-44.609200
30
0.0
11
-10.656000
21
-44.609200
31
0.0
0
LINE
8
0
6
CONTINUOUS
10
-9.560000
20
-45.155400
30
0.0
11
-7.982000
21
-45.155400
31
0.0
0
LINE
8
0
6
CONTINUOUS
10
-7.705000
20
-44.609200
30
0.0
11
-9.228000
21
-44.609200
31
0.0
0
LINE
8
0
6
CONTINUOUS
10
-7.982000
20
-45.155400
30
0.0
11
-6.323000
21
-45.155400
31
0.0
0
LINE
8
0
6
CONTINUOUS
10
-6.103000
20
-44.609200
30
0.0
11
-7.705000
21
-44.609200
31
0.0
0
LINE
8
0
6
CONTINUOUS
10
-6.323000
20
-45.155400
30
0.0
11
-4.598000
21
-45.155400
31
0.0
0
LINE
8
0
6
CONTINUOUS
10
-4.438000
20
-44.609200
30
0.0
11
-6.103000
21
-44.609200
31
0.0
0
LINE
8
0
6
CONTINUOUS
10
-4.598000
20
-45.155400
30
0.0
11
-2.826000
21
-45.155400
31
0.0
0
LINE
8
0
6
CONTINUOUS
10
-2.728000
20
-44.609200
30
0.0
11
-4.438000
21
-44.609200
31
0.0
0
LINE
8
0
6
CONTINUOUS
10
-2.826000
20
-45.155400
30
0.0
11
-1.026000
21
-45.155400
31
0.0
0
LINE
8
0
6
CONTINUOUS
10
-0.990000
20
-44.609200
30
0.0
11
-2.728000
21
-44.609200
31
0.0
0
LINE
8
0
6
CONTINUOUS
10
-1.026000
20
-45.155400
30
0.0
11
0.000000
21
-45.155400
31
0.0
0
LINE
8
0
6
CONTINUOUS
10
0.000000
20
-44.609200
30
0.0
11
-0.990000
21
-44.609200
31
0.0
0
LINE
8
0
6
CONTINUOUS
10
-16.913000
20
-66.453900
30
0.0
11
-16.127000
21
-66.453900
31
0.0
0
LINE
8
0
6
CONTINUOUS
10
-17.536000
20
-66.453900
30
0.0
11
-16.913000
21
-66.453900
31
0.0
0
LINE
8
0
6
CONTINUOUS
10
-18.376000
20
-66.453900
30
0.0
11
-18.272000
21
-66.453900
31
0.0
0
LINE
8
0
6
CONTINUOUS
10
-18.376000
20
-66.453900
30
0.0
11
-18.376000
21
-56.179200
31
0.0
0
LINE
8
0
6
CONTINUOUS
10
-1.634000
20
-66.453900
30
0.0
11
0.000000
21
-66.453900
31
0.0
0
LINE
8
0
6
CONTINUOUS
10
-3.421000
20
-66.453900
30
0.0
11
-1.634000
21
-66.453900
31
0.0
0
LINE
8
0
6
CONTINUOUS
10
-5.174000
20
-66.453900
30
0.0
11
-3.421000
21
-66.453900
31
0.0
0
LINE
8
0
6
CONTINUOUS
10
-6.878000
20
-66.453900
30
0.0
11
-5.174000
21
-66.453900
31
0.0
0
LINE
8
0
6
CONTINUOUS
10
-8.514000
20
-66.453900
30
0.0
11
-6.878000
21
-66.453900
31
0.0
0
LINE
8
0
6
CONTINUOUS
10
-10.070000
20
-66.453900
30
0.0
11
-8.514000
21
-66.453900
31
0.0
0
LINE
8
0
6
CONTINUOUS
10
-11.528000
20
-66.453900
30
0.0
11
-10.070000
21
-66.453900
31
0.0
0
LINE
8
0
6
CONTINUOUS
10
-12.875000
20
-66.453900
30
0.0
11
-11.528000
21
-66.453900
31
0.0
0
LINE
8
0
6
CONTINUOUS
10
-14.099000
20
-66.453900
30
0.0
11
-12.875000
21
-66.453900
31
0.0
0
LINE
8
0
6
CONTINUOUS
10
-15.186000
20
-66.453900
30
0.0
11
-14.099000
21
-66.453900
31
0.0
0
LINE
8
0
6
CONTINUOUS
10
-16.127000
20
-66.453900
30
0.0
11
-15.186000
21
-66.453900
31
0.0
0
LINE
8
0
6
CONTINUOUS
10
-16.127000
20
-66.453900
30
0.0
11
-16.913000
21
-66.453900
31
0.0
0
LINE
8
0
6
CONTINUOUS
10
-16.364000
20
-67.000000
30
0.0
11
-15.582000
21
-67.000000
31
0.0
0
LINE
8
0
6
CONTINUOUS
10
-15.582000
20
-67.000000
30
0.0
11
-14.642000
21
-67.000000
31
0.0
0
LINE
8
0
6
CONTINUOUS
10
-15.186000
20
-66.453900
30
0.0
11
-16.127000
21
-66.453900
31
0.0
0
LINE
8
0
6
CONTINUOUS
10
-9.493000
20
-67.000000
30
0.0
11
-10.963000
21
-67.000000
31
0.0
0
LINE
8
0
6
CONTINUOUS
10
-10.963000
20
-67.000000
30
0.0
11
-12.320000
21
-67.000000
31
0.0
0
LINE
8
0
6
CONTINUOUS
10
-12.320000
20
-67.000000
30
0.0
11
-13.551000
21
-67.000000
31
0.0
0
LINE
8
0
6
CONTINUOUS
10
-13.551000
20
-67.000000
30
0.0
11
-14.642000
21
-67.000000
31
0.0
0
LINE
8
0
6
CONTINUOUS
10
-14.642000
20
-67.000000
30
0.0
11
-15.582000
21
-67.000000
31
0.0
0
LINE
8
0
6
CONTINUOUS
10
-15.582000
20
-67.000000
30
0.0
11
-16.364000
21
-67.000000
31
0.0
0
LINE
8
0
6
CONTINUOUS
10
-16.364000
20
-67.000000
30
0.0
11
-16.978000
21
-67.000000
31
0.0
0
LINE
8
0
6
CONTINUOUS
10
-17.677000
20
-67.000000
30
0.0
11
-17.751000
21
-67.000000
31
0.0
0
LINE
8
0
6
CONTINUOUS
10
-12.314000
20
-43.184900
30
0.0
11
-13.442000
21
-44.667400
31
0.0
0
LINE
8
0
6
CONTINUOUS
10
-10.976000
20
-41.844500
30
0.0
11
-12.314000
21
-43.184900
31
0.0
0
LINE
8
0
6
CONTINUOUS
10
-10.113000
20
-40.185700
30
0.0
11
-10.024000
21
-40.617200
31
0.0
0
LINE
8
0
6
CONTINUOUS
10
-10.024000
20
-40.617200
30
0.0
11
-10.135000
21
-41.044200
31
0.0
0
LINE
8
0
6
CONTINUOUS
10
0.000000
20
-22.000000
30
0.0
11
-0.821000
21
-22.000000
31
0.0
0
LINE
8
0
6
CONTINUOUS
10
-0.821000
20
-22.000000
30
0.0
11
-2.754000
21
-22.000000
31
0.0
0
LINE
8
0
6
CONTINUOUS
10
-2.754000
20
-22.000000
30
0.0
11
-4.637000
21
-22.000000
31
0.0
0
LINE
8
0
6
CONTINUOUS
10
-4.637000
20
-22.000000
30
0.0
11
-6.432000
21
-22.000000
31
0.0
0
LINE
8
0
6
CONTINUOUS
10
-6.432000
20
-22.000000
30
0.0
11
-8.108000
21
-22.000000
31
0.0
0
LINE
8
0
6
CONTINUOUS
10
-8.108000
20
-22.000000
30
0.0
11
-9.633000
21
-22.000000
31
0.0
0
LINE
8
0
6
CONTINUOUS
10
-14.278000
20
-22.000000
30
0.0
11
-14.278000
21
-33.468400
31
0.0
0
LINE
8
0
6
CONTINUOUS
10
-14.124000
20
-22.000000
30
0.0
11
-14.278000
21
-22.000000
31
0.0
0
LINE
8
0
6
CONTINUOUS
10
-12.054000
20
-33.974200
30
0.0
11
-11.298000
21
-34.148900
31
0.0
0
LINE
8
0
6
CONTINUOUS
10
-10.979000
20
-22.000000
30
0.0
11
-12.120000
21
-22.000000
31
0.0
0
LINE
8
0
6
CONTINUOUS
10
-12.710000
20
-33.822400
30
0.0
11
-12.054000
21
-33.974200
31
0.0
0
LINE
8
0
6
CONTINUOUS
10
-12.120000
20
-22.000000
30
0.0
11
-13.035000
21
-22.000000
31
0.0
0
LINE
8
0
6
CONTINUOUS
10
-13.035000
20
-22.000000
30
0.0
11
-13.707000
21
-22.000000
31
0.0
0
LINE
8
0
6
CONTINUOUS
10
-13.861000
20
-33.558000
30
0.0
11
-13.374000
21
-33.669400
31
0.0
0
LINE
8
0
6
CONTINUOUS
10
-14.165000
20
-33.491400
30
0.0
11
-13.861000
21
-33.558000
31
0.0
0
LINE
8
0
6
CONTINUOUS
10
-13.707000
20
-22.000000
30
0.0
11
-14.124000
21
-22.000000
31
0.0
0
LINE
8
0
6
CONTINUOUS
10
-11.298000
20
-34.148900
30
0.0
11
-10.450000
21
-34.346600
31
0.0
0
LINE
8
0
6
CONTINUOUS
10
-9.633000
20
-22.000000
30
0.0
11
-10.979000
21
-22.000000
31
0.0
0
LINE
8
0
6
CONTINUOUS
10
-11.298000
20
-34.148900
30
0.0
11
-12.054000
21
-33.974200
31
0.0
0
LINE
8
0
6
CONTINUOUS
10
-1.645000
20
-46.138300
30
0.0
11
-3.443000
21
-46.138300
31
0.0
0
LINE
8
0
6
CONTINUOUS
10
-3.443000
20
-54.657800
30
0.0
11
-1.645000
21
-54.657800
31
0.0
0
LINE
8
0
6
CONTINUOUS
10
-3.443000
20
-46.138300
30
0.0
11
-5.209000
21
-46.138300
31
0.0
0
LINE
8
0
6
CONTINUOUS
10
-5.209000
20
-54.657800
30
0.0
11
-3.443000
21
-54.657800
31
0.0
0
LINE
8
0
6
CONTINUOUS
10
21.309000
20
78.000000
30
0.0
11
26.034000
21
78.000000
31
0.0
0
LINE
8
0
6
CONTINUOUS
10
-21.309000
20
78.000000
30
0.0
11
-15.009000
21
78.000000
31
0.0
0
LINE
8
0
6
CONTINUOUS
10
21.957000
20
78.241000
30
0.0
11
26.868000
21
78.241000
31
0.0
0
LINE
8
0
6
CONTINUOUS
10
31.037000
20
78.241000
30
0.0
11
30.110000
21
78.000000
31
0.0
0
LINE
8
0
6
CONTINUOUS
10
22.235000
20
78.724000
30
0.0
11
27.238000
21
78.724000
31
0.0
0
LINE
8
0
6
CONTINUOUS
10
26.868000
20
78.241000
30
0.0
11
21.957000
21
78.241000
31
0.0
0
LINE
8
0
6
CONTINUOUS
10
27.238000
20
78.724000
30
0.0
11
30.388000
21
78.724000
31
0.0
0
LINE
8
0
6
CONTINUOUS
10
31.500000
20
78.724000
30
0.0
11
31.037000
21
78.241000
31
0.0
0
LINE
8
0
6
CONTINUOUS
10
30.388000
20
78.724000
30
0.0
11
31.500000
21
78.724000
31
0.0
0
LINE
8
0
6
CONTINUOUS
10
22.235000
20
85.000000
30
0.0
11
27.238000
21
85.000000
31
0.0
0
LINE
8
0
6
CONTINUOUS
10
27.238000
20
78.724000
30
0.0
11
22.235000
21
78.724000
31
0.0
0
LINE
8
0
6
CONTINUOUS
10
27.238000
20
85.000000
30
0.0
11
30.388000
21
85.000000
31
0.0
0
LINE
8
0
6
CONTINUOUS
10
30.388000
20
78.724000
30
0.0
11
27.238000
21
78.724000
31
0.0
0
LINE
8
0
6
CONTINUOUS
10
31.500000
20
85.000000
30
0.0
11
31.500000
21
78.724000
31
0.0
0
LINE
8
0
6
CONTINUOUS
10
30.388000
20
85.000000
30
0.0
11
31.500000
21
85.000000
31
0.0
0
LINE
8
0
6
CONTINUOUS
10
31.500000
20
78.724000
30
0.0
11
30.388000
21
78.724000
31
0.0
0
LINE
8
0
6
CONTINUOUS
10
27.238000
20
85.000000
30
0.0
11
22.235000
21
85.000000
31
0.0
0
LINE
8
0
6
CONTINUOUS
10
30.388000
20
85.000000
30
0.0
11
27.238000
21
85.000000
31
0.0
0
LINE
8
0
6
CONTINUOUS
10
31.500000
20
85.000000
30
0.0
11
30.388000
21
85.000000
31
0.0
0
LINE
8
0
6
CONTINUOUS
10
15.472000
20
78.241000
30
0.0
11
21.957000
21
78.241000
31
0.0
0
LINE
8
0
6
CONTINUOUS
10
21.957000
20
78.241000
30
0.0
11
15.472000
21
78.241000
31
0.0
0
LINE
8
0
6
CONTINUOUS
10
15.657000
20
78.724000
30
0.0
11
22.235000
21
78.724000
31
0.0
0
LINE
8
0
6
CONTINUOUS
10
8.060000
20
78.724000
30
0.0
11
15.657000
21
78.724000
31
0.0
0
LINE
8
0
6
CONTINUOUS
10
0.000000
20
78.724000
30
0.0
11
8.060000
21
78.724000
31
0.0
0
LINE
8
0
6
CONTINUOUS
10
22.235000
20
78.724000
30
0.0
11
15.657000
21
78.724000
31
0.0
0
LINE
8
0
6
CONTINUOUS
10
15.657000
20
85.000000
30
0.0
11
22.235000
21
85.000000
31
0.0
0
LINE
8
0
6
CONTINUOUS
10
15.657000
20
78.724000
30
0.0
11
8.060000
21
78.724000
31
0.0
0
LINE
8
0
6
CONTINUOUS
10
8.060000
20
85.000000
30
0.0
11
15.657000
21
85.000000
31
0.0
0
LINE
8
0
6
CONTINUOUS
10
8.060000
20
78.724000
30
0.0
11
0.000000
21
78.724000
31
0.0
0
LINE
8
0
6
CONTINUOUS
10
0.000000
20
85.000000
30
0.0
11
8.060000
21
85.000000
31
0.0
0
LINE
8
0
6
CONTINUOUS
10
22.235000
20
85.000000
30
0.0
11
15.657000
21
85.000000
31
0.0
0
LINE
8
0
6
CONTINUOUS
10
15.657000
20
85.000000
30
0.0
11
8.060000
21
85.000000
31
0.0
0
LINE
8
0
6
CONTINUOUS
10
8.060000
20
85.000000
30
0.0
11
0.000000
21
85.000000
31
0.0
0
LINE
8
0
6
CONTINUOUS
10
-21.957000
20
78.241000
30
0.0
11
-15.472000
21
78.241000
31
0.0
0
LINE
8
0
6
CONTINUOUS
10
-22.235000
20
78.724000
30
0.0
11
-15.657000
21
78.724000
31
0.0
0
LINE
8
0
6
CONTINUOUS
10
-15.472000
20
78.241000
30
0.0
11
-21.957000
21
78.241000
31
0.0
0
LINE
8
0
6
CONTINUOUS
10
-15.657000
20
78.724000
30
0.0
11
-8.060000
21
78.724000
31
0.0
0
LINE
8
0
6
CONTINUOUS
10
-8.060000
20
78.724000
30
0.0
11
0.000000
21
78.724000
31
0.0
0
LINE
8
0
6
CONTINUOUS
10
-22.235000
20
85.000000
30
0.0
11
-15.657000
21
85.000000
31
0.0
0
LINE
8
0
6
CONTINUOUS
10
-15.657000
20
78.724000
30
0.0
11
-22.235000
21
78.724000
31
0.0
0
LINE
8
0
6
CONTINUOUS
10
-15.657000
20
85.000000
30
0.0
11
-8.060000
21
85.000000
31
0.0
0
LINE
8
0
6
CONTINUOUS
10
-8.060000
20
78.724000
30
0.0
11
-15.657000
21
78.724000
31
0.0
0
LINE
8
0
6
CONTINUOUS
10
-8.060000
20
85.000000
30
0.0
11
0.000000
21
85.000000
31
0.0
0
LINE
8
0
6
CONTINUOUS
10
0.000000
20
78.724000
30
0.0
11
-8.060000
21
78.724000
31
0.0
0
LINE
8
0
6
CONTINUOUS
10
-15.657000
20
85.000000
30
0.0
11
-22.235000
21
85.000000
31
0.0
0
LINE
8
0
6
CONTINUOUS
10
-8.060000
20
85.000000
30
0.0
11
-15.657000
21
85.000000
31
0.0
0
LINE
8
0
6
CONTINUOUS
10
0.000000
20
85.000000
30
0.0
11
-8.060000
21
85.000000
31
0.0
0
LINE
8
0
6
CONTINUOUS
10
-26.868000
20
78.241000
30
0.0
11
-21.957000
21
78.241000
31
0.0
0
LINE
8
0
6
CONTINUOUS
10
-30.110000
20
78.000000
30
0.0
11
-31.037000
21
78.241000
31
0.0
0
LINE
8
0
6
CONTINUOUS
10
-21.957000
20
78.241000
30
0.0
11
-26.868000
21
78.241000
31
0.0
0
LINE
8
0
6
CONTINUOUS
10
-27.238000
20
78.724000
30
0.0
11
-22.235000
21
78.724000
31
0.0
0
LINE
8
0
6
CONTINUOUS
10
-30.388000
20
78.724000
30
0.0
11
-27.238000
21
78.724000
31
0.0
0
LINE
8
0
6
CONTINUOUS
10
-31.037000
20
78.241000
30
0.0
11
-31.500000
21
78.724000
31
0.0
0
LINE
8
0
6
CONTINUOUS
10
-31.500000
20
78.724000
30
0.0
11
-30.388000
21
78.724000
31
0.0
0
LINE
8
0
6
CONTINUOUS
10
-22.235000
20
78.724000
30
0.0
11
-27.238000
21
78.724000
31
0.0
0
LINE
8
0
6
CONTINUOUS
10
-27.238000
20
85.000000
30
0.0
11
-22.235000
21
85.000000
31
0.0
0
LINE
8
0
6
CONTINUOUS
10
-27.238000
20
78.724000
30
0.0
11
-30.388000
21
78.724000
31
0.0
0
LINE
8
0
6
CONTINUOUS
10
-30.388000
20
85.000000
30
0.0
11
-27.238000
21
85.000000
31
0.0
0
LINE
8
0
6
CONTINUOUS
10
-31.500000
20
78.724000
30
0.0
11
-31.500000
21
85.000000
31
0.0
0
LINE
8
0
6
CONTINUOUS
10
-30.388000
20
78.724000
30
0.0
11
-31.500000
21
78.724000
31
0.0
0
LINE
8
0
6
CONTINUOUS
10
-31.500000
20
85.000000
30
0.0
11
-30.388000
21
85.000000
31
0.0
0
LINE
8
0
6
CONTINUOUS
10
-22.235000
20
85.000000
30
0.0
11
-27.238000
21
85.000000
31
0.0
0
LINE
8
0
6
CONTINUOUS
10
-27.238000
20
85.000000
30
0.0
11
-30.388000
21
85.000000
31
0.0
0
LINE
8
0
6
CONTINUOUS
10
-30.388000
20
85.000000
30
0.0
11
-31.500000
21
85.000000
31
0.0
0
LINE
8
0
6
CONTINUOUS
10
3.456000
20
78.000000
30
0.0
11
0.000000
21
78.000000
31
0.0
0
LINE
8
0
6
CONTINUOUS
10
6.696000
20
78.000000
30
0.0
11
3.456000
21
78.000000
31
0.0
0
LINE
8
0
6
CONTINUOUS
10
9.558000
20
78.000000
30
0.0
11
6.696000
21
78.000000
31
0.0
0
LINE
8
0
6
CONTINUOUS
10
11.718000
20
78.000000
30
0.0
11
9.558000
21
78.000000
31
0.0
0
LINE
8
0
6
CONTINUOUS
10
13.500000
20
-22.000000
30
0.0
11
13.500000
21
78.000000
31
0.0
0
LINE
8
0
6
CONTINUOUS
10
-13.500000
20
78.000000
30
0.0
11
-13.500000
21
-22.000000
31
0.0
0
ENDSEC
0
EOF
