999
Erzeugt mit innoplus bad 
0
SECTION
2
HEADER
9
$ACADVER
1
AC1009
9
$DWGCODEPAGE
3
ISO8859-1
0
ENDSEC
0
SECTION
2
TABLES
0
TABLE
2
LAYER
70
1
0
LAYER
2
0
70
0
62
7
6
CONTINUOUS
0
ENDTAB
0
ENDSEC
0
SECTION
2
ENTITIES
0
LINE
8
0
6
CONTINUOUS
10
12.000000
20
-118.800000
30
0.0
11
12.000000
21
-114.300000
31
0.0
0
LINE
8
0
6
CONTINUOUS
10
12.000000
20
-121.500000
30
0.0
11
12.000000
21
-118.800000
31
0.0
0
LINE
8
0
6
CONTINUOUS
10
12.000000
20
-122.500000
30
0.0
11
12.000000
21
-121.500000
31
0.0
0
LINE
8
0
6
CONTINUOUS
10
12.000000
20
-122.500000
30
0.0
11
11.600000
21
-125.600000
31
0.0
0
LINE
8
0
6
CONTINUOUS
10
11.600000
20
-125.600000
30
0.0
11
10.400000
21
-128.500000
31
0.0
0
LINE
8
0
6
CONTINUOUS
10
10.400000
20
-128.500000
30
0.0
11
8.500000
21
-131.000000
31
0.0
0
LINE
8
0
6
CONTINUOUS
10
8.500000
20
-131.000000
30
0.0
11
6.000000
21
-132.900000
31
0.0
0
LINE
8
0
6
CONTINUOUS
10
6.000000
20
-132.900000
30
0.0
11
3.100000
21
-134.100000
31
0.0
0
LINE
8
0
6
CONTINUOUS
10
3.100000
20
-134.100000
30
0.0
11
0.000000
21
-134.500000
31
0.0
0
LINE
8
0
6
CONTINUOUS
10
12.000000
20
-114.300000
30
0.0
11
12.000000
21
-108.500000
31
0.0
0
LINE
8
0
6
CONTINUOUS
10
12.000000
20
-108.500000
30
0.0
11
12.000000
21
-101.700000
31
0.0
0
LINE
8
0
6
CONTINUOUS
10
12.000000
20
-101.700000
30
0.0
11
12.000000
21
-94.500000
31
0.0
0
LINE
8
0
6
CONTINUOUS
10
12.000000
20
-94.500000
30
0.0
11
12.000000
21
260.500000
31
0.0
0
LINE
8
0
6
CONTINUOUS
10
-12.000000
20
-108.500000
30
0.0
11
-12.000000
21
-114.300000
31
0.0
0
LINE
8
0
6
CONTINUOUS
10
-12.000000
20
-101.700000
30
0.0
11
-12.000000
21
-108.500000
31
0.0
0
LINE
8
0
6
CONTINUOUS
10
-12.000000
20
-94.500000
30
0.0
11
-12.000000
21
-101.700000
31
0.0
0
LINE
8
0
6
CONTINUOUS
10
-11.600000
20
260.500000
30
0.0
11
-12.000000
21
260.500000
31
0.0
0
LINE
8
0
6
CONTINUOUS
10
-12.000000
20
260.500000
30
0.0
11
-12.000000
21
-94.500000
31
0.0
0
LINE
8
0
6
CONTINUOUS
10
-10.400000
20
260.500000
30
0.0
11
-11.600000
21
260.500000
31
0.0
0
LINE
8
0
6
CONTINUOUS
10
-12.000000
20
-114.300000
30
0.0
11
-12.000000
21
-118.800000
31
0.0
0
LINE
8
0
6
CONTINUOUS
10
-12.000000
20
-118.800000
30
0.0
11
-12.000000
21
-121.500000
31
0.0
0
LINE
8
0
6
CONTINUOUS
10
-12.000000
20
-121.500000
30
0.0
11
-12.000000
21
-122.500000
31
0.0
0
LINE
8
0
6
CONTINUOUS
10
-11.600000
20
-125.600000
30
0.0
11
-12.000000
21
-122.500000
31
0.0
0
LINE
8
0
6
CONTINUOUS
10
-10.400000
20
-128.500000
30
0.0
11
-11.600000
21
-125.600000
31
0.0
0
LINE
8
0
6
CONTINUOUS
10
-8.500000
20
-131.000000
30
0.0
11
-10.400000
21
-128.500000
31
0.0
0
LINE
8
0
6
CONTINUOUS
10
-6.000000
20
-132.900000
30
0.0
11
-8.500000
21
-131.000000
31
0.0
0
LINE
8
0
6
CONTINUOUS
10
-3.100000
20
-134.100000
30
0.0
11
-6.000000
21
-132.900000
31
0.0
0
LINE
8
0
6
CONTINUOUS
10
0.000000
20
-134.500000
30
0.0
11
-3.100000
21
-134.100000
31
0.0
0
LINE
8
0
6
CONTINUOUS
10
3.100000
20
-134.100000
30
0.0
11
6.000000
21
-132.900000
31
0.0
0
LINE
8
0
6
CONTINUOUS
10
8.500000
20
-131.000000
30
0.0
11
10.400000
21
-128.500000
31
0.0
0
LINE
8
0
6
CONTINUOUS
10
-3.100000
20
-134.100000
30
0.0
11
0.000000
21
-134.500000
31
0.0
0
LINE
8
0
6
CONTINUOUS
10
-8.500000
20
-131.000000
30
0.0
11
-6.000000
21
-132.900000
31
0.0
0
LINE
8
0
6
CONTINUOUS
10
-11.600000
20
-125.600000
30
0.0
11
-10.400000
21
-128.500000
31
0.0
0
LINE
8
0
6
CONTINUOUS
10
-12.000000
20
-122.500000
30
0.0
11
-11.600000
21
-125.600000
31
0.0
0
LINE
8
0
6
CONTINUOUS
10
-19.360000
20
260.500000
30
0.0
11
-12.000000
21
260.500000
31
0.0
0
LINE
8
0
6
CONTINUOUS
10
-12.000000
20
260.500000
30
0.0
11
-19.360000
21
260.500000
31
0.0
0
LINE
8
0
6
CONTINUOUS
10
-10.080000
20
260.500000
30
0.0
11
-19.360000
21
260.500000
31
0.0
0
LINE
8
0
6
CONTINUOUS
10
0.000000
20
260.500000
30
0.0
11
-10.080000
21
260.500000
31
0.0
0
LINE
8
0
6
CONTINUOUS
10
-39.040000
20
260.500000
30
0.0
11
-37.600000
21
260.500000
31
0.0
0
LINE
8
0
6
CONTINUOUS
10
-40.000000
20
261.220000
30
0.0
11
-39.040000
21
260.500000
31
0.0
0
LINE
8
0
6
CONTINUOUS
10
-38.560000
20
261.220000
30
0.0
11
-40.000000
21
261.220000
31
0.0
0
LINE
8
0
6
CONTINUOUS
10
-37.600000
20
260.500000
30
0.0
11
-33.760000
21
260.500000
31
0.0
0
LINE
8
0
6
CONTINUOUS
10
-34.720000
20
261.220000
30
0.0
11
-38.560000
21
261.220000
31
0.0
0
LINE
8
0
6
CONTINUOUS
10
-33.760000
20
260.500000
30
0.0
11
-27.520000
21
260.500000
31
0.0
0
LINE
8
0
6
CONTINUOUS
10
-28.320000
20
261.220000
30
0.0
11
-34.720000
21
261.220000
31
0.0
0
LINE
8
0
6
CONTINUOUS
10
-27.520000
20
260.500000
30
0.0
11
-19.360000
21
260.500000
31
0.0
0
LINE
8
0
6
CONTINUOUS
10
-19.840000
20
261.220000
30
0.0
11
-28.320000
21
261.220000
31
0.0
0
LINE
8
0
6
CONTINUOUS
10
-19.360000
20
260.500000
30
0.0
11
-10.080000
21
260.500000
31
0.0
0
LINE
8
0
6
CONTINUOUS
10
-10.240000
20
261.220000
30
0.0
11
-19.840000
21
261.220000
31
0.0
0
LINE
8
0
6
CONTINUOUS
10
-10.080000
20
260.500000
30
0.0
11
0.000000
21
260.500000
31
0.0
0
LINE
8
0
6
CONTINUOUS
10
0.000000
20
261.220000
30
0.0
11
-10.240000
21
261.220000
31
0.0
0
LINE
8
0
6
CONTINUOUS
10
-40.000000
20
261.220000
30
0.0
11
-38.560000
21
261.220000
31
0.0
0
LINE
8
0
6
CONTINUOUS
10
-40.000000
20
272.500000
30
0.0
11
-40.000000
21
261.220000
31
0.0
0
LINE
8
0
6
CONTINUOUS
10
-38.560000
20
272.500000
30
0.0
11
-40.000000
21
272.500000
31
0.0
0
LINE
8
0
6
CONTINUOUS
10
-38.560000
20
261.220000
30
0.0
11
-34.720000
21
261.220000
31
0.0
0
LINE
8
0
6
CONTINUOUS
10
-34.720000
20
272.500000
30
0.0
11
-38.560000
21
272.500000
31
0.0
0
LINE
8
0
6
CONTINUOUS
10
-34.720000
20
261.220000
30
0.0
11
-28.320000
21
261.220000
31
0.0
0
LINE
8
0
6
CONTINUOUS
10
-28.320000
20
272.500000
30
0.0
11
-34.720000
21
272.500000
31
0.0
0
LINE
8
0
6
CONTINUOUS
10
-28.320000
20
261.220000
30
0.0
11
-19.840000
21
261.220000
31
0.0
0
LINE
8
0
6
CONTINUOUS
10
-19.840000
20
272.500000
30
0.0
11
-28.320000
21
272.500000
31
0.0
0
LINE
8
0
6
CONTINUOUS
10
-19.840000
20
261.220000
30
0.0
11
-10.240000
21
261.220000
31
0.0
0
LINE
8
0
6
CONTINUOUS
10
-10.240000
20
272.500000
30
0.0
11
-19.840000
21
272.500000
31
0.0
0
LINE
8
0
6
CONTINUOUS
10
-10.240000
20
261.220000
30
0.0
11
0.000000
21
261.220000
31
0.0
0
LINE
8
0
6
CONTINUOUS
10
0.000000
20
272.500000
30
0.0
11
-10.240000
21
272.500000
31
0.0
0
LINE
8
0
6
CONTINUOUS
10
-40.000000
20
272.500000
30
0.0
11
-38.560000
21
272.500000
31
0.0
0
LINE
8
0
6
CONTINUOUS
10
-38.560000
20
272.500000
30
0.0
11
-34.720000
21
272.500000
31
0.0
0
LINE
8
0
6
CONTINUOUS
10
-34.720000
20
272.500000
30
0.0
11
-28.320000
21
272.500000
31
0.0
0
LINE
8
0
6
CONTINUOUS
10
-28.320000
20
272.500000
30
0.0
11
-19.840000
21
272.500000
31
0.0
0
LINE
8
0
6
CONTINUOUS
10
-19.840000
20
272.500000
30
0.0
11
-10.240000
21
272.500000
31
0.0
0
LINE
8
0
6
CONTINUOUS
10
-10.240000
20
272.500000
30
0.0
11
0.000000
21
272.500000
31
0.0
0
LINE
8
0
6
CONTINUOUS
10
39.040000
20
260.500000
30
0.0
11
37.600000
21
260.500000
31
0.0
0
LINE
8
0
6
CONTINUOUS
10
37.600000
20
260.500000
30
0.0
11
33.760000
21
260.500000
31
0.0
0
LINE
8
0
6
CONTINUOUS
10
12.000000
20
260.500000
30
0.0
11
10.080000
21
260.500000
31
0.0
0
LINE
8
0
6
CONTINUOUS
10
10.080000
20
260.500000
30
0.0
11
0.000000
21
260.500000
31
0.0
0
LINE
8
0
6
CONTINUOUS
10
40.000000
20
261.220000
30
0.0
11
38.560000
21
261.220000
31
0.0
0
LINE
8
0
6
CONTINUOUS
10
37.600000
20
260.500000
30
0.0
11
39.040000
21
260.500000
31
0.0
0
LINE
8
0
6
CONTINUOUS
10
38.560000
20
261.220000
30
0.0
11
34.720000
21
261.220000
31
0.0
0
LINE
8
0
6
CONTINUOUS
10
33.760000
20
260.500000
30
0.0
11
37.600000
21
260.500000
31
0.0
0
LINE
8
0
6
CONTINUOUS
10
34.720000
20
261.220000
30
0.0
11
28.320000
21
261.220000
31
0.0
0
LINE
8
0
6
CONTINUOUS
10
27.520000
20
260.500000
30
0.0
11
33.760000
21
260.500000
31
0.0
0
LINE
8
0
6
CONTINUOUS
10
28.320000
20
261.220000
30
0.0
11
19.840000
21
261.220000
31
0.0
0
LINE
8
0
6
CONTINUOUS
10
19.360000
20
260.500000
30
0.0
11
27.520000
21
260.500000
31
0.0
0
LINE
8
0
6
CONTINUOUS
10
19.840000
20
261.220000
30
0.0
11
10.240000
21
261.220000
31
0.0
0
LINE
8
0
6
CONTINUOUS
10
10.080000
20
260.500000
30
0.0
11
19.360000
21
260.500000
31
0.0
0
LINE
8
0
6
CONTINUOUS
10
10.240000
20
261.220000
30
0.0
11
0.000000
21
261.220000
31
0.0
0
LINE
8
0
6
CONTINUOUS
10
0.000000
20
260.500000
30
0.0
11
10.080000
21
260.500000
31
0.0
0
LINE
8
0
6
CONTINUOUS
10
40.000000
20
272.500000
30
0.0
11
38.560000
21
272.500000
31
0.0
0
LINE
8
0
6
CONTINUOUS
10
38.560000
20
261.220000
30
0.0
11
40.000000
21
261.220000
31
0.0
0
LINE
8
0
6
CONTINUOUS
10
38.560000
20
272.500000
30
0.0
11
34.720000
21
272.500000
31
0.0
0
LINE
8
0
6
CONTINUOUS
10
34.720000
20
261.220000
30
0.0
11
38.560000
21
261.220000
31
0.0
0
LINE
8
0
6
CONTINUOUS
10
34.720000
20
272.500000
30
0.0
11
28.320000
21
272.500000
31
0.0
0
LINE
8
0
6
CONTINUOUS
10
28.320000
20
261.220000
30
0.0
11
34.720000
21
261.220000
31
0.0
0
LINE
8
0
6
CONTINUOUS
10
28.320000
20
272.500000
30
0.0
11
19.840000
21
272.500000
31
0.0
0
LINE
8
0
6
CONTINUOUS
10
19.840000
20
261.220000
30
0.0
11
28.320000
21
261.220000
31
0.0
0
LINE
8
0
6
CONTINUOUS
10
19.840000
20
272.500000
30
0.0
11
10.240000
21
272.500000
31
0.0
0
LINE
8
0
6
CONTINUOUS
10
10.240000
20
261.220000
30
0.0
11
19.840000
21
261.220000
31
0.0
0
LINE
8
0
6
CONTINUOUS
10
10.240000
20
272.500000
30
0.0
11
0.000000
21
272.500000
31
0.0
0
LINE
8
0
6
CONTINUOUS
10
0.000000
20
261.220000
30
0.0
11
10.240000
21
261.220000
31
0.0
0
LINE
8
0
6
CONTINUOUS
10
38.560000
20
272.500000
30
0.0
11
40.000000
21
272.500000
31
0.0
0
LINE
8
0
6
CONTINUOUS
10
34.720000
20
272.500000
30
0.0
11
38.560000
21
272.500000
31
0.0
0
LINE
8
0
6
CONTINUOUS
10
28.320000
20
272.500000
30
0.0
11
34.720000
21
272.500000
31
0.0
0
LINE
8
0
6
CONTINUOUS
10
19.840000
20
272.500000
30
0.0
11
28.320000
21
272.500000
31
0.0
0
LINE
8
0
6
CONTINUOUS
10
10.240000
20
272.500000
30
0.0
11
19.840000
21
272.500000
31
0.0
0
LINE
8
0
6
CONTINUOUS
10
0.000000
20
272.500000
30
0.0
11
10.240000
21
272.500000
31
0.0
0
LINE
8
0
6
CONTINUOUS
10
37.600000
20
260.500000
30
0.0
11
39.040000
21
260.500000
31
0.0
0
LINE
8
0
6
CONTINUOUS
10
33.760000
20
260.500000
30
0.0
11
37.600000
21
260.500000
31
0.0
0
LINE
8
0
6
CONTINUOUS
10
39.040000
20
260.500000
30
0.0
11
37.600000
21
260.500000
31
0.0
0
LINE
8
0
6
CONTINUOUS
10
40.000000
20
261.220000
30
0.0
11
39.040000
21
260.500000
31
0.0
0
LINE
8
0
6
CONTINUOUS
10
37.600000
20
260.500000
30
0.0
11
33.760000
21
260.500000
31
0.0
0
LINE
8
0
6
CONTINUOUS
10
40.000000
20
272.500000
30
0.0
11
40.000000
21
261.220000
31
0.0
0
LINE
8
0
6
CONTINUOUS
10
12.979000
20
-120.572000
30
0.0
11
13.121000
21
-122.359000
31
0.0
0
LINE
8
0
6
CONTINUOUS
10
13.121000
20
-122.359000
30
0.0
11
13.112000
21
-122.500000
31
0.0
0
LINE
8
0
6
CONTINUOUS
10
12.596000
20
-118.822000
30
0.0
11
11.978000
21
-117.141000
31
0.0
0
LINE
8
0
6
CONTINUOUS
10
12.530000
20
-122.500000
30
0.0
11
12.544000
21
-122.089000
31
0.0
0
LINE
8
0
6
CONTINUOUS
10
12.544000
20
-122.089000
30
0.0
11
12.372000
21
-120.384000
31
0.0
0
LINE
8
0
6
CONTINUOUS
10
12.544000
20
-122.089000
30
0.0
11
12.372000
21
-120.384000
31
0.0
0
LINE
8
0
6
CONTINUOUS
10
12.372000
20
-120.384000
30
0.0
11
11.968000
21
-118.718000
31
0.0
0
LINE
8
0
6
CONTINUOUS
10
11.978000
20
-117.141000
30
0.0
11
12.596000
21
-118.822000
31
0.0
0
LINE
8
0
6
CONTINUOUS
10
12.290000
20
-117.900000
30
0.0
11
11.978000
21
-117.141000
31
0.0
0
LINE
8
0
6
CONTINUOUS
10
12.596000
20
-118.822000
30
0.0
11
12.979000
21
-120.572000
31
0.0
0
LINE
8
0
6
CONTINUOUS
10
11.968000
20
-118.718000
30
0.0
11
12.372000
21
-120.384000
31
0.0
0
LINE
8
0
6
CONTINUOUS
10
12.979000
20
-120.572000
30
0.0
11
12.596000
21
-118.822000
31
0.0
0
LINE
8
0
6
CONTINUOUS
10
12.372000
20
-120.384000
30
0.0
11
12.544000
21
-122.089000
31
0.0
0
LINE
8
0
6
CONTINUOUS
10
13.121000
20
-122.359000
30
0.0
11
12.979000
21
-120.572000
31
0.0
0
LINE
8
0
6
CONTINUOUS
10
12.544000
20
-122.089000
30
0.0
11
12.530000
21
-122.500000
31
0.0
0
LINE
8
0
6
CONTINUOUS
10
13.112000
20
-122.500000
30
0.0
11
13.121000
21
-122.359000
31
0.0
0
LINE
8
0
6
CONTINUOUS
10
14.049000
20
-112.922000
30
0.0
11
13.043000
21
-111.591000
31
0.0
0
LINE
8
0
6
CONTINUOUS
10
13.043000
20
-111.591000
30
0.0
11
14.049000
21
-112.922000
31
0.0
0
LINE
8
0
6
CONTINUOUS
10
11.911000
20
-110.364000
30
0.0
11
13.043000
21
-111.591000
31
0.0
0
LINE
8
0
6
CONTINUOUS
10
13.043000
20
-111.591000
30
0.0
11
11.911000
21
-110.364000
31
0.0
0
LINE
8
0
6
CONTINUOUS
10
13.548000
20
-113.201000
30
0.0
11
12.539000
21
-111.878000
31
0.0
0
LINE
8
0
6
CONTINUOUS
10
12.103000
20
-112.247000
30
0.0
11
13.078000
21
-113.524000
31
0.0
0
LINE
8
0
6
CONTINUOUS
10
12.539000
20
-111.878000
30
0.0
11
13.548000
21
-113.201000
31
0.0
0
LINE
8
0
6
CONTINUOUS
10
16.643000
20
-119.030000
30
0.0
11
16.223000
21
-117.415000
31
0.0
0
LINE
8
0
6
CONTINUOUS
10
15.710000
20
-117.686000
30
0.0
11
16.117000
21
-119.299000
31
0.0
0
LINE
8
0
6
CONTINUOUS
10
16.223000
20
-117.415000
30
0.0
11
16.643000
21
-119.030000
31
0.0
0
LINE
8
0
6
CONTINUOUS
10
15.647000
20
-115.849000
30
0.0
11
16.223000
21
-117.415000
31
0.0
0
LINE
8
0
6
CONTINUOUS
10
14.419000
20
-114.620000
30
0.0
11
15.143000
21
-116.119000
31
0.0
0
LINE
8
0
6
CONTINUOUS
10
13.918000
20
-114.893000
30
0.0
11
14.616000
21
-116.341000
31
0.0
0
LINE
8
0
6
CONTINUOUS
10
15.143000
20
-116.119000
30
0.0
11
14.419000
21
-114.620000
31
0.0
0
LINE
8
0
6
CONTINUOUS
10
14.920000
20
-114.347000
30
0.0
11
15.647000
21
-115.849000
31
0.0
0
LINE
8
0
6
CONTINUOUS
10
15.143000
20
-116.119000
30
0.0
11
15.710000
21
-117.686000
31
0.0
0
LINE
8
0
6
CONTINUOUS
10
16.223000
20
-117.415000
30
0.0
11
15.647000
21
-115.849000
31
0.0
0
LINE
8
0
6
CONTINUOUS
10
15.710000
20
-117.686000
30
0.0
11
15.143000
21
-116.119000
31
0.0
0
LINE
8
0
6
CONTINUOUS
10
14.616000
20
-116.341000
30
0.0
11
15.164000
21
-117.852000
31
0.0
0
LINE
8
0
6
CONTINUOUS
10
15.647000
20
-115.849000
30
0.0
11
14.920000
21
-114.347000
31
0.0
0
LINE
8
0
6
CONTINUOUS
10
16.994000
20
-122.500000
30
0.0
11
17.000000
21
-122.345000
31
0.0
0
LINE
8
0
6
CONTINUOUS
10
16.667000
20
-122.500000
30
0.0
11
16.357000
21
-120.948000
31
0.0
0
LINE
8
0
6
CONTINUOUS
10
17.000000
20
-122.345000
30
0.0
11
16.903000
21
-120.678000
31
0.0
0
LINE
8
0
6
CONTINUOUS
10
15.789000
20
-121.000000
30
0.0
11
15.855000
21
-122.500000
31
0.0
0
LINE
8
0
6
CONTINUOUS
10
16.426000
20
-122.500000
30
0.0
11
16.358000
21
-120.947000
31
0.0
0
LINE
8
0
6
CONTINUOUS
10
16.358000
20
-120.947000
30
0.0
11
16.426000
21
-122.500000
31
0.0
0
LINE
8
0
6
CONTINUOUS
10
17.000000
20
-122.345000
30
0.0
11
16.994000
21
-122.500000
31
0.0
0
LINE
8
0
6
CONTINUOUS
10
16.903000
20
-120.678000
30
0.0
11
17.000000
21
-122.345000
31
0.0
0
LINE
8
0
6
CONTINUOUS
10
16.117000
20
-119.299000
30
0.0
11
16.358000
21
-120.947000
31
0.0
0
LINE
8
0
6
CONTINUOUS
10
16.358000
20
-120.947000
30
0.0
11
16.117000
21
-119.299000
31
0.0
0
LINE
8
0
6
CONTINUOUS
10
15.557000
20
-119.410000
30
0.0
11
15.789000
21
-121.000000
31
0.0
0
LINE
8
0
6
CONTINUOUS
10
16.117000
20
-119.299000
30
0.0
11
15.710000
21
-117.686000
31
0.0
0
LINE
8
0
6
CONTINUOUS
10
15.164000
20
-117.852000
30
0.0
11
15.557000
21
-119.410000
31
0.0
0
LINE
8
0
6
CONTINUOUS
10
16.643000
20
-119.030000
30
0.0
11
16.903000
21
-120.678000
31
0.0
0
LINE
8
0
6
CONTINUOUS
10
16.903000
20
-120.678000
30
0.0
11
16.643000
21
-119.030000
31
0.0
0
LINE
8
0
6
CONTINUOUS
10
14.616000
20
-116.341000
30
0.0
11
13.918000
21
-114.893000
31
0.0
0
LINE
8
0
6
CONTINUOUS
10
15.164000
20
-117.852000
30
0.0
11
14.616000
21
-116.341000
31
0.0
0
LINE
8
0
6
CONTINUOUS
10
15.557000
20
-119.410000
30
0.0
11
15.164000
21
-117.852000
31
0.0
0
LINE
8
0
6
CONTINUOUS
10
15.789000
20
-121.000000
30
0.0
11
15.557000
21
-119.410000
31
0.0
0
LINE
8
0
6
CONTINUOUS
10
15.855000
20
-122.500000
30
0.0
11
15.789000
21
-121.000000
31
0.0
0
LINE
8
0
6
CONTINUOUS
10
13.918000
20
-114.893000
30
0.0
11
13.078000
21
-113.524000
31
0.0
0
LINE
8
0
6
CONTINUOUS
10
13.078000
20
-113.524000
30
0.0
11
12.103000
21
-112.247000
31
0.0
0
LINE
8
0
6
CONTINUOUS
10
14.049000
20
-112.922000
30
0.0
11
14.920000
21
-114.347000
31
0.0
0
LINE
8
0
6
CONTINUOUS
10
14.920000
20
-114.347000
30
0.0
11
14.049000
21
-112.922000
31
0.0
0
LINE
8
0
6
CONTINUOUS
10
14.419000
20
-114.620000
30
0.0
11
13.548000
21
-113.201000
31
0.0
0
LINE
8
0
6
CONTINUOUS
10
13.078000
20
-113.524000
30
0.0
11
13.918000
21
-114.893000
31
0.0
0
LINE
8
0
6
CONTINUOUS
10
13.548000
20
-113.201000
30
0.0
11
14.419000
21
-114.620000
31
0.0
0
LINE
8
0
6
CONTINUOUS
10
-11.978000
20
-117.141000
30
0.0
11
-12.596000
21
-118.822000
31
0.0
0
LINE
8
0
6
CONTINUOUS
10
-13.121000
20
-122.359000
30
0.0
11
-13.112000
21
-122.500000
31
0.0
0
LINE
8
0
6
CONTINUOUS
10
-12.530000
20
-122.500000
30
0.0
11
-12.544000
21
-122.089000
31
0.0
0
LINE
8
0
6
CONTINUOUS
10
-12.544000
20
-122.089000
30
0.0
11
-12.530000
21
-122.500000
31
0.0
0
LINE
8
0
6
CONTINUOUS
10
-12.979000
20
-120.572000
30
0.0
11
-13.121000
21
-122.359000
31
0.0
0
LINE
8
0
6
CONTINUOUS
10
-12.544000
20
-122.089000
30
0.0
11
-12.372000
21
-120.384000
31
0.0
0
LINE
8
0
6
CONTINUOUS
10
-12.372000
20
-120.384000
30
0.0
11
-12.544000
21
-122.089000
31
0.0
0
LINE
8
0
6
CONTINUOUS
10
-12.372000
20
-120.384000
30
0.0
11
-12.544000
21
-122.089000
31
0.0
0
LINE
8
0
6
CONTINUOUS
10
-11.968000
20
-118.718000
30
0.0
11
-12.372000
21
-120.384000
31
0.0
0
LINE
8
0
6
CONTINUOUS
10
-12.596000
20
-118.822000
30
0.0
11
-12.979000
21
-120.572000
31
0.0
0
LINE
8
0
6
CONTINUOUS
10
-12.372000
20
-120.384000
30
0.0
11
-11.968000
21
-118.718000
31
0.0
0
LINE
8
0
6
CONTINUOUS
10
-12.596000
20
-118.822000
30
0.0
11
-11.978000
21
-117.141000
31
0.0
0
LINE
8
0
6
CONTINUOUS
10
-13.112000
20
-122.500000
30
0.0
11
-13.121000
21
-122.359000
31
0.0
0
LINE
8
0
6
CONTINUOUS
10
-13.121000
20
-122.359000
30
0.0
11
-12.979000
21
-120.572000
31
0.0
0
LINE
8
0
6
CONTINUOUS
10
-12.979000
20
-120.572000
30
0.0
11
-12.596000
21
-118.822000
31
0.0
0
LINE
8
0
6
CONTINUOUS
10
-12.290000
20
-117.900000
30
0.0
11
-11.978000
21
-117.141000
31
0.0
0
LINE
8
0
6
CONTINUOUS
10
-13.548000
20
-113.201000
30
0.0
11
-12.539000
21
-111.878000
31
0.0
0
LINE
8
0
6
CONTINUOUS
10
-12.539000
20
-111.878000
30
0.0
11
-13.548000
21
-113.201000
31
0.0
0
LINE
8
0
6
CONTINUOUS
10
-13.078000
20
-113.524000
30
0.0
11
-12.103000
21
-112.247000
31
0.0
0
LINE
8
0
6
CONTINUOUS
10
-11.911000
20
-110.364000
30
0.0
11
-13.043000
21
-111.591000
31
0.0
0
LINE
8
0
6
CONTINUOUS
10
-13.043000
20
-111.591000
30
0.0
11
-11.911000
21
-110.364000
31
0.0
0
LINE
8
0
6
CONTINUOUS
10
-13.043000
20
-111.591000
30
0.0
11
-14.049000
21
-112.922000
31
0.0
0
LINE
8
0
6
CONTINUOUS
10
-14.049000
20
-112.922000
30
0.0
11
-13.043000
21
-111.591000
31
0.0
0
LINE
8
0
6
CONTINUOUS
10
-14.616000
20
-116.341000
30
0.0
11
-13.918000
21
-114.893000
31
0.0
0
LINE
8
0
6
CONTINUOUS
10
-14.419000
20
-114.620000
30
0.0
11
-15.142000
21
-116.119000
31
0.0
0
LINE
8
0
6
CONTINUOUS
10
-14.920000
20
-114.347000
30
0.0
11
-15.647000
21
-115.849000
31
0.0
0
LINE
8
0
6
CONTINUOUS
10
-15.142000
20
-116.119000
30
0.0
11
-14.419000
21
-114.620000
31
0.0
0
LINE
8
0
6
CONTINUOUS
10
-16.117000
20
-119.299000
30
0.0
11
-15.710000
21
-117.686000
31
0.0
0
LINE
8
0
6
CONTINUOUS
10
-15.142000
20
-116.119000
30
0.0
11
-15.710000
21
-117.686000
31
0.0
0
LINE
8
0
6
CONTINUOUS
10
-15.164000
20
-117.852000
30
0.0
11
-14.616000
21
-116.341000
31
0.0
0
LINE
8
0
6
CONTINUOUS
10
-15.647000
20
-115.849000
30
0.0
11
-16.223000
21
-117.415000
31
0.0
0
LINE
8
0
6
CONTINUOUS
10
-15.710000
20
-117.686000
30
0.0
11
-15.142000
21
-116.119000
31
0.0
0
LINE
8
0
6
CONTINUOUS
10
-16.223000
20
-117.415000
30
0.0
11
-15.647000
21
-115.849000
31
0.0
0
LINE
8
0
6
CONTINUOUS
10
-15.647000
20
-115.849000
30
0.0
11
-14.920000
21
-114.347000
31
0.0
0
LINE
8
0
6
CONTINUOUS
10
-16.223000
20
-117.415000
30
0.0
11
-16.643000
21
-119.030000
31
0.0
0
LINE
8
0
6
CONTINUOUS
10
-16.643000
20
-119.030000
30
0.0
11
-16.223000
21
-117.415000
31
0.0
0
LINE
8
0
6
CONTINUOUS
10
-16.426000
20
-122.500000
30
0.0
11
-16.358000
21
-120.947000
31
0.0
0
LINE
8
0
6
CONTINUOUS
10
-16.358000
20
-120.947000
30
0.0
11
-16.426000
21
-122.500000
31
0.0
0
LINE
8
0
6
CONTINUOUS
10
-15.855000
20
-122.500000
30
0.0
11
-15.789000
21
-121.000000
31
0.0
0
LINE
8
0
6
CONTINUOUS
10
-17.000000
20
-122.345000
30
0.0
11
-16.994000
21
-122.500000
31
0.0
0
LINE
8
0
6
CONTINUOUS
10
-16.903000
20
-120.678000
30
0.0
11
-17.000000
21
-122.345000
31
0.0
0
LINE
8
0
6
CONTINUOUS
10
-17.000000
20
-122.345000
30
0.0
11
-16.903000
21
-120.678000
31
0.0
0
LINE
8
0
6
CONTINUOUS
10
-16.994000
20
-122.500000
30
0.0
11
-17.000000
21
-122.345000
31
0.0
0
LINE
8
0
6
CONTINUOUS
10
-16.356000
20
-120.948000
30
0.0
11
-16.667000
21
-122.500000
31
0.0
0
LINE
8
0
6
CONTINUOUS
10
-16.643000
20
-119.030000
30
0.0
11
-16.903000
21
-120.678000
31
0.0
0
LINE
8
0
6
CONTINUOUS
10
-16.903000
20
-120.678000
30
0.0
11
-16.643000
21
-119.030000
31
0.0
0
LINE
8
0
6
CONTINUOUS
10
-15.710000
20
-117.686000
30
0.0
11
-16.117000
21
-119.299000
31
0.0
0
LINE
8
0
6
CONTINUOUS
10
-15.557000
20
-119.410000
30
0.0
11
-15.164000
21
-117.852000
31
0.0
0
LINE
8
0
6
CONTINUOUS
10
-16.117000
20
-119.299000
30
0.0
11
-16.358000
21
-120.947000
31
0.0
0
LINE
8
0
6
CONTINUOUS
10
-15.789000
20
-121.000000
30
0.0
11
-15.557000
21
-119.410000
31
0.0
0
LINE
8
0
6
CONTINUOUS
10
-16.358000
20
-120.947000
30
0.0
11
-16.117000
21
-119.299000
31
0.0
0
LINE
8
0
6
CONTINUOUS
10
-14.419000
20
-114.620000
30
0.0
11
-13.548000
21
-113.201000
31
0.0
0
LINE
8
0
6
CONTINUOUS
10
-13.548000
20
-113.201000
30
0.0
11
-14.419000
21
-114.620000
31
0.0
0
LINE
8
0
6
CONTINUOUS
10
-13.918000
20
-114.893000
30
0.0
11
-13.078000
21
-113.524000
31
0.0
0
LINE
8
0
6
CONTINUOUS
10
-14.049000
20
-112.922000
30
0.0
11
-14.920000
21
-114.347000
31
0.0
0
LINE
8
0
6
CONTINUOUS
10
-14.920000
20
-114.347000
30
0.0
11
-14.049000
21
-112.922000
31
0.0
0
LINE
8
0
6
CONTINUOUS
10
-15.789000
20
-121.000000
30
0.0
11
-15.855000
21
-122.500000
31
0.0
0
LINE
8
0
6
CONTINUOUS
10
-15.557000
20
-119.410000
30
0.0
11
-15.789000
21
-121.000000
31
0.0
0
LINE
8
0
6
CONTINUOUS
10
-15.164000
20
-117.852000
30
0.0
11
-15.557000
21
-119.410000
31
0.0
0
LINE
8
0
6
CONTINUOUS
10
-14.616000
20
-116.341000
30
0.0
11
-15.164000
21
-117.852000
31
0.0
0
LINE
8
0
6
CONTINUOUS
10
-12.103000
20
-112.247000
30
0.0
11
-13.078000
21
-113.524000
31
0.0
0
LINE
8
0
6
CONTINUOUS
10
-13.078000
20
-113.524000
30
0.0
11
-13.918000
21
-114.893000
31
0.0
0
LINE
8
0
6
CONTINUOUS
10
-13.918000
20
-114.893000
30
0.0
11
-14.616000
21
-116.341000
31
0.0
0
LINE
8
0
6
CONTINUOUS
10
0.000000
20
-135.597000
30
0.0
11
0.754000
21
-135.605000
31
0.0
0
LINE
8
0
6
CONTINUOUS
10
0.446000
20
-135.048000
30
0.0
11
0.000000
21
-135.033000
31
0.0
0
LINE
8
0
6
CONTINUOUS
10
0.754000
20
-135.605000
30
0.0
11
2.531000
21
-135.380000
31
0.0
0
LINE
8
0
6
CONTINUOUS
10
0.000000
20
-135.033000
30
0.0
11
0.446000
21
-135.048000
31
0.0
0
LINE
8
0
6
CONTINUOUS
10
0.446000
20
-135.048000
30
0.0
11
2.150000
21
-134.870000
31
0.0
0
LINE
8
0
6
CONTINUOUS
10
0.754000
20
-135.605000
30
0.0
11
0.000000
21
-135.597000
31
0.0
0
LINE
8
0
6
CONTINUOUS
10
0.000000
20
-135.610000
30
0.0
11
0.288000
21
-135.623000
31
0.0
0
LINE
8
0
6
CONTINUOUS
10
2.531000
20
-135.380000
30
0.0
11
0.754000
21
-135.605000
31
0.0
0
LINE
8
0
6
CONTINUOUS
10
5.406000
20
-133.831000
30
0.0
11
6.899000
21
-132.989000
31
0.0
0
LINE
8
0
6
CONTINUOUS
10
5.910000
20
-134.219000
30
0.0
11
7.451000
21
-133.305000
31
0.0
0
LINE
8
0
6
CONTINUOUS
10
5.910000
20
-134.219000
30
0.0
11
4.260000
21
-134.915000
31
0.0
0
LINE
8
0
6
CONTINUOUS
10
7.451000
20
-133.305000
30
0.0
11
5.910000
21
-134.219000
31
0.0
0
LINE
8
0
6
CONTINUOUS
10
2.531000
20
-135.380000
30
0.0
11
4.260000
21
-134.915000
31
0.0
0
LINE
8
0
6
CONTINUOUS
10
2.150000
20
-134.870000
30
0.0
11
3.813000
21
-134.462000
31
0.0
0
LINE
8
0
6
CONTINUOUS
10
4.260000
20
-134.915000
30
0.0
11
5.910000
21
-134.219000
31
0.0
0
LINE
8
0
6
CONTINUOUS
10
3.813000
20
-134.462000
30
0.0
11
2.150000
21
-134.870000
31
0.0
0
LINE
8
0
6
CONTINUOUS
10
3.813000
20
-134.462000
30
0.0
11
5.406000
21
-133.831000
31
0.0
0
LINE
8
0
6
CONTINUOUS
10
4.260000
20
-134.915000
30
0.0
11
2.531000
21
-135.380000
31
0.0
0
LINE
8
0
6
CONTINUOUS
10
6.899000
20
-132.989000
30
0.0
11
8.262000
21
-131.952000
31
0.0
0
LINE
8
0
6
CONTINUOUS
10
2.597000
20
-138.730000
30
0.0
11
0.943000
21
-138.909000
31
0.0
0
LINE
8
0
6
CONTINUOUS
10
0.943000
20
-138.909000
30
0.0
11
2.597000
21
-138.730000
31
0.0
0
LINE
8
0
6
CONTINUOUS
10
2.507000
20
-138.166000
30
0.0
11
0.909000
21
-138.340000
31
0.0
0
LINE
8
0
6
CONTINUOUS
10
1.512000
20
-139.440000
30
0.0
11
2.597000
21
-138.730000
31
0.0
0
LINE
8
0
6
CONTINUOUS
10
0.943000
20
-138.909000
30
0.0
11
1.512000
21
-139.440000
31
0.0
0
LINE
8
0
6
CONTINUOUS
10
3.164000
20
-139.211000
30
0.0
11
1.512000
21
-139.440000
31
0.0
0
LINE
8
0
6
CONTINUOUS
10
0.000000
20
-139.500000
30
0.0
11
1.512000
21
-139.440000
31
0.0
0
LINE
8
0
6
CONTINUOUS
10
0.943000
20
-138.909000
30
0.0
11
0.000000
21
-138.916000
31
0.0
0
LINE
8
0
6
CONTINUOUS
10
0.000000
20
-138.916000
30
0.0
11
0.943000
21
-138.909000
31
0.0
0
LINE
8
0
6
CONTINUOUS
10
0.909000
20
-138.340000
30
0.0
11
0.000000
21
-138.345000
31
0.0
0
LINE
8
0
6
CONTINUOUS
10
1.512000
20
-139.440000
30
0.0
11
0.000000
21
-139.500000
31
0.0
0
LINE
8
0
6
CONTINUOUS
10
4.225000
20
-138.384000
30
0.0
11
5.810000
21
-137.875000
31
0.0
0
LINE
8
0
6
CONTINUOUS
10
5.608000
20
-137.341000
30
0.0
11
4.078000
21
-137.833000
31
0.0
0
LINE
8
0
6
CONTINUOUS
10
5.810000
20
-137.875000
30
0.0
11
4.225000
21
-138.384000
31
0.0
0
LINE
8
0
6
CONTINUOUS
10
7.878000
20
-137.571000
30
0.0
11
6.362000
21
-138.271000
31
0.0
0
LINE
8
0
6
CONTINUOUS
10
7.335000
20
-137.208000
30
0.0
11
5.810000
21
-137.875000
31
0.0
0
LINE
8
0
6
CONTINUOUS
10
4.786000
20
-138.819000
30
0.0
11
6.362000
21
-138.271000
31
0.0
0
LINE
8
0
6
CONTINUOUS
10
5.810000
20
-137.875000
30
0.0
11
7.335000
21
-137.208000
31
0.0
0
LINE
8
0
6
CONTINUOUS
10
7.080000
20
-136.697000
30
0.0
11
5.608000
21
-137.341000
31
0.0
0
LINE
8
0
6
CONTINUOUS
10
6.362000
20
-138.271000
30
0.0
11
4.786000
21
-138.819000
31
0.0
0
LINE
8
0
6
CONTINUOUS
10
5.608000
20
-137.341000
30
0.0
11
7.080000
21
-136.697000
31
0.0
0
LINE
8
0
6
CONTINUOUS
10
4.078000
20
-137.833000
30
0.0
11
5.608000
21
-137.341000
31
0.0
0
LINE
8
0
6
CONTINUOUS
10
2.507000
20
-138.166000
30
0.0
11
4.078000
21
-137.833000
31
0.0
0
LINE
8
0
6
CONTINUOUS
10
1.512000
20
-139.440000
30
0.0
11
3.164000
21
-139.211000
31
0.0
0
LINE
8
0
6
CONTINUOUS
10
4.225000
20
-138.384000
30
0.0
11
2.597000
21
-138.730000
31
0.0
0
LINE
8
0
6
CONTINUOUS
10
2.597000
20
-138.730000
30
0.0
11
4.225000
21
-138.384000
31
0.0
0
LINE
8
0
6
CONTINUOUS
10
4.078000
20
-137.833000
30
0.0
11
2.507000
21
-138.166000
31
0.0
0
LINE
8
0
6
CONTINUOUS
10
3.164000
20
-139.211000
30
0.0
11
4.786000
21
-138.819000
31
0.0
0
LINE
8
0
6
CONTINUOUS
10
4.786000
20
-138.819000
30
0.0
11
3.164000
21
-139.211000
31
0.0
0
LINE
8
0
6
CONTINUOUS
10
7.080000
20
-136.697000
30
0.0
11
8.480000
21
-135.907000
31
0.0
0
LINE
8
0
6
CONTINUOUS
10
0.909000
20
-138.340000
30
0.0
11
2.507000
21
-138.166000
31
0.0
0
LINE
8
0
6
CONTINUOUS
10
0.000000
20
-138.345000
30
0.0
11
0.909000
21
-138.340000
31
0.0
0
LINE
8
0
6
CONTINUOUS
10
10.089000
20
-130.894000
30
0.0
11
11.137000
21
-129.441000
31
0.0
0
LINE
8
0
6
CONTINUOUS
10
10.505000
20
-129.371000
30
0.0
11
9.472000
21
-130.738000
31
0.0
0
LINE
8
0
6
CONTINUOUS
10
11.978000
20
-127.859000
30
0.0
11
12.596000
21
-126.178000
31
0.0
0
LINE
8
0
6
CONTINUOUS
10
11.968000
20
-126.282000
30
0.0
11
11.342000
21
-127.876000
31
0.0
0
LINE
8
0
6
CONTINUOUS
10
10.505000
20
-129.371000
30
0.0
11
11.342000
21
-127.876000
31
0.0
0
LINE
8
0
6
CONTINUOUS
10
11.137000
20
-129.441000
30
0.0
11
11.978000
21
-127.859000
31
0.0
0
LINE
8
0
6
CONTINUOUS
10
11.342000
20
-127.876000
30
0.0
11
10.505000
21
-129.371000
31
0.0
0
LINE
8
0
6
CONTINUOUS
10
13.121000
20
-122.641000
30
0.0
11
13.112000
21
-122.500000
31
0.0
0
LINE
8
0
6
CONTINUOUS
10
12.530000
20
-122.500000
30
0.0
11
12.544000
21
-122.911000
31
0.0
0
LINE
8
0
6
CONTINUOUS
10
12.544000
20
-122.911000
30
0.0
11
12.530000
21
-122.500000
31
0.0
0
LINE
8
0
6
CONTINUOUS
10
12.979000
20
-124.428000
30
0.0
11
13.121000
21
-122.641000
31
0.0
0
LINE
8
0
6
CONTINUOUS
10
12.544000
20
-122.911000
30
0.0
11
12.372000
21
-124.616000
31
0.0
0
LINE
8
0
6
CONTINUOUS
10
12.372000
20
-124.616000
30
0.0
11
12.544000
21
-122.911000
31
0.0
0
LINE
8
0
6
CONTINUOUS
10
12.372000
20
-124.616000
30
0.0
11
12.544000
21
-122.911000
31
0.0
0
LINE
8
0
6
CONTINUOUS
10
11.342000
20
-127.876000
30
0.0
11
11.968000
21
-126.282000
31
0.0
0
LINE
8
0
6
CONTINUOUS
10
11.968000
20
-126.282000
30
0.0
11
12.372000
21
-124.616000
31
0.0
0
LINE
8
0
6
CONTINUOUS
10
12.596000
20
-126.178000
30
0.0
11
12.979000
21
-124.428000
31
0.0
0
LINE
8
0
6
CONTINUOUS
10
12.372000
20
-124.616000
30
0.0
11
11.968000
21
-126.282000
31
0.0
0
LINE
8
0
6
CONTINUOUS
10
12.596000
20
-126.178000
30
0.0
11
11.978000
21
-127.859000
31
0.0
0
LINE
8
0
6
CONTINUOUS
10
13.112000
20
-122.500000
30
0.0
11
13.121000
21
-122.641000
31
0.0
0
LINE
8
0
6
CONTINUOUS
10
13.121000
20
-122.641000
30
0.0
11
12.979000
21
-124.428000
31
0.0
0
LINE
8
0
6
CONTINUOUS
10
12.979000
20
-124.428000
30
0.0
11
12.596000
21
-126.178000
31
0.0
0
LINE
8
0
6
CONTINUOUS
10
11.137000
20
-129.441000
30
0.0
11
10.089000
21
-130.894000
31
0.0
0
LINE
8
0
6
CONTINUOUS
10
10.382000
20
-130.527000
30
0.0
11
11.077000
21
-129.537000
31
0.0
0
LINE
8
0
6
CONTINUOUS
10
12.290000
20
-127.100000
30
0.0
11
11.978000
21
-127.859000
31
0.0
0
LINE
8
0
6
CONTINUOUS
10
11.978000
20
-127.859000
30
0.0
11
11.137000
21
-129.441000
31
0.0
0
LINE
8
0
6
CONTINUOUS
10
11.680000
20
-128.484000
30
0.0
11
11.978000
21
-127.859000
31
0.0
0
LINE
8
0
6
CONTINUOUS
10
11.077000
20
-129.537000
30
0.0
11
11.680000
21
-128.484000
31
0.0
0
LINE
8
0
6
CONTINUOUS
10
10.089000
20
-130.894000
30
0.0
11
8.852000
21
-132.190000
31
0.0
0
LINE
8
0
6
CONTINUOUS
10
9.603000
20
-131.445000
30
0.0
11
9.603454
21
-131.402705
31
0.0
0
LINE
8
0
6
CONTINUOUS
10
9.603454
20
-131.402705
30
0.0
11
9.603000
21
-131.445000
31
0.0
0
LINE
8
0
6
CONTINUOUS
10
11.680000
20
-128.484000
30
0.0
11
11.077000
21
-129.537000
31
0.0
0
LINE
8
0
6
CONTINUOUS
10
13.548000
20
-131.799000
30
0.0
11
12.539000
21
-133.122000
31
0.0
0
LINE
8
0
6
CONTINUOUS
10
12.539000
20
-133.122000
30
0.0
11
13.548000
21
-131.799000
31
0.0
0
LINE
8
0
6
CONTINUOUS
10
13.078000
20
-131.476000
30
0.0
11
12.103000
21
-132.753000
31
0.0
0
LINE
8
0
6
CONTINUOUS
10
11.911000
20
-134.636000
30
0.0
11
13.043000
21
-133.409000
31
0.0
0
LINE
8
0
6
CONTINUOUS
10
12.539000
20
-133.122000
30
0.0
11
11.400000
21
-134.337000
31
0.0
0
LINE
8
0
6
CONTINUOUS
10
13.043000
20
-133.409000
30
0.0
11
11.911000
21
-134.636000
31
0.0
0
LINE
8
0
6
CONTINUOUS
10
11.911000
20
-134.636000
30
0.0
11
10.665000
21
-135.745000
31
0.0
0
LINE
8
0
6
CONTINUOUS
10
11.400000
20
-134.337000
30
0.0
11
10.144000
21
-135.430000
31
0.0
0
LINE
8
0
6
CONTINUOUS
10
10.144000
20
-135.430000
30
0.0
11
11.400000
21
-134.337000
31
0.0
0
LINE
8
0
6
CONTINUOUS
10
11.004000
20
-133.926000
30
0.0
11
9.792000
21
-134.980000
31
0.0
0
LINE
8
0
6
CONTINUOUS
10
10.665000
20
-135.745000
30
0.0
11
11.911000
21
-134.636000
31
0.0
0
LINE
8
0
6
CONTINUOUS
10
11.400000
20
-134.337000
30
0.0
11
12.539000
21
-133.122000
31
0.0
0
LINE
8
0
6
CONTINUOUS
10
12.103000
20
-132.753000
30
0.0
11
11.004000
21
-133.926000
31
0.0
0
LINE
8
0
6
CONTINUOUS
10
9.316000
20
-136.727000
30
0.0
11
10.665000
21
-135.745000
31
0.0
0
LINE
8
0
6
CONTINUOUS
10
10.665000
20
-135.745000
30
0.0
11
9.316000
21
-136.727000
31
0.0
0
LINE
8
0
6
CONTINUOUS
10
10.144000
20
-135.430000
30
0.0
11
8.785000
21
-136.390000
31
0.0
0
LINE
8
0
6
CONTINUOUS
10
13.043000
20
-133.409000
30
0.0
11
14.049000
21
-132.078000
31
0.0
0
LINE
8
0
6
CONTINUOUS
10
14.049000
20
-132.078000
30
0.0
11
13.043000
21
-133.409000
31
0.0
0
LINE
8
0
6
CONTINUOUS
10
14.616000
20
-128.659000
30
0.0
11
13.918000
21
-130.107000
31
0.0
0
LINE
8
0
6
CONTINUOUS
10
14.419000
20
-130.380000
30
0.0
11
15.143000
21
-128.881000
31
0.0
0
LINE
8
0
6
CONTINUOUS
10
14.920000
20
-130.653000
30
0.0
11
15.647000
21
-129.151000
31
0.0
0
LINE
8
0
6
CONTINUOUS
10
15.143000
20
-128.881000
30
0.0
11
14.419000
21
-130.380000
31
0.0
0
LINE
8
0
6
CONTINUOUS
10
16.117000
20
-125.701000
30
0.0
11
15.710000
21
-127.315000
31
0.0
0
LINE
8
0
6
CONTINUOUS
10
15.143000
20
-128.881000
30
0.0
11
15.710000
21
-127.315000
31
0.0
0
LINE
8
0
6
CONTINUOUS
10
15.164000
20
-127.148000
30
0.0
11
14.616000
21
-128.659000
31
0.0
0
LINE
8
0
6
CONTINUOUS
10
15.647000
20
-129.151000
30
0.0
11
16.223000
21
-127.585000
31
0.0
0
LINE
8
0
6
CONTINUOUS
10
15.710000
20
-127.315000
30
0.0
11
15.143000
21
-128.881000
31
0.0
0
LINE
8
0
6
CONTINUOUS
10
16.223000
20
-127.585000
30
0.0
11
15.647000
21
-129.151000
31
0.0
0
LINE
8
0
6
CONTINUOUS
10
15.647000
20
-129.151000
30
0.0
11
14.920000
21
-130.653000
31
0.0
0
LINE
8
0
6
CONTINUOUS
10
16.223000
20
-127.585000
30
0.0
11
16.643000
21
-125.970000
31
0.0
0
LINE
8
0
6
CONTINUOUS
10
16.643000
20
-125.970000
30
0.0
11
16.223000
21
-127.585000
31
0.0
0
LINE
8
0
6
CONTINUOUS
10
16.426000
20
-122.500000
30
0.0
11
16.358000
21
-124.053000
31
0.0
0
LINE
8
0
6
CONTINUOUS
10
16.358000
20
-124.053000
30
0.0
11
16.426000
21
-122.500000
31
0.0
0
LINE
8
0
6
CONTINUOUS
10
15.855000
20
-122.500000
30
0.0
11
15.789000
21
-124.000000
31
0.0
0
LINE
8
0
6
CONTINUOUS
10
17.000000
20
-122.655000
30
0.0
11
16.994000
21
-122.500000
31
0.0
0
LINE
8
0
6
CONTINUOUS
10
16.903000
20
-124.322000
30
0.0
11
17.000000
21
-122.655000
31
0.0
0
LINE
8
0
6
CONTINUOUS
10
17.000000
20
-122.655000
30
0.0
11
16.903000
21
-124.322000
31
0.0
0
LINE
8
0
6
CONTINUOUS
10
16.994000
20
-122.500000
30
0.0
11
17.000000
21
-122.655000
31
0.0
0
LINE
8
0
6
CONTINUOUS
10
16.357000
20
-124.052000
30
0.0
11
16.667000
21
-122.500000
31
0.0
0
LINE
8
0
6
CONTINUOUS
10
16.643000
20
-125.970000
30
0.0
11
16.903000
21
-124.322000
31
0.0
0
LINE
8
0
6
CONTINUOUS
10
16.903000
20
-124.322000
30
0.0
11
16.643000
21
-125.970000
31
0.0
0
LINE
8
0
6
CONTINUOUS
10
15.710000
20
-127.315000
30
0.0
11
16.117000
21
-125.701000
31
0.0
0
LINE
8
0
6
CONTINUOUS
10
15.557000
20
-125.590000
30
0.0
11
15.164000
21
-127.148000
31
0.0
0
LINE
8
0
6
CONTINUOUS
10
16.117000
20
-125.701000
30
0.0
11
16.358000
21
-124.053000
31
0.0
0
LINE
8
0
6
CONTINUOUS
10
15.789000
20
-124.000000
30
0.0
11
15.557000
21
-125.590000
31
0.0
0
LINE
8
0
6
CONTINUOUS
10
16.358000
20
-124.053000
30
0.0
11
16.117000
21
-125.701000
31
0.0
0
LINE
8
0
6
CONTINUOUS
10
14.419000
20
-130.380000
30
0.0
11
13.548000
21
-131.799000
31
0.0
0
LINE
8
0
6
CONTINUOUS
10
13.548000
20
-131.799000
30
0.0
11
14.419000
21
-130.380000
31
0.0
0
LINE
8
0
6
CONTINUOUS
10
13.918000
20
-130.107000
30
0.0
11
13.078000
21
-131.476000
31
0.0
0
LINE
8
0
6
CONTINUOUS
10
14.049000
20
-132.078000
30
0.0
11
14.920000
21
-130.653000
31
0.0
0
LINE
8
0
6
CONTINUOUS
10
14.920000
20
-130.653000
30
0.0
11
14.049000
21
-132.078000
31
0.0
0
LINE
8
0
6
CONTINUOUS
10
9.316000
20
-136.727000
30
0.0
11
7.878000
21
-137.571000
31
0.0
0
LINE
8
0
6
CONTINUOUS
10
8.852000
20
-132.190000
30
0.0
11
10.089000
21
-130.894000
31
0.0
0
LINE
8
0
6
CONTINUOUS
10
9.472000
20
-130.738000
30
0.0
11
8.262000
21
-131.952000
31
0.0
0
LINE
8
0
6
CONTINUOUS
10
8.262000
20
-131.952000
30
0.0
11
9.472000
21
-130.738000
31
0.0
0
LINE
8
0
6
CONTINUOUS
10
7.451000
20
-133.305000
30
0.0
11
8.852000
21
-132.190000
31
0.0
0
LINE
8
0
6
CONTINUOUS
10
9.472000
20
-130.738000
30
0.0
11
10.505000
21
-129.371000
31
0.0
0
LINE
8
0
6
CONTINUOUS
10
8.785000
20
-136.390000
30
0.0
11
10.144000
21
-135.430000
31
0.0
0
LINE
8
0
6
CONTINUOUS
10
9.792000
20
-134.980000
30
0.0
11
8.480000
21
-135.907000
31
0.0
0
LINE
8
0
6
CONTINUOUS
10
7.878000
20
-137.571000
30
0.0
11
9.316000
21
-136.727000
31
0.0
0
LINE
8
0
6
CONTINUOUS
10
6.362000
20
-138.271000
30
0.0
11
7.878000
21
-137.571000
31
0.0
0
LINE
8
0
6
CONTINUOUS
10
8.785000
20
-136.390000
30
0.0
11
7.335000
21
-137.208000
31
0.0
0
LINE
8
0
6
CONTINUOUS
10
7.335000
20
-137.208000
30
0.0
11
8.785000
21
-136.390000
31
0.0
0
LINE
8
0
6
CONTINUOUS
10
8.480000
20
-135.907000
30
0.0
11
7.080000
21
-136.697000
31
0.0
0
LINE
8
0
6
CONTINUOUS
10
9.603000
20
-131.445000
30
0.0
11
8.852000
21
-132.190000
31
0.0
0
LINE
8
0
6
CONTINUOUS
10
8.852000
20
-132.190000
30
0.0
11
7.451000
21
-133.305000
31
0.0
0
LINE
8
0
6
CONTINUOUS
10
8.331000
20
-132.643000
30
0.0
11
8.852000
21
-132.190000
31
0.0
0
LINE
8
0
6
CONTINUOUS
10
15.789000
20
-124.000000
30
0.0
11
15.855000
21
-122.500000
31
0.0
0
LINE
8
0
6
CONTINUOUS
10
15.557000
20
-125.590000
30
0.0
11
15.789000
21
-124.000000
31
0.0
0
LINE
8
0
6
CONTINUOUS
10
15.164000
20
-127.148000
30
0.0
11
15.557000
21
-125.590000
31
0.0
0
LINE
8
0
6
CONTINUOUS
10
14.616000
20
-128.659000
30
0.0
11
15.164000
21
-127.148000
31
0.0
0
LINE
8
0
6
CONTINUOUS
10
9.792000
20
-134.980000
30
0.0
11
11.004000
21
-133.926000
31
0.0
0
LINE
8
0
6
CONTINUOUS
10
8.480000
20
-135.907000
30
0.0
11
9.792000
21
-134.980000
31
0.0
0
LINE
8
0
6
CONTINUOUS
10
11.004000
20
-133.926000
30
0.0
11
12.103000
21
-132.753000
31
0.0
0
LINE
8
0
6
CONTINUOUS
10
12.103000
20
-132.753000
30
0.0
11
13.078000
21
-131.476000
31
0.0
0
LINE
8
0
6
CONTINUOUS
10
13.078000
20
-131.476000
30
0.0
11
13.918000
21
-130.107000
31
0.0
0
LINE
8
0
6
CONTINUOUS
10
13.918000
20
-130.107000
30
0.0
11
14.616000
21
-128.659000
31
0.0
0
LINE
8
0
6
CONTINUOUS
10
-16.994000
20
-122.500000
30
0.0
11
-17.000000
21
-122.655000
31
0.0
0
LINE
8
0
6
CONTINUOUS
10
-16.667000
20
-122.500000
30
0.0
11
-16.356000
21
-124.052000
31
0.0
0
LINE
8
0
6
CONTINUOUS
10
-17.000000
20
-122.655000
30
0.0
11
-16.903000
21
-124.322000
31
0.0
0
LINE
8
0
6
CONTINUOUS
10
-16.903000
20
-124.322000
30
0.0
11
-16.643000
21
-125.970000
31
0.0
0
LINE
8
0
6
CONTINUOUS
10
-16.643000
20
-125.970000
30
0.0
11
-16.223000
21
-127.585000
31
0.0
0
LINE
8
0
6
CONTINUOUS
10
-16.223000
20
-127.585000
30
0.0
11
-15.647000
21
-129.151000
31
0.0
0
LINE
8
0
6
CONTINUOUS
10
-14.049000
20
-132.078000
30
0.0
11
-13.043000
21
-133.409000
31
0.0
0
LINE
8
0
6
CONTINUOUS
10
-13.043000
20
-133.409000
30
0.0
11
-11.911000
21
-134.636000
31
0.0
0
LINE
8
0
6
CONTINUOUS
10
-11.911000
20
-134.636000
30
0.0
11
-10.665000
21
-135.745000
31
0.0
0
LINE
8
0
6
CONTINUOUS
10
-10.665000
20
-135.745000
30
0.0
11
-9.316000
21
-136.727000
31
0.0
0
LINE
8
0
6
CONTINUOUS
10
-9.316000
20
-136.727000
30
0.0
11
-7.878000
21
-137.571000
31
0.0
0
LINE
8
0
6
CONTINUOUS
10
-7.878000
20
-137.571000
30
0.0
11
-6.362000
21
-138.271000
31
0.0
0
LINE
8
0
6
CONTINUOUS
10
-6.362000
20
-138.271000
30
0.0
11
-4.786000
21
-138.819000
31
0.0
0
LINE
8
0
6
CONTINUOUS
10
-4.786000
20
-138.819000
30
0.0
11
-3.164000
21
-139.211000
31
0.0
0
LINE
8
0
6
CONTINUOUS
10
-3.164000
20
-139.211000
30
0.0
11
-1.512000
21
-139.440000
31
0.0
0
LINE
8
0
6
CONTINUOUS
10
-1.512000
20
-139.440000
30
0.0
11
-0.943000
21
-138.909000
31
0.0
0
LINE
8
0
6
CONTINUOUS
10
-2.597000
20
-138.730000
30
0.0
11
-1.512000
21
-139.440000
31
0.0
0
LINE
8
0
6
CONTINUOUS
10
-1.512000
20
-139.440000
30
0.0
11
0.000000
21
-139.500000
31
0.0
0
LINE
8
0
6
CONTINUOUS
10
-0.909000
20
-138.340000
30
0.0
11
0.000000
21
-138.345000
31
0.0
0
LINE
8
0
6
CONTINUOUS
10
-2.507000
20
-138.166000
30
0.0
11
-0.909000
21
-138.340000
31
0.0
0
LINE
8
0
6
CONTINUOUS
10
-8.480000
20
-135.907000
30
0.0
11
-7.080000
21
-136.697000
31
0.0
0
LINE
8
0
6
CONTINUOUS
10
-9.792000
20
-134.980000
30
0.0
11
-8.480000
21
-135.907000
31
0.0
0
LINE
8
0
6
CONTINUOUS
10
-11.004000
20
-133.926000
30
0.0
11
-9.792000
21
-134.980000
31
0.0
0
LINE
8
0
6
CONTINUOUS
10
-15.164000
20
-127.148000
30
0.0
11
-14.616000
21
-128.659000
31
0.0
0
LINE
8
0
6
CONTINUOUS
10
-14.616000
20
-128.659000
30
0.0
11
-13.918000
21
-130.107000
31
0.0
0
LINE
8
0
6
CONTINUOUS
10
-13.918000
20
-130.107000
30
0.0
11
-13.078000
21
-131.476000
31
0.0
0
LINE
8
0
6
CONTINUOUS
10
-13.078000
20
-131.476000
30
0.0
11
-12.103000
21
-132.753000
31
0.0
0
LINE
8
0
6
CONTINUOUS
10
-12.103000
20
-132.753000
30
0.0
11
-11.004000
21
-133.926000
31
0.0
0
LINE
8
0
6
CONTINUOUS
10
-15.855000
20
-122.500000
30
0.0
11
-15.789000
21
-124.000000
31
0.0
0
LINE
8
0
6
CONTINUOUS
10
-15.789000
20
-124.000000
30
0.0
11
-15.557000
21
-125.590000
31
0.0
0
LINE
8
0
6
CONTINUOUS
10
-15.557000
20
-125.590000
30
0.0
11
-15.164000
21
-127.148000
31
0.0
0
LINE
8
0
6
CONTINUOUS
10
-9.603000
20
-131.445000
30
0.0
11
-9.603454
21
-131.402705
31
0.0
0
LINE
8
0
6
CONTINUOUS
10
-9.603454
20
-131.402705
30
0.0
11
-9.603000
21
-131.445000
31
0.0
0
LINE
8
0
6
CONTINUOUS
10
-2.531000
20
-135.380000
30
0.0
11
-0.754000
21
-135.605000
31
0.0
0
LINE
8
0
6
CONTINUOUS
10
-0.754000
20
-135.605000
30
0.0
11
0.000000
21
-135.597000
31
0.0
0
LINE
8
0
6
CONTINUOUS
10
0.000000
20
-135.033000
30
0.0
11
-0.446000
21
-135.048000
31
0.0
0
LINE
8
0
6
CONTINUOUS
10
-3.813000
20
-134.462000
30
0.0
11
-5.406000
21
-133.831000
31
0.0
0
LINE
8
0
6
CONTINUOUS
10
-2.150000
20
-134.870000
30
0.0
11
-3.813000
21
-134.462000
31
0.0
0
LINE
8
0
6
CONTINUOUS
10
-5.911000
20
-134.219000
30
0.0
11
-4.260000
21
-134.915000
31
0.0
0
LINE
8
0
6
CONTINUOUS
10
-0.446000
20
-135.048000
30
0.0
11
-2.150000
21
-134.870000
31
0.0
0
LINE
8
0
6
CONTINUOUS
10
-4.260000
20
-134.915000
30
0.0
11
-2.531000
21
-135.380000
31
0.0
0
LINE
8
0
6
CONTINUOUS
10
-12.544000
20
-122.911000
30
0.0
11
-12.530000
21
-122.500000
31
0.0
0
LINE
8
0
6
CONTINUOUS
10
-13.112000
20
-122.500000
30
0.0
11
-13.121000
21
-122.641000
31
0.0
0
LINE
8
0
6
CONTINUOUS
10
-12.372000
20
-124.616000
30
0.0
11
-12.544000
21
-122.911000
31
0.0
0
LINE
8
0
6
CONTINUOUS
10
-13.121000
20
-122.641000
30
0.0
11
-12.979000
21
-124.428000
31
0.0
0
LINE
8
0
6
CONTINUOUS
10
-11.968000
20
-126.282000
30
0.0
11
-12.372000
21
-124.616000
31
0.0
0
LINE
8
0
6
CONTINUOUS
10
-12.979000
20
-124.428000
30
0.0
11
-12.596000
21
-126.178000
31
0.0
0
LINE
8
0
6
CONTINUOUS
10
-11.342000
20
-127.876000
30
0.0
11
-11.968000
21
-126.282000
31
0.0
0
LINE
8
0
6
CONTINUOUS
10
-12.596000
20
-126.178000
30
0.0
11
-11.978000
21
-127.859000
31
0.0
0
LINE
8
0
6
CONTINUOUS
10
-10.505000
20
-129.371000
30
0.0
11
-11.342000
21
-127.876000
31
0.0
0
LINE
8
0
6
CONTINUOUS
10
-11.978000
20
-127.859000
30
0.0
11
-11.137000
21
-129.441000
31
0.0
0
LINE
8
0
6
CONTINUOUS
10
-9.472000
20
-130.738000
30
0.0
11
-10.505000
21
-129.371000
31
0.0
0
LINE
8
0
6
CONTINUOUS
10
-11.137000
20
-129.441000
30
0.0
11
-10.089000
21
-130.894000
31
0.0
0
LINE
8
0
6
CONTINUOUS
10
-8.262000
20
-131.952000
30
0.0
11
-9.472000
21
-130.738000
31
0.0
0
LINE
8
0
6
CONTINUOUS
10
-10.089000
20
-130.894000
30
0.0
11
-8.852000
21
-132.190000
31
0.0
0
LINE
8
0
6
CONTINUOUS
10
-6.899000
20
-132.989000
30
0.0
11
-8.262000
21
-131.952000
31
0.0
0
LINE
8
0
6
CONTINUOUS
10
-8.852000
20
-132.190000
30
0.0
11
-7.451000
21
-133.305000
31
0.0
0
LINE
8
0
6
CONTINUOUS
10
-5.406000
20
-133.831000
30
0.0
11
-6.899000
21
-132.989000
31
0.0
0
LINE
8
0
6
CONTINUOUS
10
-7.451000
20
-133.305000
30
0.0
11
-5.911000
21
-134.219000
31
0.0
0
LINE
8
0
6
CONTINUOUS
10
-0.446000
20
-135.048000
30
0.0
11
0.000000
21
-135.033000
31
0.0
0
LINE
8
0
6
CONTINUOUS
10
-2.150000
20
-134.870000
30
0.0
11
-0.446000
21
-135.048000
31
0.0
0
LINE
8
0
6
CONTINUOUS
10
-3.813000
20
-134.462000
30
0.0
11
-2.150000
21
-134.870000
31
0.0
0
LINE
8
0
6
CONTINUOUS
10
-5.406000
20
-133.831000
30
0.0
11
-3.813000
21
-134.462000
31
0.0
0
LINE
8
0
6
CONTINUOUS
10
-6.899000
20
-132.989000
30
0.0
11
-5.406000
21
-133.831000
31
0.0
0
LINE
8
0
6
CONTINUOUS
10
-8.262000
20
-131.952000
30
0.0
11
-6.899000
21
-132.989000
31
0.0
0
LINE
8
0
6
CONTINUOUS
10
-9.472000
20
-130.738000
30
0.0
11
-8.262000
21
-131.952000
31
0.0
0
LINE
8
0
6
CONTINUOUS
10
-10.505000
20
-129.371000
30
0.0
11
-9.472000
21
-130.738000
31
0.0
0
LINE
8
0
6
CONTINUOUS
10
-11.968000
20
-126.282000
30
0.0
11
-11.342000
21
-127.876000
31
0.0
0
LINE
8
0
6
CONTINUOUS
10
-12.372000
20
-124.616000
30
0.0
11
-11.968000
21
-126.282000
31
0.0
0
LINE
8
0
6
CONTINUOUS
10
-12.544000
20
-122.911000
30
0.0
11
-12.372000
21
-124.616000
31
0.0
0
LINE
8
0
6
CONTINUOUS
10
-12.544000
20
-122.911000
30
0.0
11
-12.372000
21
-124.616000
31
0.0
0
LINE
8
0
6
CONTINUOUS
10
-12.530000
20
-122.500000
30
0.0
11
-12.544000
21
-122.911000
31
0.0
0
LINE
8
0
6
CONTINUOUS
10
-15.647000
20
-129.151000
30
0.0
11
-14.920000
21
-130.653000
31
0.0
0
LINE
8
0
6
CONTINUOUS
10
-14.920000
20
-130.653000
30
0.0
11
-14.049000
21
-132.078000
31
0.0
0
LINE
8
0
6
CONTINUOUS
10
-14.920000
20
-130.653000
30
0.0
11
-15.647000
21
-129.151000
31
0.0
0
LINE
8
0
6
CONTINUOUS
10
-15.647000
20
-129.151000
30
0.0
11
-16.223000
21
-127.585000
31
0.0
0
LINE
8
0
6
CONTINUOUS
10
-16.223000
20
-127.585000
30
0.0
11
-16.643000
21
-125.970000
31
0.0
0
LINE
8
0
6
CONTINUOUS
10
-16.643000
20
-125.970000
30
0.0
11
-16.903000
21
-124.322000
31
0.0
0
LINE
8
0
6
CONTINUOUS
10
-16.903000
20
-124.322000
30
0.0
11
-17.000000
21
-122.655000
31
0.0
0
LINE
8
0
6
CONTINUOUS
10
-17.000000
20
-122.655000
30
0.0
11
-16.994000
21
-122.500000
31
0.0
0
LINE
8
0
6
CONTINUOUS
10
0.000000
20
-139.500000
30
0.0
11
-1.512000
21
-139.440000
31
0.0
0
LINE
8
0
6
CONTINUOUS
10
-4.786000
20
-138.819000
30
0.0
11
-6.362000
21
-138.271000
31
0.0
0
LINE
8
0
6
CONTINUOUS
10
-6.362000
20
-138.271000
30
0.0
11
-7.878000
21
-137.571000
31
0.0
0
LINE
8
0
6
CONTINUOUS
10
-7.878000
20
-137.571000
30
0.0
11
-9.316000
21
-136.727000
31
0.0
0
LINE
8
0
6
CONTINUOUS
10
-9.316000
20
-136.727000
30
0.0
11
-10.665000
21
-135.745000
31
0.0
0
LINE
8
0
6
CONTINUOUS
10
-10.665000
20
-135.745000
30
0.0
11
-11.911000
21
-134.636000
31
0.0
0
LINE
8
0
6
CONTINUOUS
10
-11.911000
20
-134.636000
30
0.0
11
-13.043000
21
-133.409000
31
0.0
0
LINE
8
0
6
CONTINUOUS
10
-13.043000
20
-133.409000
30
0.0
11
-14.049000
21
-132.078000
31
0.0
0
LINE
8
0
6
CONTINUOUS
10
-14.049000
20
-132.078000
30
0.0
11
-14.920000
21
-130.653000
31
0.0
0
LINE
8
0
6
CONTINUOUS
10
-14.419000
20
-130.380000
30
0.0
11
-15.142000
21
-128.881000
31
0.0
0
LINE
8
0
6
CONTINUOUS
10
-15.142000
20
-128.881000
30
0.0
11
-15.710000
21
-127.315000
31
0.0
0
LINE
8
0
6
CONTINUOUS
10
-15.710000
20
-127.315000
30
0.0
11
-16.117000
21
-125.701000
31
0.0
0
LINE
8
0
6
CONTINUOUS
10
-16.117000
20
-125.701000
30
0.0
11
-16.358000
21
-124.053000
31
0.0
0
LINE
8
0
6
CONTINUOUS
10
-16.358000
20
-124.053000
30
0.0
11
-16.426000
21
-122.500000
31
0.0
0
LINE
8
0
6
CONTINUOUS
10
0.000000
20
-138.916000
30
0.0
11
-0.943000
21
-138.909000
31
0.0
0
LINE
8
0
6
CONTINUOUS
10
-0.943000
20
-138.909000
30
0.0
11
-2.597000
21
-138.730000
31
0.0
0
LINE
8
0
6
CONTINUOUS
10
-2.597000
20
-138.730000
30
0.0
11
-4.225000
21
-138.384000
31
0.0
0
LINE
8
0
6
CONTINUOUS
10
-4.225000
20
-138.384000
30
0.0
11
-5.810000
21
-137.875000
31
0.0
0
LINE
8
0
6
CONTINUOUS
10
-5.810000
20
-137.875000
30
0.0
11
-7.334000
21
-137.208000
31
0.0
0
LINE
8
0
6
CONTINUOUS
10
-7.334000
20
-137.208000
30
0.0
11
-8.785000
21
-136.390000
31
0.0
0
LINE
8
0
6
CONTINUOUS
10
-8.785000
20
-136.390000
30
0.0
11
-10.144000
21
-135.430000
31
0.0
0
LINE
8
0
6
CONTINUOUS
10
-10.144000
20
-135.430000
30
0.0
11
-11.400000
21
-134.337000
31
0.0
0
LINE
8
0
6
CONTINUOUS
10
-11.400000
20
-134.337000
30
0.0
11
-12.539000
21
-133.122000
31
0.0
0
LINE
8
0
6
CONTINUOUS
10
-12.539000
20
-133.122000
30
0.0
11
-13.548000
21
-131.799000
31
0.0
0
LINE
8
0
6
CONTINUOUS
10
-13.548000
20
-131.799000
30
0.0
11
-14.419000
21
-130.380000
31
0.0
0
LINE
8
0
6
CONTINUOUS
10
-4.078000
20
-137.833000
30
0.0
11
-2.507000
21
-138.166000
31
0.0
0
LINE
8
0
6
CONTINUOUS
10
-5.608000
20
-137.341000
30
0.0
11
-4.078000
21
-137.833000
31
0.0
0
LINE
8
0
6
CONTINUOUS
10
-7.080000
20
-136.697000
30
0.0
11
-5.608000
21
-137.341000
31
0.0
0
LINE
8
0
6
CONTINUOUS
10
-15.789000
20
-124.000000
30
0.0
11
-15.855000
21
-122.500000
31
0.0
0
LINE
8
0
6
CONTINUOUS
10
-16.426000
20
-122.500000
30
0.0
11
-16.358000
21
-124.053000
31
0.0
0
LINE
8
0
6
CONTINUOUS
10
-16.358000
20
-124.053000
30
0.0
11
-16.117000
21
-125.701000
31
0.0
0
LINE
8
0
6
CONTINUOUS
10
-15.557000
20
-125.590000
30
0.0
11
-15.789000
21
-124.000000
31
0.0
0
LINE
8
0
6
CONTINUOUS
10
-16.117000
20
-125.701000
30
0.0
11
-15.710000
21
-127.315000
31
0.0
0
LINE
8
0
6
CONTINUOUS
10
-15.164000
20
-127.148000
30
0.0
11
-15.557000
21
-125.590000
31
0.0
0
LINE
8
0
6
CONTINUOUS
10
-15.710000
20
-127.315000
30
0.0
11
-15.142000
21
-128.881000
31
0.0
0
LINE
8
0
6
CONTINUOUS
10
-14.616000
20
-128.659000
30
0.0
11
-15.164000
21
-127.148000
31
0.0
0
LINE
8
0
6
CONTINUOUS
10
-13.918000
20
-130.107000
30
0.0
11
-14.616000
21
-128.659000
31
0.0
0
LINE
8
0
6
CONTINUOUS
10
-15.142000
20
-128.881000
30
0.0
11
-14.419000
21
-130.380000
31
0.0
0
LINE
8
0
6
CONTINUOUS
10
-14.419000
20
-130.380000
30
0.0
11
-13.548000
21
-131.799000
31
0.0
0
LINE
8
0
6
CONTINUOUS
10
-13.078000
20
-131.476000
30
0.0
11
-13.918000
21
-130.107000
31
0.0
0
LINE
8
0
6
CONTINUOUS
10
-13.548000
20
-131.799000
30
0.0
11
-12.539000
21
-133.122000
31
0.0
0
LINE
8
0
6
CONTINUOUS
10
-12.103000
20
-132.753000
30
0.0
11
-13.078000
21
-131.476000
31
0.0
0
LINE
8
0
6
CONTINUOUS
10
-12.539000
20
-133.122000
30
0.0
11
-11.400000
21
-134.337000
31
0.0
0
LINE
8
0
6
CONTINUOUS
10
-11.004000
20
-133.926000
30
0.0
11
-12.103000
21
-132.753000
31
0.0
0
LINE
8
0
6
CONTINUOUS
10
-11.400000
20
-134.337000
30
0.0
11
-10.144000
21
-135.430000
31
0.0
0
LINE
8
0
6
CONTINUOUS
10
-9.792000
20
-134.980000
30
0.0
11
-11.004000
21
-133.926000
31
0.0
0
LINE
8
0
6
CONTINUOUS
10
-10.144000
20
-135.430000
30
0.0
11
-8.785000
21
-136.390000
31
0.0
0
LINE
8
0
6
CONTINUOUS
10
-8.480000
20
-135.907000
30
0.0
11
-9.792000
21
-134.980000
31
0.0
0
LINE
8
0
6
CONTINUOUS
10
-8.785000
20
-136.390000
30
0.0
11
-7.334000
21
-137.208000
31
0.0
0
LINE
8
0
6
CONTINUOUS
10
-7.080000
20
-136.697000
30
0.0
11
-8.480000
21
-135.907000
31
0.0
0
LINE
8
0
6
CONTINUOUS
10
-7.334000
20
-137.208000
30
0.0
11
-5.810000
21
-137.875000
31
0.0
0
LINE
8
0
6
CONTINUOUS
10
-5.608000
20
-137.341000
30
0.0
11
-7.080000
21
-136.697000
31
0.0
0
LINE
8
0
6
CONTINUOUS
10
-5.810000
20
-137.875000
30
0.0
11
-4.225000
21
-138.384000
31
0.0
0
LINE
8
0
6
CONTINUOUS
10
-4.078000
20
-137.833000
30
0.0
11
-5.608000
21
-137.341000
31
0.0
0
LINE
8
0
6
CONTINUOUS
10
-4.225000
20
-138.384000
30
0.0
11
-2.597000
21
-138.730000
31
0.0
0
LINE
8
0
6
CONTINUOUS
10
-2.507000
20
-138.166000
30
0.0
11
-4.078000
21
-137.833000
31
0.0
0
LINE
8
0
6
CONTINUOUS
10
-2.597000
20
-138.730000
30
0.0
11
-0.943000
21
-138.909000
31
0.0
0
LINE
8
0
6
CONTINUOUS
10
-0.909000
20
-138.340000
30
0.0
11
-2.507000
21
-138.166000
31
0.0
0
LINE
8
0
6
CONTINUOUS
10
-0.943000
20
-138.909000
30
0.0
11
0.000000
21
-138.916000
31
0.0
0
LINE
8
0
6
CONTINUOUS
10
0.000000
20
-138.345000
30
0.0
11
-0.909000
21
-138.340000
31
0.0
0
LINE
8
0
6
CONTINUOUS
10
-13.121000
20
-122.641000
30
0.0
11
-13.112000
21
-122.500000
31
0.0
0
LINE
8
0
6
CONTINUOUS
10
-0.288000
20
-135.623000
30
0.0
11
0.000000
21
-135.610000
31
0.0
0
LINE
8
0
6
CONTINUOUS
10
0.000000
20
-135.597000
30
0.0
11
-0.754000
21
-135.605000
31
0.0
0
LINE
8
0
6
CONTINUOUS
10
-0.754000
20
-135.605000
30
0.0
11
-2.531000
21
-135.380000
31
0.0
0
LINE
8
0
6
CONTINUOUS
10
-2.531000
20
-135.380000
30
0.0
11
-4.260000
21
-134.915000
31
0.0
0
LINE
8
0
6
CONTINUOUS
10
-4.260000
20
-134.915000
30
0.0
11
-5.911000
21
-134.219000
31
0.0
0
LINE
8
0
6
CONTINUOUS
10
-5.911000
20
-134.219000
30
0.0
11
-7.451000
21
-133.305000
31
0.0
0
LINE
8
0
6
CONTINUOUS
10
-8.852000
20
-132.190000
30
0.0
11
-8.331000
21
-132.643000
31
0.0
0
LINE
8
0
6
CONTINUOUS
10
-7.451000
20
-133.305000
30
0.0
11
-8.852000
21
-132.190000
31
0.0
0
LINE
8
0
6
CONTINUOUS
10
-12.979000
20
-124.428000
30
0.0
11
-13.121000
21
-122.641000
31
0.0
0
LINE
8
0
6
CONTINUOUS
10
-11.077000
20
-129.537000
30
0.0
11
-10.382000
21
-130.527000
31
0.0
0
LINE
8
0
6
CONTINUOUS
10
-10.089000
20
-130.894000
30
0.0
11
-11.137000
21
-129.441000
31
0.0
0
LINE
8
0
6
CONTINUOUS
10
-11.679000
20
-128.484000
30
0.0
11
-11.077000
21
-129.537000
31
0.0
0
LINE
8
0
6
CONTINUOUS
10
-11.978000
20
-127.859000
30
0.0
11
-11.679000
21
-128.484000
31
0.0
0
LINE
8
0
6
CONTINUOUS
10
-11.137000
20
-129.441000
30
0.0
11
-11.978000
21
-127.859000
31
0.0
0
LINE
8
0
6
CONTINUOUS
10
-11.978000
20
-127.859000
30
0.0
11
-12.596000
21
-126.178000
31
0.0
0
LINE
8
0
6
CONTINUOUS
10
-12.290000
20
-127.100000
30
0.0
11
-11.978000
21
-127.859000
31
0.0
0
LINE
8
0
6
CONTINUOUS
10
-12.596000
20
-126.178000
30
0.0
11
-12.979000
21
-124.428000
31
0.0
0
LINE
8
0
6
CONTINUOUS
10
-8.852000
20
-132.190000
30
0.0
11
-10.089000
21
-130.894000
31
0.0
0
LINE
8
0
6
CONTINUOUS
10
-9.603000
20
-131.445000
30
0.0
11
-8.852000
21
-132.190000
31
0.0
0
LINE
8
0
6
CONTINUOUS
10
-10.382000
20
-130.527000
30
0.0
11
-11.077000
21
-129.537000
31
0.0
0
LINE
8
0
6
CONTINUOUS
10
-11.342000
20
-127.876000
30
0.0
11
-10.505000
21
-129.371000
31
0.0
0
LINE
8
0
6
CONTINUOUS
10
-1.512000
20
-139.440000
30
0.0
11
-3.164000
21
-139.211000
31
0.0
0
LINE
8
0
6
CONTINUOUS
10
-3.164000
20
-139.211000
30
0.0
11
-4.786000
21
-138.819000
31
0.0
0
LINE
8
0
6
CONTINUOUS
10
-105.000000
20
-17.500000
30
0.0
11
-117.750000
21
-32.125000
31
0.0
0
LINE
8
0
6
CONTINUOUS
10
-117.750000
20
-32.125000
30
0.0
11
-128.875000
21
-48.500000
31
0.0
0
LINE
8
0
6
CONTINUOUS
10
-128.875000
20
-48.500000
30
0.0
11
-137.125000
21
-65.625000
31
0.0
0
LINE
8
0
6
CONTINUOUS
10
-143.375000
20
-84.125000
30
0.0
11
-147.250000
21
-103.000000
31
0.0
0
LINE
8
0
6
CONTINUOUS
10
-147.250000
20
-103.000000
30
0.0
11
-148.750000
21
-122.500000
31
0.0
0
LINE
8
0
6
CONTINUOUS
10
-105.875000
20
-16.625000
30
0.0
11
-118.750000
21
-31.375000
31
0.0
0
LINE
8
0
6
CONTINUOUS
10
-117.750000
20
-32.125000
30
0.0
11
-105.000000
21
-17.500000
31
0.0
0
LINE
8
0
6
CONTINUOUS
10
-118.750000
20
-31.375000
30
0.0
11
-129.875000
21
-47.875000
31
0.0
0
LINE
8
0
6
CONTINUOUS
10
-128.875000
20
-48.500000
30
0.0
11
-117.750000
21
-32.125000
31
0.0
0
LINE
8
0
6
CONTINUOUS
10
-129.875000
20
-47.875000
30
0.0
11
-138.250000
21
-65.250000
31
0.0
0
LINE
8
0
6
CONTINUOUS
10
-137.125000
20
-65.625000
30
0.0
11
-128.875000
21
-48.500000
31
0.0
0
LINE
8
0
6
CONTINUOUS
10
-138.250000
20
-65.250000
30
0.0
11
-144.625000
21
-83.750000
31
0.0
0
LINE
8
0
6
CONTINUOUS
10
-143.375000
20
-84.125000
30
0.0
11
-137.125000
21
-65.625000
31
0.0
0
LINE
8
0
6
CONTINUOUS
10
-144.625000
20
-83.750000
30
0.0
11
-148.500000
21
-103.000000
31
0.0
0
LINE
8
0
6
CONTINUOUS
10
-147.250000
20
-103.000000
30
0.0
11
-143.375000
21
-84.125000
31
0.0
0
LINE
8
0
6
CONTINUOUS
10
-148.500000
20
-103.000000
30
0.0
11
-150.000000
21
-122.500000
31
0.0
0
LINE
8
0
6
CONTINUOUS
10
-148.750000
20
-122.500000
30
0.0
11
-147.250000
21
-103.000000
31
0.0
0
LINE
8
0
6
CONTINUOUS
10
-118.750000
20
-31.375000
30
0.0
11
-105.875000
21
-16.625000
31
0.0
0
LINE
8
0
6
CONTINUOUS
10
-129.875000
20
-47.875000
30
0.0
11
-118.750000
21
-31.375000
31
0.0
0
LINE
8
0
6
CONTINUOUS
10
-138.250000
20
-65.250000
30
0.0
11
-129.875000
21
-47.875000
31
0.0
0
LINE
8
0
6
CONTINUOUS
10
-148.500000
20
-103.000000
30
0.0
11
-144.625000
21
-83.750000
31
0.0
0
LINE
8
0
6
CONTINUOUS
10
-150.000000
20
-122.500000
30
0.0
11
-148.500000
21
-103.000000
31
0.0
0
LINE
8
0
6
CONTINUOUS
10
-90.375000
20
-4.750000
30
0.0
11
-105.000000
21
-17.500000
31
0.0
0
LINE
8
0
6
CONTINUOUS
10
-56.875000
20
14.625000
30
0.0
11
-74.000000
21
6.375000
31
0.0
0
LINE
8
0
6
CONTINUOUS
10
-38.375000
20
20.875000
30
0.0
11
-56.875000
21
14.625000
31
0.0
0
LINE
8
0
6
CONTINUOUS
10
-12.000000
20
25.326923
30
0.0
11
-19.500000
21
24.750000
31
0.0
0
LINE
8
0
6
CONTINUOUS
10
-91.125000
20
-3.750000
30
0.0
11
-105.875000
21
-16.625000
31
0.0
0
LINE
8
0
6
CONTINUOUS
10
-105.000000
20
-17.500000
30
0.0
11
-90.375000
21
-4.750000
31
0.0
0
LINE
8
0
6
CONTINUOUS
10
-74.625000
20
7.375000
30
0.0
11
-91.125000
21
-3.750000
31
0.0
0
LINE
8
0
6
CONTINUOUS
10
-90.375000
20
-4.750000
30
0.0
11
-74.000000
21
6.375000
31
0.0
0
LINE
8
0
6
CONTINUOUS
10
-57.250000
20
15.750000
30
0.0
11
-74.625000
21
7.375000
31
0.0
0
LINE
8
0
6
CONTINUOUS
10
-74.000000
20
6.375000
30
0.0
11
-56.875000
21
14.625000
31
0.0
0
LINE
8
0
6
CONTINUOUS
10
-38.750000
20
22.125000
30
0.0
11
-57.250000
21
15.750000
31
0.0
0
LINE
8
0
6
CONTINUOUS
10
-56.875000
20
14.625000
30
0.0
11
-38.375000
21
20.875000
31
0.0
0
LINE
8
0
6
CONTINUOUS
10
-19.500000
20
26.000000
30
0.0
11
-38.750000
21
22.125000
31
0.0
0
LINE
8
0
6
CONTINUOUS
10
-38.375000
20
20.875000
30
0.0
11
-19.500000
21
24.750000
31
0.0
0
LINE
8
0
6
CONTINUOUS
10
-12.000000
20
26.576923
30
0.0
11
-19.500000
21
26.000000
31
0.0
0
LINE
8
0
6
CONTINUOUS
10
-19.500000
20
24.750000
30
0.0
11
-12.000000
21
25.326923
31
0.0
0
LINE
8
0
6
CONTINUOUS
10
-105.875000
20
-16.625000
30
0.0
11
-91.125000
21
-3.750000
31
0.0
0
LINE
8
0
6
CONTINUOUS
10
-74.625000
20
7.375000
30
0.0
11
-57.250000
21
15.750000
31
0.0
0
LINE
8
0
6
CONTINUOUS
10
-57.250000
20
15.750000
30
0.0
11
-38.750000
21
22.125000
31
0.0
0
LINE
8
0
6
CONTINUOUS
10
-19.500000
20
26.000000
30
0.0
11
-12.000000
21
26.576923
31
0.0
0
LINE
8
0
6
CONTINUOUS
10
105.000000
20
-17.500000
30
0.0
11
90.375000
21
-4.750000
31
0.0
0
LINE
8
0
6
CONTINUOUS
10
90.375000
20
-4.750000
30
0.0
11
74.000000
21
6.375000
31
0.0
0
LINE
8
0
6
CONTINUOUS
10
74.000000
20
6.375000
30
0.0
11
56.875000
21
14.625000
31
0.0
0
LINE
8
0
6
CONTINUOUS
10
38.375000
20
20.875000
30
0.0
11
19.500000
21
24.750000
31
0.0
0
LINE
8
0
6
CONTINUOUS
10
19.500000
20
24.750000
30
0.0
11
12.000000
21
25.326923
31
0.0
0
LINE
8
0
6
CONTINUOUS
10
105.875000
20
-16.625000
30
0.0
11
91.125000
21
-3.750000
31
0.0
0
LINE
8
0
6
CONTINUOUS
10
90.375000
20
-4.750000
30
0.0
11
105.000000
21
-17.500000
31
0.0
0
LINE
8
0
6
CONTINUOUS
10
91.125000
20
-3.750000
30
0.0
11
74.625000
21
7.375000
31
0.0
0
LINE
8
0
6
CONTINUOUS
10
74.000000
20
6.375000
30
0.0
11
90.375000
21
-4.750000
31
0.0
0
LINE
8
0
6
CONTINUOUS
10
74.625000
20
7.375000
30
0.0
11
57.250000
21
15.750000
31
0.0
0
LINE
8
0
6
CONTINUOUS
10
56.875000
20
14.625000
30
0.0
11
74.000000
21
6.375000
31
0.0
0
LINE
8
0
6
CONTINUOUS
10
57.250000
20
15.750000
30
0.0
11
38.750000
21
22.125000
31
0.0
0
LINE
8
0
6
CONTINUOUS
10
38.375000
20
20.875000
30
0.0
11
56.875000
21
14.625000
31
0.0
0
LINE
8
0
6
CONTINUOUS
10
38.750000
20
22.125000
30
0.0
11
19.500000
21
26.000000
31
0.0
0
LINE
8
0
6
CONTINUOUS
10
19.500000
20
24.750000
30
0.0
11
38.375000
21
20.875000
31
0.0
0
LINE
8
0
6
CONTINUOUS
10
19.500000
20
26.000000
30
0.0
11
12.000000
21
26.576923
31
0.0
0
LINE
8
0
6
CONTINUOUS
10
12.000000
20
25.326923
30
0.0
11
19.500000
21
24.750000
31
0.0
0
LINE
8
0
6
CONTINUOUS
10
91.125000
20
-3.750000
30
0.0
11
105.875000
21
-16.625000
31
0.0
0
LINE
8
0
6
CONTINUOUS
10
74.625000
20
7.375000
30
0.0
11
91.125000
21
-3.750000
31
0.0
0
LINE
8
0
6
CONTINUOUS
10
57.250000
20
15.750000
30
0.0
11
74.625000
21
7.375000
31
0.0
0
LINE
8
0
6
CONTINUOUS
10
19.500000
20
26.000000
30
0.0
11
38.750000
21
22.125000
31
0.0
0
LINE
8
0
6
CONTINUOUS
10
12.000000
20
26.576923
30
0.0
11
19.500000
21
26.000000
31
0.0
0
LINE
8
0
6
CONTINUOUS
10
117.750000
20
-32.125000
30
0.0
11
105.000000
21
-17.500000
31
0.0
0
LINE
8
0
6
CONTINUOUS
10
137.125000
20
-65.625000
30
0.0
11
128.875000
21
-48.500000
31
0.0
0
LINE
8
0
6
CONTINUOUS
10
143.375000
20
-84.125000
30
0.0
11
137.125000
21
-65.625000
31
0.0
0
LINE
8
0
6
CONTINUOUS
10
148.750000
20
-122.500000
30
0.0
11
147.250000
21
-103.000000
31
0.0
0
LINE
8
0
6
CONTINUOUS
10
118.750000
20
-31.375000
30
0.0
11
105.875000
21
-16.625000
31
0.0
0
LINE
8
0
6
CONTINUOUS
10
105.000000
20
-17.500000
30
0.0
11
117.750000
21
-32.125000
31
0.0
0
LINE
8
0
6
CONTINUOUS
10
129.875000
20
-47.875000
30
0.0
11
118.750000
21
-31.375000
31
0.0
0
LINE
8
0
6
CONTINUOUS
10
117.750000
20
-32.125000
30
0.0
11
128.875000
21
-48.500000
31
0.0
0
LINE
8
0
6
CONTINUOUS
10
138.250000
20
-65.250000
30
0.0
11
129.875000
21
-47.875000
31
0.0
0
LINE
8
0
6
CONTINUOUS
10
128.875000
20
-48.500000
30
0.0
11
137.125000
21
-65.625000
31
0.0
0
LINE
8
0
6
CONTINUOUS
10
144.625000
20
-83.750000
30
0.0
11
138.250000
21
-65.250000
31
0.0
0
LINE
8
0
6
CONTINUOUS
10
137.125000
20
-65.625000
30
0.0
11
143.375000
21
-84.125000
31
0.0
0
LINE
8
0
6
CONTINUOUS
10
148.500000
20
-103.000000
30
0.0
11
144.625000
21
-83.750000
31
0.0
0
LINE
8
0
6
CONTINUOUS
10
143.375000
20
-84.125000
30
0.0
11
147.250000
21
-103.000000
31
0.0
0
LINE
8
0
6
CONTINUOUS
10
150.000000
20
-122.500000
30
0.0
11
148.500000
21
-103.000000
31
0.0
0
LINE
8
0
6
CONTINUOUS
10
147.250000
20
-103.000000
30
0.0
11
148.750000
21
-122.500000
31
0.0
0
LINE
8
0
6
CONTINUOUS
10
105.875000
20
-16.625000
30
0.0
11
118.750000
21
-31.375000
31
0.0
0
LINE
8
0
6
CONTINUOUS
10
129.875000
20
-47.875000
30
0.0
11
138.250000
21
-65.250000
31
0.0
0
LINE
8
0
6
CONTINUOUS
10
138.250000
20
-65.250000
30
0.0
11
144.625000
21
-83.750000
31
0.0
0
LINE
8
0
6
CONTINUOUS
10
148.500000
20
-103.000000
30
0.0
11
150.000000
21
-122.500000
31
0.0
0
LINE
8
0
6
CONTINUOUS
10
105.000000
20
-227.500000
30
0.0
11
117.750000
21
-212.875000
31
0.0
0
LINE
8
0
6
CONTINUOUS
10
117.750000
20
-212.875000
30
0.0
11
128.875000
21
-196.500000
31
0.0
0
LINE
8
0
6
CONTINUOUS
10
128.875000
20
-196.500000
30
0.0
11
137.125000
21
-179.375000
31
0.0
0
LINE
8
0
6
CONTINUOUS
10
143.375000
20
-160.875000
30
0.0
11
147.250000
21
-142.000000
31
0.0
0
LINE
8
0
6
CONTINUOUS
10
147.250000
20
-142.000000
30
0.0
11
148.750000
21
-122.500000
31
0.0
0
LINE
8
0
6
CONTINUOUS
10
105.875000
20
-228.375000
30
0.0
11
118.750000
21
-213.625000
31
0.0
0
LINE
8
0
6
CONTINUOUS
10
117.750000
20
-212.875000
30
0.0
11
105.000000
21
-227.500000
31
0.0
0
LINE
8
0
6
CONTINUOUS
10
118.750000
20
-213.625000
30
0.0
11
129.875000
21
-197.125000
31
0.0
0
LINE
8
0
6
CONTINUOUS
10
128.875000
20
-196.500000
30
0.0
11
117.750000
21
-212.875000
31
0.0
0
LINE
8
0
6
CONTINUOUS
10
129.875000
20
-197.125000
30
0.0
11
138.250000
21
-179.750000
31
0.0
0
LINE
8
0
6
CONTINUOUS
10
137.125000
20
-179.375000
30
0.0
11
128.875000
21
-196.500000
31
0.0
0
LINE
8
0
6
CONTINUOUS
10
138.250000
20
-179.750000
30
0.0
11
144.625000
21
-161.250000
31
0.0
0
LINE
8
0
6
CONTINUOUS
10
143.375000
20
-160.875000
30
0.0
11
137.125000
21
-179.375000
31
0.0
0
LINE
8
0
6
CONTINUOUS
10
144.625000
20
-161.250000
30
0.0
11
148.500000
21
-142.000000
31
0.0
0
LINE
8
0
6
CONTINUOUS
10
147.250000
20
-142.000000
30
0.0
11
143.375000
21
-160.875000
31
0.0
0
LINE
8
0
6
CONTINUOUS
10
148.500000
20
-142.000000
30
0.0
11
150.000000
21
-122.500000
31
0.0
0
LINE
8
0
6
CONTINUOUS
10
148.750000
20
-122.500000
30
0.0
11
147.250000
21
-142.000000
31
0.0
0
LINE
8
0
6
CONTINUOUS
10
118.750000
20
-213.625000
30
0.0
11
105.875000
21
-228.375000
31
0.0
0
LINE
8
0
6
CONTINUOUS
10
129.875000
20
-197.125000
30
0.0
11
118.750000
21
-213.625000
31
0.0
0
LINE
8
0
6
CONTINUOUS
10
138.250000
20
-179.750000
30
0.0
11
129.875000
21
-197.125000
31
0.0
0
LINE
8
0
6
CONTINUOUS
10
148.500000
20
-142.000000
30
0.0
11
144.625000
21
-161.250000
31
0.0
0
LINE
8
0
6
CONTINUOUS
10
150.000000
20
-122.500000
30
0.0
11
148.500000
21
-142.000000
31
0.0
0
LINE
8
0
6
CONTINUOUS
10
90.375000
20
-240.250000
30
0.0
11
105.000000
21
-227.500000
31
0.0
0
LINE
8
0
6
CONTINUOUS
10
56.875000
20
-259.625000
30
0.0
11
74.000000
21
-251.375000
31
0.0
0
LINE
8
0
6
CONTINUOUS
10
38.375000
20
-265.875000
30
0.0
11
56.875000
21
-259.625000
31
0.0
0
LINE
8
0
6
CONTINUOUS
10
0.000000
20
-271.250000
30
0.0
11
19.500000
21
-269.750000
31
0.0
0
LINE
8
0
6
CONTINUOUS
10
91.125000
20
-241.250000
30
0.0
11
105.875000
21
-228.375000
31
0.0
0
LINE
8
0
6
CONTINUOUS
10
105.000000
20
-227.500000
30
0.0
11
90.375000
21
-240.250000
31
0.0
0
LINE
8
0
6
CONTINUOUS
10
74.625000
20
-252.375000
30
0.0
11
91.125000
21
-241.250000
31
0.0
0
LINE
8
0
6
CONTINUOUS
10
90.375000
20
-240.250000
30
0.0
11
74.000000
21
-251.375000
31
0.0
0
LINE
8
0
6
CONTINUOUS
10
57.250000
20
-260.750000
30
0.0
11
74.625000
21
-252.375000
31
0.0
0
LINE
8
0
6
CONTINUOUS
10
74.000000
20
-251.375000
30
0.0
11
56.875000
21
-259.625000
31
0.0
0
LINE
8
0
6
CONTINUOUS
10
38.750000
20
-267.125000
30
0.0
11
57.250000
21
-260.750000
31
0.0
0
LINE
8
0
6
CONTINUOUS
10
56.875000
20
-259.625000
30
0.0
11
38.375000
21
-265.875000
31
0.0
0
LINE
8
0
6
CONTINUOUS
10
19.500000
20
-271.000000
30
0.0
11
38.750000
21
-267.125000
31
0.0
0
LINE
8
0
6
CONTINUOUS
10
38.375000
20
-265.875000
30
0.0
11
19.500000
21
-269.750000
31
0.0
0
LINE
8
0
6
CONTINUOUS
10
0.000000
20
-272.500000
30
0.0
11
19.500000
21
-271.000000
31
0.0
0
LINE
8
0
6
CONTINUOUS
10
19.500000
20
-269.750000
30
0.0
11
0.000000
21
-271.250000
31
0.0
0
LINE
8
0
6
CONTINUOUS
10
105.875000
20
-228.375000
30
0.0
11
91.125000
21
-241.250000
31
0.0
0
LINE
8
0
6
CONTINUOUS
10
74.625000
20
-252.375000
30
0.0
11
57.250000
21
-260.750000
31
0.0
0
LINE
8
0
6
CONTINUOUS
10
57.250000
20
-260.750000
30
0.0
11
38.750000
21
-267.125000
31
0.0
0
LINE
8
0
6
CONTINUOUS
10
19.500000
20
-271.000000
30
0.0
11
0.000000
21
-272.500000
31
0.0
0
LINE
8
0
6
CONTINUOUS
10
-105.000000
20
-227.500000
30
0.0
11
-90.375000
21
-240.250000
31
0.0
0
LINE
8
0
6
CONTINUOUS
10
-90.375000
20
-240.250000
30
0.0
11
-74.000000
21
-251.375000
31
0.0
0
LINE
8
0
6
CONTINUOUS
10
-74.000000
20
-251.375000
30
0.0
11
-56.875000
21
-259.625000
31
0.0
0
LINE
8
0
6
CONTINUOUS
10
-38.375000
20
-265.875000
30
0.0
11
-19.500000
21
-269.750000
31
0.0
0
LINE
8
0
6
CONTINUOUS
10
-19.500000
20
-269.750000
30
0.0
11
0.000000
21
-271.250000
31
0.0
0
LINE
8
0
6
CONTINUOUS
10
-105.875000
20
-228.375000
30
0.0
11
-91.125000
21
-241.250000
31
0.0
0
LINE
8
0
6
CONTINUOUS
10
-90.375000
20
-240.250000
30
0.0
11
-105.000000
21
-227.500000
31
0.0
0
LINE
8
0
6
CONTINUOUS
10
-91.125000
20
-241.250000
30
0.0
11
-74.625000
21
-252.375000
31
0.0
0
LINE
8
0
6
CONTINUOUS
10
-74.000000
20
-251.375000
30
0.0
11
-90.375000
21
-240.250000
31
0.0
0
LINE
8
0
6
CONTINUOUS
10
-74.625000
20
-252.375000
30
0.0
11
-57.250000
21
-260.750000
31
0.0
0
LINE
8
0
6
CONTINUOUS
10
-56.875000
20
-259.625000
30
0.0
11
-74.000000
21
-251.375000
31
0.0
0
LINE
8
0
6
CONTINUOUS
10
-57.250000
20
-260.750000
30
0.0
11
-38.750000
21
-267.125000
31
0.0
0
LINE
8
0
6
CONTINUOUS
10
-38.375000
20
-265.875000
30
0.0
11
-56.875000
21
-259.625000
31
0.0
0
LINE
8
0
6
CONTINUOUS
10
-38.750000
20
-267.125000
30
0.0
11
-19.500000
21
-271.000000
31
0.0
0
LINE
8
0
6
CONTINUOUS
10
-19.500000
20
-269.750000
30
0.0
11
-38.375000
21
-265.875000
31
0.0
0
LINE
8
0
6
CONTINUOUS
10
-19.500000
20
-271.000000
30
0.0
11
0.000000
21
-272.500000
31
0.0
0
LINE
8
0
6
CONTINUOUS
10
0.000000
20
-271.250000
30
0.0
11
-19.500000
21
-269.750000
31
0.0
0
LINE
8
0
6
CONTINUOUS
10
-91.125000
20
-241.250000
30
0.0
11
-105.875000
21
-228.375000
31
0.0
0
LINE
8
0
6
CONTINUOUS
10
-74.625000
20
-252.375000
30
0.0
11
-91.125000
21
-241.250000
31
0.0
0
LINE
8
0
6
CONTINUOUS
10
-57.250000
20
-260.750000
30
0.0
11
-74.625000
21
-252.375000
31
0.0
0
LINE
8
0
6
CONTINUOUS
10
-19.500000
20
-271.000000
30
0.0
11
-38.750000
21
-267.125000
31
0.0
0
LINE
8
0
6
CONTINUOUS
10
0.000000
20
-272.500000
30
0.0
11
-19.500000
21
-271.000000
31
0.0
0
LINE
8
0
6
CONTINUOUS
10
-117.750000
20
-212.875000
30
0.0
11
-105.000000
21
-227.500000
31
0.0
0
LINE
8
0
6
CONTINUOUS
10
-137.125000
20
-179.375000
30
0.0
11
-128.875000
21
-196.500000
31
0.0
0
LINE
8
0
6
CONTINUOUS
10
-143.375000
20
-160.875000
30
0.0
11
-137.125000
21
-179.375000
31
0.0
0
LINE
8
0
6
CONTINUOUS
10
-148.750000
20
-122.500000
30
0.0
11
-147.250000
21
-142.000000
31
0.0
0
LINE
8
0
6
CONTINUOUS
10
-118.750000
20
-213.625000
30
0.0
11
-105.875000
21
-228.375000
31
0.0
0
LINE
8
0
6
CONTINUOUS
10
-105.000000
20
-227.500000
30
0.0
11
-117.750000
21
-212.875000
31
0.0
0
LINE
8
0
6
CONTINUOUS
10
-129.875000
20
-197.125000
30
0.0
11
-118.750000
21
-213.625000
31
0.0
0
LINE
8
0
6
CONTINUOUS
10
-117.750000
20
-212.875000
30
0.0
11
-128.875000
21
-196.500000
31
0.0
0
LINE
8
0
6
CONTINUOUS
10
-138.250000
20
-179.750000
30
0.0
11
-129.875000
21
-197.125000
31
0.0
0
LINE
8
0
6
CONTINUOUS
10
-128.875000
20
-196.500000
30
0.0
11
-137.125000
21
-179.375000
31
0.0
0
LINE
8
0
6
CONTINUOUS
10
-144.625000
20
-161.250000
30
0.0
11
-138.250000
21
-179.750000
31
0.0
0
LINE
8
0
6
CONTINUOUS
10
-137.125000
20
-179.375000
30
0.0
11
-143.375000
21
-160.875000
31
0.0
0
LINE
8
0
6
CONTINUOUS
10
-148.500000
20
-142.000000
30
0.0
11
-144.625000
21
-161.250000
31
0.0
0
LINE
8
0
6
CONTINUOUS
10
-143.375000
20
-160.875000
30
0.0
11
-147.250000
21
-142.000000
31
0.0
0
LINE
8
0
6
CONTINUOUS
10
-150.000000
20
-122.500000
30
0.0
11
-148.500000
21
-142.000000
31
0.0
0
LINE
8
0
6
CONTINUOUS
10
-147.250000
20
-142.000000
30
0.0
11
-148.750000
21
-122.500000
31
0.0
0
LINE
8
0
6
CONTINUOUS
10
-105.875000
20
-228.375000
30
0.0
11
-118.750000
21
-213.625000
31
0.0
0
LINE
8
0
6
CONTINUOUS
10
-129.875000
20
-197.125000
30
0.0
11
-138.250000
21
-179.750000
31
0.0
0
LINE
8
0
6
CONTINUOUS
10
-138.250000
20
-179.750000
30
0.0
11
-144.625000
21
-161.250000
31
0.0
0
LINE
8
0
6
CONTINUOUS
10
-148.500000
20
-142.000000
30
0.0
11
-150.000000
21
-122.500000
31
0.0
0
LINE
8
0
6
CONTINUOUS
10
-35.300000
20
-87.200000
30
0.0
11
-39.600000
21
-92.100000
31
0.0
0
LINE
8
0
6
CONTINUOUS
10
-39.600000
20
-92.100000
30
0.0
11
-43.300000
21
-97.600000
31
0.0
0
LINE
8
0
6
CONTINUOUS
10
-43.300000
20
-97.600000
30
0.0
11
-46.100000
21
-103.400000
31
0.0
0
LINE
8
0
6
CONTINUOUS
10
-46.100000
20
-103.400000
30
0.0
11
-48.200000
21
-109.600000
31
0.0
0
LINE
8
0
6
CONTINUOUS
10
-48.200000
20
-109.600000
30
0.0
11
-49.500000
21
-116.000000
31
0.0
0
LINE
8
0
6
CONTINUOUS
10
-49.500000
20
-116.000000
30
0.0
11
-50.000000
21
-122.500000
31
0.0
0
LINE
8
0
6
CONTINUOUS
10
-39.600000
20
-92.100000
30
0.0
11
-35.300000
21
-87.200000
31
0.0
0
LINE
8
0
6
CONTINUOUS
10
-43.300000
20
-97.600000
30
0.0
11
-39.600000
21
-92.100000
31
0.0
0
LINE
8
0
6
CONTINUOUS
10
-46.100000
20
-103.400000
30
0.0
11
-43.300000
21
-97.600000
31
0.0
0
LINE
8
0
6
CONTINUOUS
10
-48.200000
20
-109.600000
30
0.0
11
-46.100000
21
-103.400000
31
0.0
0
LINE
8
0
6
CONTINUOUS
10
-49.500000
20
-116.000000
30
0.0
11
-48.200000
21
-109.600000
31
0.0
0
LINE
8
0
6
CONTINUOUS
10
-50.000000
20
-122.500000
30
0.0
11
-49.500000
21
-116.000000
31
0.0
0
LINE
8
0
6
CONTINUOUS
10
-30.400000
20
-82.900000
30
0.0
11
-35.300000
21
-87.200000
31
0.0
0
LINE
8
0
6
CONTINUOUS
10
-24.900000
20
-79.200000
30
0.0
11
-30.400000
21
-82.900000
31
0.0
0
LINE
8
0
6
CONTINUOUS
10
-19.100000
20
-76.400000
30
0.0
11
-24.900000
21
-79.200000
31
0.0
0
LINE
8
0
6
CONTINUOUS
10
-12.900000
20
-74.300000
30
0.0
11
-19.100000
21
-76.400000
31
0.0
0
LINE
8
0
6
CONTINUOUS
10
-12.000000
20
-74.117188
30
0.0
11
-12.900000
21
-74.300000
31
0.0
0
LINE
8
0
6
CONTINUOUS
10
-35.300000
20
-87.200000
30
0.0
11
-30.400000
21
-82.900000
31
0.0
0
LINE
8
0
6
CONTINUOUS
10
-30.400000
20
-82.900000
30
0.0
11
-24.900000
21
-79.200000
31
0.0
0
LINE
8
0
6
CONTINUOUS
10
-24.900000
20
-79.200000
30
0.0
11
-19.100000
21
-76.400000
31
0.0
0
LINE
8
0
6
CONTINUOUS
10
-19.100000
20
-76.400000
30
0.0
11
-12.900000
21
-74.300000
31
0.0
0
LINE
8
0
6
CONTINUOUS
10
-12.900000
20
-74.300000
30
0.0
11
-12.000000
21
-74.117188
31
0.0
0
LINE
8
0
6
CONTINUOUS
10
35.300000
20
-87.200000
30
0.0
11
30.400000
21
-82.900000
31
0.0
0
LINE
8
0
6
CONTINUOUS
10
30.400000
20
-82.900000
30
0.0
11
24.900000
21
-79.200000
31
0.0
0
LINE
8
0
6
CONTINUOUS
10
24.900000
20
-79.200000
30
0.0
11
19.100000
21
-76.400000
31
0.0
0
LINE
8
0
6
CONTINUOUS
10
19.100000
20
-76.400000
30
0.0
11
12.900000
21
-74.300000
31
0.0
0
LINE
8
0
6
CONTINUOUS
10
12.900000
20
-74.300000
30
0.0
11
12.000000
21
-74.117188
31
0.0
0
LINE
8
0
6
CONTINUOUS
10
30.400000
20
-82.900000
30
0.0
11
35.300000
21
-87.200000
31
0.0
0
LINE
8
0
6
CONTINUOUS
10
24.900000
20
-79.200000
30
0.0
11
30.400000
21
-82.900000
31
0.0
0
LINE
8
0
6
CONTINUOUS
10
19.100000
20
-76.400000
30
0.0
11
24.900000
21
-79.200000
31
0.0
0
LINE
8
0
6
CONTINUOUS
10
12.900000
20
-74.300000
30
0.0
11
19.100000
21
-76.400000
31
0.0
0
LINE
8
0
6
CONTINUOUS
10
12.000000
20
-74.117188
30
0.0
11
12.900000
21
-74.300000
31
0.0
0
LINE
8
0
6
CONTINUOUS
10
39.600000
20
-92.100000
30
0.0
11
35.300000
21
-87.200000
31
0.0
0
LINE
8
0
6
CONTINUOUS
10
43.300000
20
-97.600000
30
0.0
11
39.600000
21
-92.100000
31
0.0
0
LINE
8
0
6
CONTINUOUS
10
46.100000
20
-103.400000
30
0.0
11
43.300000
21
-97.600000
31
0.0
0
LINE
8
0
6
CONTINUOUS
10
48.200000
20
-109.600000
30
0.0
11
46.100000
21
-103.400000
31
0.0
0
LINE
8
0
6
CONTINUOUS
10
49.500000
20
-116.000000
30
0.0
11
48.200000
21
-109.600000
31
0.0
0
LINE
8
0
6
CONTINUOUS
10
50.000000
20
-122.500000
30
0.0
11
49.500000
21
-116.000000
31
0.0
0
LINE
8
0
6
CONTINUOUS
10
35.300000
20
-87.200000
30
0.0
11
39.600000
21
-92.100000
31
0.0
0
LINE
8
0
6
CONTINUOUS
10
39.600000
20
-92.100000
30
0.0
11
43.300000
21
-97.600000
31
0.0
0
LINE
8
0
6
CONTINUOUS
10
43.300000
20
-97.600000
30
0.0
11
46.100000
21
-103.400000
31
0.0
0
LINE
8
0
6
CONTINUOUS
10
46.100000
20
-103.400000
30
0.0
11
48.200000
21
-109.600000
31
0.0
0
LINE
8
0
6
CONTINUOUS
10
48.200000
20
-109.600000
30
0.0
11
49.500000
21
-116.000000
31
0.0
0
LINE
8
0
6
CONTINUOUS
10
49.500000
20
-116.000000
30
0.0
11
50.000000
21
-122.500000
31
0.0
0
LINE
8
0
6
CONTINUOUS
10
35.300000
20
-157.800000
30
0.0
11
39.600000
21
-152.900000
31
0.0
0
LINE
8
0
6
CONTINUOUS
10
39.600000
20
-152.900000
30
0.0
11
43.300000
21
-147.400000
31
0.0
0
LINE
8
0
6
CONTINUOUS
10
43.300000
20
-147.400000
30
0.0
11
46.100000
21
-141.600000
31
0.0
0
LINE
8
0
6
CONTINUOUS
10
46.100000
20
-141.600000
30
0.0
11
48.200000
21
-135.400000
31
0.0
0
LINE
8
0
6
CONTINUOUS
10
48.200000
20
-135.400000
30
0.0
11
49.500000
21
-129.000000
31
0.0
0
LINE
8
0
6
CONTINUOUS
10
49.500000
20
-129.000000
30
0.0
11
50.000000
21
-122.500000
31
0.0
0
LINE
8
0
6
CONTINUOUS
10
39.600000
20
-152.900000
30
0.0
11
35.300000
21
-157.800000
31
0.0
0
LINE
8
0
6
CONTINUOUS
10
43.300000
20
-147.400000
30
0.0
11
39.600000
21
-152.900000
31
0.0
0
LINE
8
0
6
CONTINUOUS
10
46.100000
20
-141.600000
30
0.0
11
43.300000
21
-147.400000
31
0.0
0
LINE
8
0
6
CONTINUOUS
10
48.200000
20
-135.400000
30
0.0
11
46.100000
21
-141.600000
31
0.0
0
LINE
8
0
6
CONTINUOUS
10
49.500000
20
-129.000000
30
0.0
11
48.200000
21
-135.400000
31
0.0
0
LINE
8
0
6
CONTINUOUS
10
50.000000
20
-122.500000
30
0.0
11
49.500000
21
-129.000000
31
0.0
0
LINE
8
0
6
CONTINUOUS
10
30.400000
20
-162.100000
30
0.0
11
35.300000
21
-157.800000
31
0.0
0
LINE
8
0
6
CONTINUOUS
10
24.900000
20
-165.800000
30
0.0
11
30.400000
21
-162.100000
31
0.0
0
LINE
8
0
6
CONTINUOUS
10
19.100000
20
-168.600000
30
0.0
11
24.900000
21
-165.800000
31
0.0
0
LINE
8
0
6
CONTINUOUS
10
12.900000
20
-170.700000
30
0.0
11
19.100000
21
-168.600000
31
0.0
0
LINE
8
0
6
CONTINUOUS
10
6.500000
20
-172.000000
30
0.0
11
12.900000
21
-170.700000
31
0.0
0
LINE
8
0
6
CONTINUOUS
10
0.000000
20
-172.500000
30
0.0
11
6.500000
21
-172.000000
31
0.0
0
LINE
8
0
6
CONTINUOUS
10
35.300000
20
-157.800000
30
0.0
11
30.400000
21
-162.100000
31
0.0
0
LINE
8
0
6
CONTINUOUS
10
30.400000
20
-162.100000
30
0.0
11
24.900000
21
-165.800000
31
0.0
0
LINE
8
0
6
CONTINUOUS
10
24.900000
20
-165.800000
30
0.0
11
19.100000
21
-168.600000
31
0.0
0
LINE
8
0
6
CONTINUOUS
10
19.100000
20
-168.600000
30
0.0
11
12.900000
21
-170.700000
31
0.0
0
LINE
8
0
6
CONTINUOUS
10
12.900000
20
-170.700000
30
0.0
11
6.500000
21
-172.000000
31
0.0
0
LINE
8
0
6
CONTINUOUS
10
6.500000
20
-172.000000
30
0.0
11
0.000000
21
-172.500000
31
0.0
0
LINE
8
0
6
CONTINUOUS
10
-35.300000
20
-157.800000
30
0.0
11
-30.400000
21
-162.100000
31
0.0
0
LINE
8
0
6
CONTINUOUS
10
-30.400000
20
-162.100000
30
0.0
11
-24.900000
21
-165.800000
31
0.0
0
LINE
8
0
6
CONTINUOUS
10
-24.900000
20
-165.800000
30
0.0
11
-19.100000
21
-168.600000
31
0.0
0
LINE
8
0
6
CONTINUOUS
10
-19.100000
20
-168.600000
30
0.0
11
-12.900000
21
-170.700000
31
0.0
0
LINE
8
0
6
CONTINUOUS
10
-12.900000
20
-170.700000
30
0.0
11
-6.500000
21
-172.000000
31
0.0
0
LINE
8
0
6
CONTINUOUS
10
-6.500000
20
-172.000000
30
0.0
11
0.000000
21
-172.500000
31
0.0
0
LINE
8
0
6
CONTINUOUS
10
-30.400000
20
-162.100000
30
0.0
11
-35.300000
21
-157.800000
31
0.0
0
LINE
8
0
6
CONTINUOUS
10
-24.900000
20
-165.800000
30
0.0
11
-30.400000
21
-162.100000
31
0.0
0
LINE
8
0
6
CONTINUOUS
10
-19.100000
20
-168.600000
30
0.0
11
-24.900000
21
-165.800000
31
0.0
0
LINE
8
0
6
CONTINUOUS
10
-12.900000
20
-170.700000
30
0.0
11
-19.100000
21
-168.600000
31
0.0
0
LINE
8
0
6
CONTINUOUS
10
-6.500000
20
-172.000000
30
0.0
11
-12.900000
21
-170.700000
31
0.0
0
LINE
8
0
6
CONTINUOUS
10
0.000000
20
-172.500000
30
0.0
11
-6.500000
21
-172.000000
31
0.0
0
LINE
8
0
6
CONTINUOUS
10
-39.600000
20
-152.900000
30
0.0
11
-35.300000
21
-157.800000
31
0.0
0
LINE
8
0
6
CONTINUOUS
10
-43.300000
20
-147.400000
30
0.0
11
-39.600000
21
-152.900000
31
0.0
0
LINE
8
0
6
CONTINUOUS
10
-46.100000
20
-141.600000
30
0.0
11
-43.300000
21
-147.400000
31
0.0
0
LINE
8
0
6
CONTINUOUS
10
-48.200000
20
-135.400000
30
0.0
11
-46.100000
21
-141.600000
31
0.0
0
LINE
8
0
6
CONTINUOUS
10
-49.500000
20
-129.000000
30
0.0
11
-48.200000
21
-135.400000
31
0.0
0
LINE
8
0
6
CONTINUOUS
10
-50.000000
20
-122.500000
30
0.0
11
-49.500000
21
-129.000000
31
0.0
0
LINE
8
0
6
CONTINUOUS
10
-35.300000
20
-157.800000
30
0.0
11
-39.600000
21
-152.900000
31
0.0
0
LINE
8
0
6
CONTINUOUS
10
-39.600000
20
-152.900000
30
0.0
11
-43.300000
21
-147.400000
31
0.0
0
LINE
8
0
6
CONTINUOUS
10
-43.300000
20
-147.400000
30
0.0
11
-46.100000
21
-141.600000
31
0.0
0
LINE
8
0
6
CONTINUOUS
10
-46.100000
20
-141.600000
30
0.0
11
-48.200000
21
-135.400000
31
0.0
0
LINE
8
0
6
CONTINUOUS
10
-48.200000
20
-135.400000
30
0.0
11
-49.500000
21
-129.000000
31
0.0
0
LINE
8
0
6
CONTINUOUS
10
-49.500000
20
-129.000000
30
0.0
11
-50.000000
21
-122.500000
31
0.0
0
ENDSEC
0
EOF
