999
Erzeugt mit innoplus bad 
0
SECTION
2
HEADER
9
$ACADVER
1
AC1009
9
$DWGCODEPAGE
3
ISO8859-1
0
ENDSEC
0
SECTION
2
TABLES
0
TABLE
2
LAYER
70
1
0
LAYER
2
0
70
0
62
7
6
CONTINUOUS
0
ENDTAB
0
ENDSEC
0
SECTION
2
ENTITIES
0
LINE
8
0
6
CONTINUOUS
10
-119.524000
20
-73.500000
30
0.0
11
-118.252000
21
-73.500000
31
0.0
0
LINE
8
0
6
CONTINUOUS
10
-120.964000
20
-73.500000
30
0.0
11
-119.524000
21
-73.500000
31
0.0
0
LINE
8
0
6
CONTINUOUS
10
-118.252000
20
-73.500000
30
0.0
11
-119.524000
21
-73.500000
31
0.0
0
LINE
8
0
6
CONTINUOUS
10
-119.524000
20
-73.500000
30
0.0
11
-120.964000
21
-73.500000
31
0.0
0
LINE
8
0
6
CONTINUOUS
10
-126.748000
20
-73.500000
30
0.0
11
-125.476000
21
-73.500000
31
0.0
0
LINE
8
0
6
CONTINUOUS
10
-125.476000
20
-73.500000
30
0.0
11
-124.036000
21
-73.500000
31
0.0
0
LINE
8
0
6
CONTINUOUS
10
-125.476000
20
-73.500000
30
0.0
11
-126.748000
21
-73.500000
31
0.0
0
LINE
8
0
6
CONTINUOUS
10
-124.036000
20
-73.500000
30
0.0
11
-125.476000
21
-73.500000
31
0.0
0
LINE
8
0
6
CONTINUOUS
10
-39.415000
20
-71.500000
30
0.0
11
-41.182000
21
-71.500000
31
0.0
0
LINE
8
0
6
CONTINUOUS
10
-41.182000
20
-71.500000
30
0.0
11
-39.415000
21
-71.500000
31
0.0
0
LINE
8
0
6
CONTINUOUS
10
-39.415000
20
-71.500000
30
0.0
11
-37.648000
21
-71.500000
31
0.0
0
LINE
8
0
6
CONTINUOUS
10
-37.648000
20
-71.500000
30
0.0
11
-39.415000
21
-71.500000
31
0.0
0
LINE
8
0
6
CONTINUOUS
10
-156.233000
20
-73.500000
30
0.0
11
-156.233000
21
-71.500000
31
0.0
0
LINE
8
0
6
CONTINUOUS
10
-159.295000
20
-73.500000
30
0.0
11
-156.880000
21
-73.500000
31
0.0
0
LINE
8
0
6
CONTINUOUS
10
-156.880000
20
-73.500000
30
0.0
11
-156.233000
21
-73.500000
31
0.0
0
LINE
8
0
6
CONTINUOUS
10
-159.295000
20
-71.500000
30
0.0
11
-159.295000
21
-73.500000
31
0.0
0
LINE
8
0
6
CONTINUOUS
10
-156.880000
20
-71.500000
30
0.0
11
-156.880000
21
-73.500000
31
0.0
0
LINE
8
0
6
CONTINUOUS
10
-159.295000
20
-73.500000
30
0.0
11
-159.295000
21
-71.500000
31
0.0
0
LINE
8
0
6
CONTINUOUS
10
-156.880000
20
-73.500000
30
0.0
11
-159.295000
21
-73.500000
31
0.0
0
LINE
8
0
6
CONTINUOUS
10
-156.233000
20
-71.500000
30
0.0
11
-156.233000
21
-73.500000
31
0.0
0
LINE
8
0
6
CONTINUOUS
10
-156.880000
20
-73.500000
30
0.0
11
-156.880000
21
-71.500000
31
0.0
0
LINE
8
0
6
CONTINUOUS
10
-156.233000
20
-73.500000
30
0.0
11
-156.880000
21
-73.500000
31
0.0
0
LINE
8
0
6
CONTINUOUS
10
-151.380000
20
-73.500000
30
0.0
11
-151.380000
21
-71.500000
31
0.0
0
LINE
8
0
6
CONTINUOUS
10
-154.442000
20
-73.500000
30
0.0
11
-152.027000
21
-73.500000
31
0.0
0
LINE
8
0
6
CONTINUOUS
10
-152.027000
20
-73.500000
30
0.0
11
-151.380000
21
-73.500000
31
0.0
0
LINE
8
0
6
CONTINUOUS
10
-154.442000
20
-71.500000
30
0.0
11
-154.442000
21
-73.500000
31
0.0
0
LINE
8
0
6
CONTINUOUS
10
-152.027000
20
-71.500000
30
0.0
11
-152.027000
21
-73.500000
31
0.0
0
LINE
8
0
6
CONTINUOUS
10
-154.442000
20
-73.500000
30
0.0
11
-154.442000
21
-71.500000
31
0.0
0
LINE
8
0
6
CONTINUOUS
10
-152.027000
20
-73.500000
30
0.0
11
-154.442000
21
-73.500000
31
0.0
0
LINE
8
0
6
CONTINUOUS
10
-151.380000
20
-71.500000
30
0.0
11
-151.380000
21
-73.500000
31
0.0
0
LINE
8
0
6
CONTINUOUS
10
-152.027000
20
-73.500000
30
0.0
11
-152.027000
21
-71.500000
31
0.0
0
LINE
8
0
6
CONTINUOUS
10
-151.380000
20
-73.500000
30
0.0
11
-152.027000
21
-73.500000
31
0.0
0
LINE
8
0
6
CONTINUOUS
10
-188.917500
20
-73.500000
30
0.0
11
-188.917500
21
-71.500000
31
0.0
0
LINE
8
0
6
CONTINUOUS
10
-192.332500
20
-73.500000
30
0.0
11
-190.167500
21
-73.500000
31
0.0
0
LINE
8
0
6
CONTINUOUS
10
-190.167500
20
-73.500000
30
0.0
11
-188.917500
21
-73.500000
31
0.0
0
LINE
8
0
6
CONTINUOUS
10
-192.332500
20
-71.500000
30
0.0
11
-192.332500
21
-73.500000
31
0.0
0
LINE
8
0
6
CONTINUOUS
10
-190.167500
20
-71.500000
30
0.0
11
-190.167500
21
-73.500000
31
0.0
0
LINE
8
0
6
CONTINUOUS
10
-192.332500
20
-73.500000
30
0.0
11
-192.332500
21
-71.500000
31
0.0
0
LINE
8
0
6
CONTINUOUS
10
-190.167500
20
-73.500000
30
0.0
11
-192.332500
21
-73.500000
31
0.0
0
LINE
8
0
6
CONTINUOUS
10
-188.917500
20
-71.500000
30
0.0
11
-188.917500
21
-73.500000
31
0.0
0
LINE
8
0
6
CONTINUOUS
10
-190.167500
20
-73.500000
30
0.0
11
-190.167500
21
-71.500000
31
0.0
0
LINE
8
0
6
CONTINUOUS
10
-188.917500
20
-73.500000
30
0.0
11
-190.167500
21
-73.500000
31
0.0
0
LINE
8
0
6
CONTINUOUS
10
-141.675000
20
-73.500000
30
0.0
11
-141.675000
21
-71.500000
31
0.0
0
LINE
8
0
6
CONTINUOUS
10
-144.736000
20
-73.500000
30
0.0
11
-142.321000
21
-73.500000
31
0.0
0
LINE
8
0
6
CONTINUOUS
10
-142.321000
20
-73.500000
30
0.0
11
-141.675000
21
-73.500000
31
0.0
0
LINE
8
0
6
CONTINUOUS
10
-144.736000
20
-71.500000
30
0.0
11
-144.736000
21
-73.500000
31
0.0
0
LINE
8
0
6
CONTINUOUS
10
-142.321000
20
-71.500000
30
0.0
11
-142.321000
21
-73.500000
31
0.0
0
LINE
8
0
6
CONTINUOUS
10
-144.736000
20
-73.500000
30
0.0
11
-144.736000
21
-71.500000
31
0.0
0
LINE
8
0
6
CONTINUOUS
10
-142.321000
20
-73.500000
30
0.0
11
-144.736000
21
-73.500000
31
0.0
0
LINE
8
0
6
CONTINUOUS
10
-141.675000
20
-71.500000
30
0.0
11
-141.675000
21
-73.500000
31
0.0
0
LINE
8
0
6
CONTINUOUS
10
-142.321000
20
-73.500000
30
0.0
11
-142.321000
21
-71.500000
31
0.0
0
LINE
8
0
6
CONTINUOUS
10
-141.675000
20
-73.500000
30
0.0
11
-142.321000
21
-73.500000
31
0.0
0
LINE
8
0
6
CONTINUOUS
10
-131.969000
20
-73.500000
30
0.0
11
-131.969000
21
-71.500000
31
0.0
0
LINE
8
0
6
CONTINUOUS
10
-135.031000
20
-73.500000
30
0.0
11
-132.616000
21
-73.500000
31
0.0
0
LINE
8
0
6
CONTINUOUS
10
-132.616000
20
-73.500000
30
0.0
11
-131.969000
21
-73.500000
31
0.0
0
LINE
8
0
6
CONTINUOUS
10
-135.031000
20
-71.500000
30
0.0
11
-135.031000
21
-73.500000
31
0.0
0
LINE
8
0
6
CONTINUOUS
10
-132.616000
20
-71.500000
30
0.0
11
-132.616000
21
-73.500000
31
0.0
0
LINE
8
0
6
CONTINUOUS
10
-135.031000
20
-73.500000
30
0.0
11
-135.031000
21
-71.500000
31
0.0
0
LINE
8
0
6
CONTINUOUS
10
-132.616000
20
-73.500000
30
0.0
11
-135.031000
21
-73.500000
31
0.0
0
LINE
8
0
6
CONTINUOUS
10
-131.969000
20
-71.500000
30
0.0
11
-131.969000
21
-73.500000
31
0.0
0
LINE
8
0
6
CONTINUOUS
10
-132.616000
20
-73.500000
30
0.0
11
-132.616000
21
-71.500000
31
0.0
0
LINE
8
0
6
CONTINUOUS
10
-131.969000
20
-73.500000
30
0.0
11
-132.616000
21
-73.500000
31
0.0
0
LINE
8
0
6
CONTINUOUS
10
-127.116000
20
-73.500000
30
0.0
11
-127.116000
21
-71.500000
31
0.0
0
LINE
8
0
6
CONTINUOUS
10
-130.178000
20
-73.500000
30
0.0
11
-127.762000
21
-73.500000
31
0.0
0
LINE
8
0
6
CONTINUOUS
10
-127.762000
20
-73.500000
30
0.0
11
-127.116000
21
-73.500000
31
0.0
0
LINE
8
0
6
CONTINUOUS
10
-130.178000
20
-71.500000
30
0.0
11
-130.178000
21
-73.500000
31
0.0
0
LINE
8
0
6
CONTINUOUS
10
-127.762000
20
-71.500000
30
0.0
11
-127.762000
21
-73.500000
31
0.0
0
LINE
8
0
6
CONTINUOUS
10
-130.178000
20
-73.500000
30
0.0
11
-130.178000
21
-71.500000
31
0.0
0
LINE
8
0
6
CONTINUOUS
10
-127.762000
20
-73.500000
30
0.0
11
-130.178000
21
-73.500000
31
0.0
0
LINE
8
0
6
CONTINUOUS
10
-127.116000
20
-71.500000
30
0.0
11
-127.116000
21
-73.500000
31
0.0
0
LINE
8
0
6
CONTINUOUS
10
-127.762000
20
-73.500000
30
0.0
11
-127.762000
21
-71.500000
31
0.0
0
LINE
8
0
6
CONTINUOUS
10
-127.116000
20
-73.500000
30
0.0
11
-127.762000
21
-73.500000
31
0.0
0
LINE
8
0
6
CONTINUOUS
10
-136.083000
20
-71.500000
30
0.0
11
-136.083000
21
-73.500000
31
0.0
0
LINE
8
0
6
CONTINUOUS
10
-136.083000
20
-73.500000
30
0.0
11
-136.083000
21
-71.500000
31
0.0
0
LINE
8
0
6
CONTINUOUS
10
-136.821000
20
-73.500000
30
0.0
11
-136.821000
21
-71.500000
31
0.0
0
LINE
8
0
6
CONTINUOUS
10
-139.884000
20
-73.500000
30
0.0
11
-137.469000
21
-73.500000
31
0.0
0
LINE
8
0
6
CONTINUOUS
10
-137.469000
20
-73.500000
30
0.0
11
-136.821000
21
-73.500000
31
0.0
0
LINE
8
0
6
CONTINUOUS
10
-139.884000
20
-71.500000
30
0.0
11
-139.884000
21
-73.500000
31
0.0
0
LINE
8
0
6
CONTINUOUS
10
-137.469000
20
-71.500000
30
0.0
11
-137.469000
21
-73.500000
31
0.0
0
LINE
8
0
6
CONTINUOUS
10
-139.884000
20
-73.500000
30
0.0
11
-139.884000
21
-71.500000
31
0.0
0
LINE
8
0
6
CONTINUOUS
10
-137.469000
20
-73.500000
30
0.0
11
-139.884000
21
-73.500000
31
0.0
0
LINE
8
0
6
CONTINUOUS
10
-136.821000
20
-71.500000
30
0.0
11
-136.821000
21
-73.500000
31
0.0
0
LINE
8
0
6
CONTINUOUS
10
-137.469000
20
-73.500000
30
0.0
11
-137.469000
21
-71.500000
31
0.0
0
LINE
8
0
6
CONTINUOUS
10
-136.821000
20
-73.500000
30
0.0
11
-137.469000
21
-73.500000
31
0.0
0
LINE
8
0
6
CONTINUOUS
10
-146.527000
20
-73.500000
30
0.0
11
-146.527000
21
-71.500000
31
0.0
0
LINE
8
0
6
CONTINUOUS
10
-149.589000
20
-73.500000
30
0.0
11
-147.175000
21
-73.500000
31
0.0
0
LINE
8
0
6
CONTINUOUS
10
-147.175000
20
-73.500000
30
0.0
11
-146.527000
21
-73.500000
31
0.0
0
LINE
8
0
6
CONTINUOUS
10
-149.589000
20
-71.500000
30
0.0
11
-149.589000
21
-73.500000
31
0.0
0
LINE
8
0
6
CONTINUOUS
10
-147.175000
20
-71.500000
30
0.0
11
-147.175000
21
-73.500000
31
0.0
0
LINE
8
0
6
CONTINUOUS
10
-149.589000
20
-73.500000
30
0.0
11
-149.589000
21
-71.500000
31
0.0
0
LINE
8
0
6
CONTINUOUS
10
-147.175000
20
-73.500000
30
0.0
11
-149.589000
21
-73.500000
31
0.0
0
LINE
8
0
6
CONTINUOUS
10
-146.527000
20
-71.500000
30
0.0
11
-146.527000
21
-73.500000
31
0.0
0
LINE
8
0
6
CONTINUOUS
10
-147.175000
20
-73.500000
30
0.0
11
-147.175000
21
-71.500000
31
0.0
0
LINE
8
0
6
CONTINUOUS
10
-146.527000
20
-73.500000
30
0.0
11
-147.175000
21
-73.500000
31
0.0
0
LINE
8
0
6
CONTINUOUS
10
-170.168000
20
-71.500000
30
0.0
11
-172.332000
21
-71.500000
31
0.0
0
LINE
8
0
6
CONTINUOUS
10
-170.168000
20
-73.500000
30
0.0
11
-170.168000
21
-71.500000
31
0.0
0
LINE
8
0
6
CONTINUOUS
10
-173.582500
20
-73.500000
30
0.0
11
-171.418000
21
-73.500000
31
0.0
0
LINE
8
0
6
CONTINUOUS
10
-171.418000
20
-73.500000
30
0.0
11
-170.168000
21
-73.500000
31
0.0
0
LINE
8
0
6
CONTINUOUS
10
-173.582500
20
-71.500000
30
0.0
11
-173.582500
21
-73.500000
31
0.0
0
LINE
8
0
6
CONTINUOUS
10
-172.332000
20
-71.500000
30
0.0
11
-173.582500
21
-71.500000
31
0.0
0
LINE
8
0
6
CONTINUOUS
10
-171.418000
20
-71.500000
30
0.0
11
-171.418000
21
-73.500000
31
0.0
0
LINE
8
0
6
CONTINUOUS
10
-173.582500
20
-71.500000
30
0.0
11
-171.418000
21
-71.500000
31
0.0
0
LINE
8
0
6
CONTINUOUS
10
-173.582500
20
-73.500000
30
0.0
11
-173.582500
21
-71.500000
31
0.0
0
LINE
8
0
6
CONTINUOUS
10
-171.418000
20
-73.500000
30
0.0
11
-173.582500
21
-73.500000
31
0.0
0
LINE
8
0
6
CONTINUOUS
10
-170.168000
20
-71.500000
30
0.0
11
-170.168000
21
-73.500000
31
0.0
0
LINE
8
0
6
CONTINUOUS
10
-171.418000
20
-71.500000
30
0.0
11
-170.168000
21
-71.500000
31
0.0
0
LINE
8
0
6
CONTINUOUS
10
-171.418000
20
-73.500000
30
0.0
11
-171.418000
21
-71.500000
31
0.0
0
LINE
8
0
6
CONTINUOUS
10
-170.168000
20
-73.500000
30
0.0
11
-171.418000
21
-73.500000
31
0.0
0
LINE
8
0
6
CONTINUOUS
10
-160.793000
20
-73.500000
30
0.0
11
-160.793000
21
-71.500000
31
0.0
0
LINE
8
0
6
CONTINUOUS
10
-164.207000
20
-73.500000
30
0.0
11
-162.043000
21
-73.500000
31
0.0
0
LINE
8
0
6
CONTINUOUS
10
-162.043000
20
-73.500000
30
0.0
11
-160.793000
21
-73.500000
31
0.0
0
LINE
8
0
6
CONTINUOUS
10
-164.207000
20
-71.500000
30
0.0
11
-164.207000
21
-73.500000
31
0.0
0
LINE
8
0
6
CONTINUOUS
10
-162.043000
20
-71.500000
30
0.0
11
-162.043000
21
-73.500000
31
0.0
0
LINE
8
0
6
CONTINUOUS
10
-164.207000
20
-73.500000
30
0.0
11
-164.207000
21
-71.500000
31
0.0
0
LINE
8
0
6
CONTINUOUS
10
-162.043000
20
-73.500000
30
0.0
11
-164.207000
21
-73.500000
31
0.0
0
LINE
8
0
6
CONTINUOUS
10
-160.793000
20
-71.500000
30
0.0
11
-160.793000
21
-73.500000
31
0.0
0
LINE
8
0
6
CONTINUOUS
10
-162.043000
20
-73.500000
30
0.0
11
-162.043000
21
-71.500000
31
0.0
0
LINE
8
0
6
CONTINUOUS
10
-160.793000
20
-73.500000
30
0.0
11
-162.043000
21
-73.500000
31
0.0
0
LINE
8
0
6
CONTINUOUS
10
-194.094600
20
-73.500000
30
0.0
11
-192.326800
21
-73.500000
31
0.0
0
LINE
8
0
6
CONTINUOUS
10
-194.094600
20
-71.500000
30
0.0
11
-194.094600
21
-73.500000
31
0.0
0
LINE
8
0
6
CONTINUOUS
10
-194.094600
20
-73.500000
30
0.0
11
-194.094600
21
-71.500000
31
0.0
0
LINE
8
0
6
CONTINUOUS
10
-192.326800
20
-73.500000
30
0.0
11
-194.094600
21
-73.500000
31
0.0
0
LINE
8
0
6
CONTINUOUS
10
-154.832000
20
-71.500000
30
0.0
11
-154.832000
21
-73.500000
31
0.0
0
LINE
8
0
6
CONTINUOUS
10
-154.832000
20
-73.500000
30
0.0
11
-154.832000
21
-71.500000
31
0.0
0
LINE
8
0
6
CONTINUOUS
10
-164.043000
20
-71.500000
30
0.0
11
-165.810000
21
-71.500000
31
0.0
0
LINE
8
0
6
CONTINUOUS
10
-167.578000
20
-73.500000
30
0.0
11
-165.810000
21
-73.500000
31
0.0
0
LINE
8
0
6
CONTINUOUS
10
-165.810000
20
-73.500000
30
0.0
11
-164.043000
21
-73.500000
31
0.0
0
LINE
8
0
6
CONTINUOUS
10
-167.578000
20
-71.500000
30
0.0
11
-167.578000
21
-73.500000
31
0.0
0
LINE
8
0
6
CONTINUOUS
10
-165.810000
20
-71.500000
30
0.0
11
-167.578000
21
-71.500000
31
0.0
0
LINE
8
0
6
CONTINUOUS
10
-165.810000
20
-71.500000
30
0.0
11
-165.810000
21
-73.500000
31
0.0
0
LINE
8
0
6
CONTINUOUS
10
-167.578000
20
-71.500000
30
0.0
11
-165.810000
21
-71.500000
31
0.0
0
LINE
8
0
6
CONTINUOUS
10
-167.578000
20
-73.500000
30
0.0
11
-167.578000
21
-71.500000
31
0.0
0
LINE
8
0
6
CONTINUOUS
10
-165.810000
20
-73.500000
30
0.0
11
-167.578000
21
-73.500000
31
0.0
0
LINE
8
0
6
CONTINUOUS
10
-165.810000
20
-71.500000
30
0.0
11
-164.043000
21
-71.500000
31
0.0
0
LINE
8
0
6
CONTINUOUS
10
-165.810000
20
-73.500000
30
0.0
11
-165.810000
21
-71.500000
31
0.0
0
LINE
8
0
6
CONTINUOUS
10
-164.043000
20
-73.500000
30
0.0
11
-165.810000
21
-73.500000
31
0.0
0
LINE
8
0
6
CONTINUOUS
10
-150.784000
20
-73.500000
30
0.0
11
-150.784000
21
-71.500000
31
0.0
0
LINE
8
0
6
CONTINUOUS
10
-150.784000
20
-71.500000
30
0.0
11
-150.784000
21
-73.500000
31
0.0
0
LINE
8
0
6
CONTINUOUS
10
-177.300800
20
-71.500000
30
0.0
11
-179.068500
21
-71.500000
31
0.0
0
LINE
8
0
6
CONTINUOUS
10
-177.300800
20
-73.500000
30
0.0
11
-177.300800
21
-71.500000
31
0.0
0
LINE
8
0
6
CONTINUOUS
10
-179.068500
20
-73.500000
30
0.0
11
-177.300800
21
-73.500000
31
0.0
0
LINE
8
0
6
CONTINUOUS
10
-179.068500
20
-71.500000
30
0.0
11
-179.068500
21
-73.500000
31
0.0
0
LINE
8
0
6
CONTINUOUS
10
-177.300800
20
-71.500000
30
0.0
11
-177.300800
21
-73.500000
31
0.0
0
LINE
8
0
6
CONTINUOUS
10
-179.068500
20
-71.500000
30
0.0
11
-177.300800
21
-71.500000
31
0.0
0
LINE
8
0
6
CONTINUOUS
10
-179.068500
20
-73.500000
30
0.0
11
-179.068500
21
-71.500000
31
0.0
0
LINE
8
0
6
CONTINUOUS
10
-177.300800
20
-73.500000
30
0.0
11
-179.068500
21
-73.500000
31
0.0
0
LINE
8
0
6
CONTINUOUS
10
-145.457000
20
-71.500000
30
0.0
11
-145.457000
21
-73.500000
31
0.0
0
LINE
8
0
6
CONTINUOUS
10
-145.457000
20
-73.500000
30
0.0
11
-145.457000
21
-71.500000
31
0.0
0
LINE
8
0
6
CONTINUOUS
10
-179.542500
20
-73.500000
30
0.0
11
-179.542500
21
-71.500000
31
0.0
0
LINE
8
0
6
CONTINUOUS
10
-182.957500
20
-73.500000
30
0.0
11
-180.792500
21
-73.500000
31
0.0
0
LINE
8
0
6
CONTINUOUS
10
-180.792500
20
-73.500000
30
0.0
11
-179.542500
21
-73.500000
31
0.0
0
LINE
8
0
6
CONTINUOUS
10
-182.957500
20
-71.500000
30
0.0
11
-182.957500
21
-73.500000
31
0.0
0
LINE
8
0
6
CONTINUOUS
10
-180.792500
20
-71.500000
30
0.0
11
-180.792500
21
-73.500000
31
0.0
0
LINE
8
0
6
CONTINUOUS
10
-182.957500
20
-73.500000
30
0.0
11
-182.957500
21
-71.500000
31
0.0
0
LINE
8
0
6
CONTINUOUS
10
-180.792500
20
-73.500000
30
0.0
11
-182.957500
21
-73.500000
31
0.0
0
LINE
8
0
6
CONTINUOUS
10
-179.542500
20
-71.500000
30
0.0
11
-179.542500
21
-73.500000
31
0.0
0
LINE
8
0
6
CONTINUOUS
10
-180.792500
20
-73.500000
30
0.0
11
-180.792500
21
-71.500000
31
0.0
0
LINE
8
0
6
CONTINUOUS
10
-179.542500
20
-73.500000
30
0.0
11
-180.792500
21
-73.500000
31
0.0
0
LINE
8
0
6
CONTINUOUS
10
-203.817300
20
-73.500000
30
0.0
11
-203.817300
21
-71.500000
31
0.0
0
LINE
8
0
6
CONTINUOUS
10
-207.352900
20
-73.500000
30
0.0
11
-205.585000
21
-73.500000
31
0.0
0
LINE
8
0
6
CONTINUOUS
10
-205.585000
20
-73.500000
30
0.0
11
-203.817300
21
-73.500000
31
0.0
0
LINE
8
0
6
CONTINUOUS
10
-207.352900
20
-71.500000
30
0.0
11
-207.352900
21
-73.500000
31
0.0
0
LINE
8
0
6
CONTINUOUS
10
-205.585000
20
-71.500000
30
0.0
11
-205.585000
21
-73.500000
31
0.0
0
LINE
8
0
6
CONTINUOUS
10
-207.352900
20
-73.500000
30
0.0
11
-207.352900
21
-71.500000
31
0.0
0
LINE
8
0
6
CONTINUOUS
10
-205.585000
20
-73.500000
30
0.0
11
-207.352900
21
-73.500000
31
0.0
0
LINE
8
0
6
CONTINUOUS
10
-203.817300
20
-71.500000
30
0.0
11
-203.817300
21
-73.500000
31
0.0
0
LINE
8
0
6
CONTINUOUS
10
-205.585000
20
-73.500000
30
0.0
11
-205.585000
21
-71.500000
31
0.0
0
LINE
8
0
6
CONTINUOUS
10
-203.817300
20
-73.500000
30
0.0
11
-205.585000
21
-73.500000
31
0.0
0
LINE
8
0
6
CONTINUOUS
10
-217.075500
20
-73.500000
30
0.0
11
-217.075500
21
-71.500000
31
0.0
0
LINE
8
0
6
CONTINUOUS
10
-220.611100
20
-73.500000
30
0.0
11
-218.843300
21
-73.500000
31
0.0
0
LINE
8
0
6
CONTINUOUS
10
-218.843300
20
-73.500000
30
0.0
11
-217.075500
21
-73.500000
31
0.0
0
LINE
8
0
6
CONTINUOUS
10
-220.611100
20
-71.500000
30
0.0
11
-220.611100
21
-73.500000
31
0.0
0
LINE
8
0
6
CONTINUOUS
10
-218.843300
20
-71.500000
30
0.0
11
-218.843300
21
-73.500000
31
0.0
0
LINE
8
0
6
CONTINUOUS
10
-220.611100
20
-73.500000
30
0.0
11
-220.611100
21
-71.500000
31
0.0
0
LINE
8
0
6
CONTINUOUS
10
-218.843300
20
-73.500000
30
0.0
11
-220.611100
21
-73.500000
31
0.0
0
LINE
8
0
6
CONTINUOUS
10
-217.075500
20
-71.500000
30
0.0
11
-217.075500
21
-73.500000
31
0.0
0
LINE
8
0
6
CONTINUOUS
10
-218.843300
20
-73.500000
30
0.0
11
-218.843300
21
-71.500000
31
0.0
0
LINE
8
0
6
CONTINUOUS
10
-217.075500
20
-73.500000
30
0.0
11
-218.843300
21
-73.500000
31
0.0
0
LINE
8
0
6
CONTINUOUS
10
-141.061000
20
-73.500000
30
0.0
11
-139.294000
21
-73.500000
31
0.0
0
LINE
8
0
6
CONTINUOUS
10
-141.061000
20
-71.500000
30
0.0
11
-141.061000
21
-73.500000
31
0.0
0
LINE
8
0
6
CONTINUOUS
10
-141.061000
20
-73.500000
30
0.0
11
-141.061000
21
-71.500000
31
0.0
0
LINE
8
0
6
CONTINUOUS
10
-139.294000
20
-73.500000
30
0.0
11
-141.061000
21
-73.500000
31
0.0
0
LINE
8
0
6
CONTINUOUS
10
-92.447000
20
-71.500000
30
0.0
11
-94.216000
21
-71.500000
31
0.0
0
LINE
8
0
6
CONTINUOUS
10
-94.216000
20
-71.500000
30
0.0
11
-92.447000
21
-71.500000
31
0.0
0
LINE
8
0
6
CONTINUOUS
10
-92.447000
20
-71.500000
30
0.0
11
-90.680000
21
-71.500000
31
0.0
0
LINE
8
0
6
CONTINUOUS
10
-90.680000
20
-71.500000
30
0.0
11
-92.447000
21
-71.500000
31
0.0
0
LINE
8
0
6
CONTINUOUS
10
-100.792000
20
-71.500000
30
0.0
11
-102.958000
21
-71.500000
31
0.0
0
LINE
8
0
6
CONTINUOUS
10
-102.958000
20
-71.500000
30
0.0
11
-101.708000
21
-71.500000
31
0.0
0
LINE
8
0
6
CONTINUOUS
10
-101.708000
20
-71.500000
30
0.0
11
-99.542000
21
-71.500000
31
0.0
0
LINE
8
0
6
CONTINUOUS
10
-99.542000
20
-71.500000
30
0.0
11
-100.792000
21
-71.500000
31
0.0
0
LINE
8
0
6
CONTINUOUS
10
-91.417000
20
-71.500000
30
0.0
11
-93.583000
21
-71.500000
31
0.0
0
LINE
8
0
6
CONTINUOUS
10
-93.583000
20
-71.500000
30
0.0
11
-92.333000
21
-71.500000
31
0.0
0
LINE
8
0
6
CONTINUOUS
10
-92.333000
20
-71.500000
30
0.0
11
-90.167000
21
-71.500000
31
0.0
0
LINE
8
0
6
CONTINUOUS
10
-90.167000
20
-71.500000
30
0.0
11
-91.417000
21
-71.500000
31
0.0
0
LINE
8
0
6
CONTINUOUS
10
-100.910000
20
-71.500000
30
0.0
11
-103.325000
21
-71.500000
31
0.0
0
LINE
8
0
6
CONTINUOUS
10
-102.679000
20
-71.500000
30
0.0
11
-100.264000
21
-71.500000
31
0.0
0
LINE
8
0
6
CONTINUOUS
10
-100.264000
20
-71.500000
30
0.0
11
-100.910000
21
-71.500000
31
0.0
0
LINE
8
0
6
CONTINUOUS
10
-96.057000
20
-71.500000
30
0.0
11
-98.473000
21
-71.500000
31
0.0
0
LINE
8
0
6
CONTINUOUS
10
-98.473000
20
-71.500000
30
0.0
11
-97.825000
21
-71.500000
31
0.0
0
LINE
8
0
6
CONTINUOUS
10
-97.825000
20
-71.500000
30
0.0
11
-95.411000
21
-71.500000
31
0.0
0
LINE
8
0
6
CONTINUOUS
10
-95.411000
20
-71.500000
30
0.0
11
-96.057000
21
-71.500000
31
0.0
0
LINE
8
0
6
CONTINUOUS
10
-91.205000
20
-71.500000
30
0.0
11
-93.620000
21
-71.500000
31
0.0
0
LINE
8
0
6
CONTINUOUS
10
-93.620000
20
-71.500000
30
0.0
11
-92.973000
21
-71.500000
31
0.0
0
LINE
8
0
6
CONTINUOUS
10
-92.973000
20
-71.500000
30
0.0
11
-90.557000
21
-71.500000
31
0.0
0
LINE
8
0
6
CONTINUOUS
10
-90.557000
20
-71.500000
30
0.0
11
-91.205000
21
-71.500000
31
0.0
0
LINE
8
0
6
CONTINUOUS
10
12.500000
20
-73.500000
30
0.0
11
12.500000
21
-71.500000
31
0.0
0
LINE
8
0
6
CONTINUOUS
10
15.000000
20
-73.500000
30
0.0
11
12.500000
21
-73.500000
31
0.0
0
LINE
8
0
6
CONTINUOUS
10
15.000000
20
-71.500000
30
0.0
11
15.000000
21
-73.500000
31
0.0
0
LINE
8
0
6
CONTINUOUS
10
12.500000
20
-71.500000
30
0.0
11
12.500000
21
-73.500000
31
0.0
0
LINE
8
0
6
CONTINUOUS
10
15.000000
20
-73.500000
30
0.0
11
15.000000
21
-71.500000
31
0.0
0
LINE
8
0
6
CONTINUOUS
10
12.500000
20
-73.500000
30
0.0
11
15.000000
21
-73.500000
31
0.0
0
LINE
8
0
6
CONTINUOUS
10
-6.250000
20
-73.500000
30
0.0
11
-6.250000
21
-71.500000
31
0.0
0
LINE
8
0
6
CONTINUOUS
10
-6.250000
20
-71.500000
30
0.0
11
-6.250000
21
-73.500000
31
0.0
0
LINE
8
0
6
CONTINUOUS
10
-22.500000
20
-73.500000
30
0.0
11
-25.000000
21
-73.500000
31
0.0
0
LINE
8
0
6
CONTINUOUS
10
-22.500000
20
-71.500000
30
0.0
11
-22.500000
21
-73.500000
31
0.0
0
LINE
8
0
6
CONTINUOUS
10
-22.500000
20
-73.500000
30
0.0
11
-22.500000
21
-71.500000
31
0.0
0
LINE
8
0
6
CONTINUOUS
10
-25.000000
20
-73.500000
30
0.0
11
-22.500000
21
-73.500000
31
0.0
0
LINE
8
0
6
CONTINUOUS
10
-41.250000
20
-73.500000
30
0.0
11
-43.750000
21
-73.500000
31
0.0
0
LINE
8
0
6
CONTINUOUS
10
-43.750000
20
-71.500000
30
0.0
11
-41.250000
21
-71.500000
31
0.0
0
LINE
8
0
6
CONTINUOUS
10
-41.250000
20
-71.500000
30
0.0
11
-41.250000
21
-73.500000
31
0.0
0
LINE
8
0
6
CONTINUOUS
10
-41.250000
20
-71.500000
30
0.0
11
-43.750000
21
-71.500000
31
0.0
0
LINE
8
0
6
CONTINUOUS
10
-41.250000
20
-73.500000
30
0.0
11
-41.250000
21
-71.500000
31
0.0
0
LINE
8
0
6
CONTINUOUS
10
-43.750000
20
-73.500000
30
0.0
11
-41.250000
21
-73.500000
31
0.0
0
LINE
8
0
6
CONTINUOUS
10
-46.110000
20
-71.500000
30
0.0
11
-46.756000
21
-71.500000
31
0.0
0
LINE
8
0
6
CONTINUOUS
10
-46.756000
20
-71.500000
30
0.0
11
-44.342000
21
-71.500000
31
0.0
0
LINE
8
0
6
CONTINUOUS
10
-44.342000
20
-71.500000
30
0.0
11
-43.695000
21
-71.500000
31
0.0
0
LINE
8
0
6
CONTINUOUS
10
-43.695000
20
-71.500000
30
0.0
11
-46.110000
21
-71.500000
31
0.0
0
LINE
8
0
6
CONTINUOUS
10
-60.000000
20
-73.500000
30
0.0
11
-62.500000
21
-73.500000
31
0.0
0
LINE
8
0
6
CONTINUOUS
10
-60.000000
20
-71.500000
30
0.0
11
-60.000000
21
-73.500000
31
0.0
0
LINE
8
0
6
CONTINUOUS
10
-60.000000
20
-73.500000
30
0.0
11
-60.000000
21
-71.500000
31
0.0
0
LINE
8
0
6
CONTINUOUS
10
-62.500000
20
-73.500000
30
0.0
11
-60.000000
21
-73.500000
31
0.0
0
LINE
8
0
6
CONTINUOUS
10
-37.437000
20
-71.500000
30
0.0
11
-38.687000
21
-71.500000
31
0.0
0
LINE
8
0
6
CONTINUOUS
10
-38.687000
20
-71.500000
30
0.0
11
-36.523000
21
-71.500000
31
0.0
0
LINE
8
0
6
CONTINUOUS
10
-35.273000
20
-71.500000
30
0.0
11
-37.437000
21
-71.500000
31
0.0
0
LINE
8
0
6
CONTINUOUS
10
-161.014000
20
-73.500000
30
0.0
11
-159.764000
21
-73.500000
31
0.0
0
LINE
8
0
6
CONTINUOUS
10
-159.764000
20
-71.500000
30
0.0
11
-159.764000
21
-73.500000
31
0.0
0
LINE
8
0
6
CONTINUOUS
10
-159.764000
20
-73.500000
30
0.0
11
-161.014000
21
-73.500000
31
0.0
0
LINE
8
0
6
CONTINUOUS
10
-159.764000
20
-73.500000
30
0.0
11
-159.764000
21
-71.500000
31
0.0
0
LINE
8
0
6
CONTINUOUS
10
-198.243100
20
-73.500000
30
0.0
11
-198.243100
21
-71.500000
31
0.0
0
LINE
8
0
6
CONTINUOUS
10
-201.305000
20
-73.500000
30
0.0
11
-200.658000
21
-73.500000
31
0.0
0
LINE
8
0
6
CONTINUOUS
10
-200.658000
20
-73.500000
30
0.0
11
-198.243100
21
-73.500000
31
0.0
0
LINE
8
0
6
CONTINUOUS
10
-201.305000
20
-71.500000
30
0.0
11
-201.305000
21
-73.500000
31
0.0
0
LINE
8
0
6
CONTINUOUS
10
-200.658000
20
-71.500000
30
0.0
11
-200.658000
21
-73.500000
31
0.0
0
LINE
8
0
6
CONTINUOUS
10
-201.305000
20
-73.500000
30
0.0
11
-201.305000
21
-71.500000
31
0.0
0
LINE
8
0
6
CONTINUOUS
10
-200.658000
20
-73.500000
30
0.0
11
-201.305000
21
-73.500000
31
0.0
0
LINE
8
0
6
CONTINUOUS
10
-198.243100
20
-71.500000
30
0.0
11
-198.243100
21
-73.500000
31
0.0
0
LINE
8
0
6
CONTINUOUS
10
-200.658000
20
-73.500000
30
0.0
11
-200.658000
21
-71.500000
31
0.0
0
LINE
8
0
6
CONTINUOUS
10
-198.243100
20
-73.500000
30
0.0
11
-200.658000
21
-73.500000
31
0.0
0
LINE
8
0
6
CONTINUOUS
10
-173.836500
20
-71.500000
30
0.0
11
-175.086500
21
-71.500000
31
0.0
0
LINE
8
0
6
CONTINUOUS
10
-173.836500
20
-73.500000
30
0.0
11
-173.836500
21
-71.500000
31
0.0
0
LINE
8
0
6
CONTINUOUS
10
-177.251600
20
-73.500000
30
0.0
11
-176.001600
21
-73.500000
31
0.0
0
LINE
8
0
6
CONTINUOUS
10
-176.001600
20
-73.500000
30
0.0
11
-173.836500
21
-73.500000
31
0.0
0
LINE
8
0
6
CONTINUOUS
10
-177.251600
20
-71.500000
30
0.0
11
-177.251600
21
-73.500000
31
0.0
0
LINE
8
0
6
CONTINUOUS
10
-175.086500
20
-71.500000
30
0.0
11
-177.251600
21
-71.500000
31
0.0
0
LINE
8
0
6
CONTINUOUS
10
-176.001600
20
-71.500000
30
0.0
11
-176.001600
21
-73.500000
31
0.0
0
LINE
8
0
6
CONTINUOUS
10
-177.251600
20
-71.500000
30
0.0
11
-176.001600
21
-71.500000
31
0.0
0
LINE
8
0
6
CONTINUOUS
10
-177.251600
20
-73.500000
30
0.0
11
-177.251600
21
-71.500000
31
0.0
0
LINE
8
0
6
CONTINUOUS
10
-176.001600
20
-73.500000
30
0.0
11
-177.251600
21
-73.500000
31
0.0
0
LINE
8
0
6
CONTINUOUS
10
-173.836500
20
-71.500000
30
0.0
11
-173.836500
21
-73.500000
31
0.0
0
LINE
8
0
6
CONTINUOUS
10
-176.001600
20
-71.500000
30
0.0
11
-173.836500
21
-71.500000
31
0.0
0
LINE
8
0
6
CONTINUOUS
10
-176.001600
20
-73.500000
30
0.0
11
-176.001600
21
-71.500000
31
0.0
0
LINE
8
0
6
CONTINUOUS
10
-173.836500
20
-73.500000
30
0.0
11
-176.001600
21
-73.500000
31
0.0
0
LINE
8
0
6
CONTINUOUS
10
-238.788400
20
-73.500000
30
0.0
11
-238.788400
21
-71.500000
31
0.0
0
LINE
8
0
6
CONTINUOUS
10
-242.203500
20
-73.500000
30
0.0
11
-240.953500
21
-73.500000
31
0.0
0
LINE
8
0
6
CONTINUOUS
10
-240.953500
20
-73.500000
30
0.0
11
-238.788400
21
-73.500000
31
0.0
0
LINE
8
0
6
CONTINUOUS
10
-242.203500
20
-71.500000
30
0.0
11
-242.203500
21
-73.500000
31
0.0
0
LINE
8
0
6
CONTINUOUS
10
-240.953500
20
-71.500000
30
0.0
11
-240.953500
21
-73.500000
31
0.0
0
LINE
8
0
6
CONTINUOUS
10
-242.203500
20
-73.500000
30
0.0
11
-242.203500
21
-71.500000
31
0.0
0
LINE
8
0
6
CONTINUOUS
10
-240.953500
20
-73.500000
30
0.0
11
-242.203500
21
-73.500000
31
0.0
0
LINE
8
0
6
CONTINUOUS
10
-238.788400
20
-71.500000
30
0.0
11
-238.788400
21
-73.500000
31
0.0
0
LINE
8
0
6
CONTINUOUS
10
-240.953500
20
-73.500000
30
0.0
11
-240.953500
21
-71.500000
31
0.0
0
LINE
8
0
6
CONTINUOUS
10
-238.788400
20
-73.500000
30
0.0
11
-240.953500
21
-73.500000
31
0.0
0
LINE
8
0
6
CONTINUOUS
10
-209.727500
20
-73.500000
30
0.0
11
-208.477500
21
-73.500000
31
0.0
0
LINE
8
0
6
CONTINUOUS
10
-208.477500
20
-73.500000
30
0.0
11
-206.312500
21
-73.500000
31
0.0
0
LINE
8
0
6
CONTINUOUS
10
-209.727500
20
-71.500000
30
0.0
11
-209.727500
21
-73.500000
31
0.0
0
LINE
8
0
6
CONTINUOUS
10
-208.477500
20
-71.500000
30
0.0
11
-208.477500
21
-73.500000
31
0.0
0
LINE
8
0
6
CONTINUOUS
10
-209.727500
20
-73.500000
30
0.0
11
-209.727500
21
-71.500000
31
0.0
0
LINE
8
0
6
CONTINUOUS
10
-208.477500
20
-73.500000
30
0.0
11
-209.727500
21
-73.500000
31
0.0
0
LINE
8
0
6
CONTINUOUS
10
-208.477500
20
-73.500000
30
0.0
11
-208.477500
21
-71.500000
31
0.0
0
LINE
8
0
6
CONTINUOUS
10
-206.312500
20
-73.500000
30
0.0
11
-208.477500
21
-73.500000
31
0.0
0
LINE
8
0
6
CONTINUOUS
10
-216.354300
20
-73.500000
30
0.0
11
-216.354300
21
-71.500000
31
0.0
0
LINE
8
0
6
CONTINUOUS
10
-216.354300
20
-71.500000
30
0.0
11
-216.354300
21
-73.500000
31
0.0
0
LINE
8
0
6
CONTINUOUS
10
-234.465400
20
-73.500000
30
0.0
11
-234.465400
21
-71.500000
31
0.0
0
LINE
8
0
6
CONTINUOUS
10
-237.527200
20
-73.500000
30
0.0
11
-236.880100
21
-73.500000
31
0.0
0
LINE
8
0
6
CONTINUOUS
10
-236.880100
20
-73.500000
30
0.0
11
-234.465400
21
-73.500000
31
0.0
0
LINE
8
0
6
CONTINUOUS
10
-237.527200
20
-71.500000
30
0.0
11
-237.527200
21
-73.500000
31
0.0
0
LINE
8
0
6
CONTINUOUS
10
-236.880100
20
-71.500000
30
0.0
11
-236.880100
21
-73.500000
31
0.0
0
LINE
8
0
6
CONTINUOUS
10
-237.527200
20
-73.500000
30
0.0
11
-237.527200
21
-71.500000
31
0.0
0
LINE
8
0
6
CONTINUOUS
10
-236.880100
20
-73.500000
30
0.0
11
-237.527200
21
-73.500000
31
0.0
0
LINE
8
0
6
CONTINUOUS
10
-234.465400
20
-71.500000
30
0.0
11
-234.465400
21
-73.500000
31
0.0
0
LINE
8
0
6
CONTINUOUS
10
-236.880100
20
-73.500000
30
0.0
11
-236.880100
21
-71.500000
31
0.0
0
LINE
8
0
6
CONTINUOUS
10
-234.465400
20
-73.500000
30
0.0
11
-236.880100
21
-73.500000
31
0.0
0
LINE
8
0
6
CONTINUOUS
10
-252.576500
20
-73.500000
30
0.0
11
-252.576500
21
-71.500000
31
0.0
0
LINE
8
0
6
CONTINUOUS
10
-255.638400
20
-73.500000
30
0.0
11
-254.991200
21
-73.500000
31
0.0
0
LINE
8
0
6
CONTINUOUS
10
-254.991200
20
-73.500000
30
0.0
11
-252.576500
21
-73.500000
31
0.0
0
LINE
8
0
6
CONTINUOUS
10
-255.638400
20
-71.500000
30
0.0
11
-255.638400
21
-73.500000
31
0.0
0
LINE
8
0
6
CONTINUOUS
10
-254.991200
20
-71.500000
30
0.0
11
-254.991200
21
-73.500000
31
0.0
0
LINE
8
0
6
CONTINUOUS
10
-255.638400
20
-73.500000
30
0.0
11
-255.638400
21
-71.500000
31
0.0
0
LINE
8
0
6
CONTINUOUS
10
-254.991200
20
-73.500000
30
0.0
11
-255.638400
21
-73.500000
31
0.0
0
LINE
8
0
6
CONTINUOUS
10
-252.576500
20
-71.500000
30
0.0
11
-252.576500
21
-73.500000
31
0.0
0
LINE
8
0
6
CONTINUOUS
10
-254.991200
20
-73.500000
30
0.0
11
-254.991200
21
-71.500000
31
0.0
0
LINE
8
0
6
CONTINUOUS
10
-252.576500
20
-73.500000
30
0.0
11
-254.991200
21
-73.500000
31
0.0
0
LINE
8
0
6
CONTINUOUS
10
-222.550500
20
-73.500000
30
0.0
11
-222.550500
21
-71.500000
31
0.0
0
LINE
8
0
6
CONTINUOUS
10
-225.965500
20
-73.500000
30
0.0
11
-224.715500
21
-73.500000
31
0.0
0
LINE
8
0
6
CONTINUOUS
10
-224.715500
20
-73.500000
30
0.0
11
-222.550500
21
-73.500000
31
0.0
0
LINE
8
0
6
CONTINUOUS
10
-225.965500
20
-71.500000
30
0.0
11
-225.965500
21
-73.500000
31
0.0
0
LINE
8
0
6
CONTINUOUS
10
-224.715500
20
-71.500000
30
0.0
11
-224.715500
21
-73.500000
31
0.0
0
LINE
8
0
6
CONTINUOUS
10
-225.965500
20
-73.500000
30
0.0
11
-225.965500
21
-71.500000
31
0.0
0
LINE
8
0
6
CONTINUOUS
10
-224.715500
20
-73.500000
30
0.0
11
-225.965500
21
-73.500000
31
0.0
0
LINE
8
0
6
CONTINUOUS
10
-222.550500
20
-71.500000
30
0.0
11
-222.550500
21
-73.500000
31
0.0
0
LINE
8
0
6
CONTINUOUS
10
-224.715500
20
-73.500000
30
0.0
11
-224.715500
21
-71.500000
31
0.0
0
LINE
8
0
6
CONTINUOUS
10
-222.550500
20
-73.500000
30
0.0
11
-224.715500
21
-73.500000
31
0.0
0
LINE
8
0
6
CONTINUOUS
10
-100.000000
20
-71.500000
30
0.0
11
-97.500000
21
-71.500000
31
0.0
0
LINE
8
0
6
CONTINUOUS
10
-97.500000
20
-71.500000
30
0.0
11
-100.000000
21
-71.500000
31
0.0
0
LINE
8
0
6
CONTINUOUS
10
-100.444000
20
-71.500000
30
0.0
11
-101.090000
21
-71.500000
31
0.0
0
LINE
8
0
6
CONTINUOUS
10
-101.090000
20
-71.500000
30
0.0
11
-98.675000
21
-71.500000
31
0.0
0
LINE
8
0
6
CONTINUOUS
10
-98.675000
20
-71.500000
30
0.0
11
-98.029000
21
-71.500000
31
0.0
0
LINE
8
0
6
CONTINUOUS
10
-98.029000
20
-71.500000
30
0.0
11
-100.444000
21
-71.500000
31
0.0
0
LINE
8
0
6
CONTINUOUS
10
-103.640000
20
-71.500000
30
0.0
11
-101.474000
21
-71.500000
31
0.0
0
LINE
8
0
6
CONTINUOUS
10
-101.474000
20
-71.500000
30
0.0
11
-100.224000
21
-71.500000
31
0.0
0
LINE
8
0
6
CONTINUOUS
10
-100.224000
20
-71.500000
30
0.0
11
-102.390000
21
-71.500000
31
0.0
0
LINE
8
0
6
CONTINUOUS
10
-141.360000
20
-73.500000
30
0.0
11
-141.360000
21
-71.500000
31
0.0
0
LINE
8
0
6
CONTINUOUS
10
-141.360000
20
-71.500000
30
0.0
11
-141.360000
21
-73.500000
31
0.0
0
LINE
8
0
6
CONTINUOUS
10
-163.750000
20
-71.500000
30
0.0
11
-166.250000
21
-71.500000
31
0.0
0
LINE
8
0
6
CONTINUOUS
10
-166.250000
20
-71.500000
30
0.0
11
-163.750000
21
-71.500000
31
0.0
0
LINE
8
0
6
CONTINUOUS
10
-162.668000
20
-71.500000
30
0.0
11
-165.083000
21
-71.500000
31
0.0
0
LINE
8
0
6
CONTINUOUS
10
-165.083000
20
-71.500000
30
0.0
11
-164.436000
21
-71.500000
31
0.0
0
LINE
8
0
6
CONTINUOUS
10
-185.000000
20
-73.500000
30
0.0
11
-182.500000
21
-73.500000
31
0.0
0
LINE
8
0
6
CONTINUOUS
10
-185.000000
20
-71.500000
30
0.0
11
-185.000000
21
-73.500000
31
0.0
0
LINE
8
0
6
CONTINUOUS
10
-185.000000
20
-73.500000
30
0.0
11
-185.000000
21
-71.500000
31
0.0
0
LINE
8
0
6
CONTINUOUS
10
-182.500000
20
-73.500000
30
0.0
11
-185.000000
21
-73.500000
31
0.0
0
LINE
8
0
6
CONTINUOUS
10
-183.193900
20
-71.500000
30
0.0
11
-183.193900
21
-73.500000
31
0.0
0
LINE
8
0
6
CONTINUOUS
10
-183.193900
20
-73.500000
30
0.0
11
-183.193900
21
-71.500000
31
0.0
0
LINE
8
0
6
CONTINUOUS
10
-146.325000
20
-71.500000
30
0.0
11
-146.325000
21
-73.500000
31
0.0
0
LINE
8
0
6
CONTINUOUS
10
-146.325000
20
-73.500000
30
0.0
11
-146.325000
21
-71.500000
31
0.0
0
LINE
8
0
6
CONTINUOUS
10
-222.500000
20
-73.500000
30
0.0
11
-220.000000
21
-73.500000
31
0.0
0
LINE
8
0
6
CONTINUOUS
10
-222.500000
20
-71.500000
30
0.0
11
-222.500000
21
-73.500000
31
0.0
0
LINE
8
0
6
CONTINUOUS
10
-222.500000
20
-73.500000
30
0.0
11
-222.500000
21
-71.500000
31
0.0
0
LINE
8
0
6
CONTINUOUS
10
-220.000000
20
-73.500000
30
0.0
11
-222.500000
21
-73.500000
31
0.0
0
LINE
8
0
6
CONTINUOUS
10
-238.750000
20
-73.500000
30
0.0
11
-238.750000
21
-71.500000
31
0.0
0
LINE
8
0
6
CONTINUOUS
10
-238.750000
20
-71.500000
30
0.0
11
-238.750000
21
-73.500000
31
0.0
0
LINE
8
0
6
CONTINUOUS
10
-257.500000
20
-73.500000
30
0.0
11
-257.500000
21
-71.500000
31
0.0
0
LINE
8
0
6
CONTINUOUS
10
-260.000000
20
-73.500000
30
0.0
11
-257.500000
21
-73.500000
31
0.0
0
LINE
8
0
6
CONTINUOUS
10
-260.000000
20
-71.500000
30
0.0
11
-260.000000
21
-73.500000
31
0.0
0
LINE
8
0
6
CONTINUOUS
10
-257.500000
20
-71.500000
30
0.0
11
-257.500000
21
-73.500000
31
0.0
0
LINE
8
0
6
CONTINUOUS
10
-260.000000
20
-73.500000
30
0.0
11
-260.000000
21
-71.500000
31
0.0
0
LINE
8
0
6
CONTINUOUS
10
-257.500000
20
-73.500000
30
0.0
11
-260.000000
21
-73.500000
31
0.0
0
LINE
8
0
6
CONTINUOUS
10
-203.750000
20
-73.500000
30
0.0
11
-201.250000
21
-73.500000
31
0.0
0
LINE
8
0
6
CONTINUOUS
10
-203.750000
20
-71.500000
30
0.0
11
-203.750000
21
-73.500000
31
0.0
0
LINE
8
0
6
CONTINUOUS
10
-203.750000
20
-73.500000
30
0.0
11
-203.750000
21
-71.500000
31
0.0
0
LINE
8
0
6
CONTINUOUS
10
-201.250000
20
-73.500000
30
0.0
11
-203.750000
21
-73.500000
31
0.0
0
LINE
8
0
6
CONTINUOUS
10
-27.925000
20
-73.500000
30
0.0
11
-27.925000
21
-71.500000
31
0.0
0
LINE
8
0
6
CONTINUOUS
10
-24.389000
20
-73.500000
30
0.0
11
-26.156000
21
-73.500000
31
0.0
0
LINE
8
0
6
CONTINUOUS
10
-26.156000
20
-73.500000
30
0.0
11
-27.925000
21
-73.500000
31
0.0
0
LINE
8
0
6
CONTINUOUS
10
-24.389000
20
-71.500000
30
0.0
11
-24.389000
21
-73.500000
31
0.0
0
LINE
8
0
6
CONTINUOUS
10
-26.156000
20
-71.500000
30
0.0
11
-26.156000
21
-73.500000
31
0.0
0
LINE
8
0
6
CONTINUOUS
10
-24.389000
20
-73.500000
30
0.0
11
-24.389000
21
-71.500000
31
0.0
0
LINE
8
0
6
CONTINUOUS
10
-26.156000
20
-73.500000
30
0.0
11
-24.389000
21
-73.500000
31
0.0
0
LINE
8
0
6
CONTINUOUS
10
-27.925000
20
-71.500000
30
0.0
11
-27.925000
21
-73.500000
31
0.0
0
LINE
8
0
6
CONTINUOUS
10
-26.156000
20
-73.500000
30
0.0
11
-26.156000
21
-71.500000
31
0.0
0
LINE
8
0
6
CONTINUOUS
10
-27.925000
20
-73.500000
30
0.0
11
-26.156000
21
-73.500000
31
0.0
0
LINE
8
0
6
CONTINUOUS
10
-6.211000
20
-73.500000
30
0.0
11
-6.211000
21
-71.500000
31
0.0
0
LINE
8
0
6
CONTINUOUS
10
-2.796000
20
-73.500000
30
0.0
11
-4.046000
21
-73.500000
31
0.0
0
LINE
8
0
6
CONTINUOUS
10
-4.046000
20
-73.500000
30
0.0
11
-6.211000
21
-73.500000
31
0.0
0
LINE
8
0
6
CONTINUOUS
10
-2.796000
20
-71.500000
30
0.0
11
-2.796000
21
-73.500000
31
0.0
0
LINE
8
0
6
CONTINUOUS
10
-4.046000
20
-71.500000
30
0.0
11
-4.046000
21
-73.500000
31
0.0
0
LINE
8
0
6
CONTINUOUS
10
-2.796000
20
-73.500000
30
0.0
11
-2.796000
21
-71.500000
31
0.0
0
LINE
8
0
6
CONTINUOUS
10
-4.046000
20
-73.500000
30
0.0
11
-2.796000
21
-73.500000
31
0.0
0
LINE
8
0
6
CONTINUOUS
10
-6.211000
20
-71.500000
30
0.0
11
-6.211000
21
-73.500000
31
0.0
0
LINE
8
0
6
CONTINUOUS
10
-4.046000
20
-73.500000
30
0.0
11
-4.046000
21
-71.500000
31
0.0
0
LINE
8
0
6
CONTINUOUS
10
-6.211000
20
-73.500000
30
0.0
11
-4.046000
21
-73.500000
31
0.0
0
LINE
8
0
6
CONTINUOUS
10
7.576000
20
-73.500000
30
0.0
11
7.576000
21
-71.500000
31
0.0
0
LINE
8
0
6
CONTINUOUS
10
10.639000
20
-73.500000
30
0.0
11
9.991000
21
-73.500000
31
0.0
0
LINE
8
0
6
CONTINUOUS
10
9.991000
20
-73.500000
30
0.0
11
7.576000
21
-73.500000
31
0.0
0
LINE
8
0
6
CONTINUOUS
10
10.639000
20
-71.500000
30
0.0
11
10.639000
21
-73.500000
31
0.0
0
LINE
8
0
6
CONTINUOUS
10
9.991000
20
-71.500000
30
0.0
11
9.991000
21
-73.500000
31
0.0
0
LINE
8
0
6
CONTINUOUS
10
10.639000
20
-73.500000
30
0.0
11
10.639000
21
-71.500000
31
0.0
0
LINE
8
0
6
CONTINUOUS
10
9.991000
20
-73.500000
30
0.0
11
10.639000
21
-73.500000
31
0.0
0
LINE
8
0
6
CONTINUOUS
10
7.576000
20
-71.500000
30
0.0
11
7.576000
21
-73.500000
31
0.0
0
LINE
8
0
6
CONTINUOUS
10
9.991000
20
-73.500000
30
0.0
11
9.991000
21
-71.500000
31
0.0
0
LINE
8
0
6
CONTINUOUS
10
7.576000
20
-73.500000
30
0.0
11
9.991000
21
-73.500000
31
0.0
0
LINE
8
0
6
CONTINUOUS
10
-10.535000
20
-73.500000
30
0.0
11
-10.535000
21
-71.500000
31
0.0
0
LINE
8
0
6
CONTINUOUS
10
-7.473000
20
-73.500000
30
0.0
11
-8.120000
21
-73.500000
31
0.0
0
LINE
8
0
6
CONTINUOUS
10
-8.120000
20
-73.500000
30
0.0
11
-10.535000
21
-73.500000
31
0.0
0
LINE
8
0
6
CONTINUOUS
10
-7.473000
20
-71.500000
30
0.0
11
-7.473000
21
-73.500000
31
0.0
0
LINE
8
0
6
CONTINUOUS
10
-8.120000
20
-71.500000
30
0.0
11
-8.120000
21
-73.500000
31
0.0
0
LINE
8
0
6
CONTINUOUS
10
-7.473000
20
-73.500000
30
0.0
11
-7.473000
21
-71.500000
31
0.0
0
LINE
8
0
6
CONTINUOUS
10
-8.120000
20
-73.500000
30
0.0
11
-7.473000
21
-73.500000
31
0.0
0
LINE
8
0
6
CONTINUOUS
10
-10.535000
20
-71.500000
30
0.0
11
-10.535000
21
-73.500000
31
0.0
0
LINE
8
0
6
CONTINUOUS
10
-8.120000
20
-73.500000
30
0.0
11
-8.120000
21
-71.500000
31
0.0
0
LINE
8
0
6
CONTINUOUS
10
-10.535000
20
-73.500000
30
0.0
11
-8.120000
21
-73.500000
31
0.0
0
LINE
8
0
6
CONTINUOUS
10
-28.646000
20
-73.500000
30
0.0
11
-28.646000
21
-71.500000
31
0.0
0
LINE
8
0
6
CONTINUOUS
10
-28.646000
20
-71.500000
30
0.0
11
-28.646000
21
-73.500000
31
0.0
0
LINE
8
0
6
CONTINUOUS
10
-22.450000
20
-73.500000
30
0.0
11
-22.450000
21
-71.500000
31
0.0
0
LINE
8
0
6
CONTINUOUS
10
-19.035000
20
-73.500000
30
0.0
11
-20.285000
21
-73.500000
31
0.0
0
LINE
8
0
6
CONTINUOUS
10
-20.285000
20
-73.500000
30
0.0
11
-22.450000
21
-73.500000
31
0.0
0
LINE
8
0
6
CONTINUOUS
10
-19.035000
20
-71.500000
30
0.0
11
-19.035000
21
-73.500000
31
0.0
0
LINE
8
0
6
CONTINUOUS
10
-20.285000
20
-71.500000
30
0.0
11
-20.285000
21
-73.500000
31
0.0
0
LINE
8
0
6
CONTINUOUS
10
-19.035000
20
-73.500000
30
0.0
11
-19.035000
21
-71.500000
31
0.0
0
LINE
8
0
6
CONTINUOUS
10
-20.285000
20
-73.500000
30
0.0
11
-19.035000
21
-73.500000
31
0.0
0
LINE
8
0
6
CONTINUOUS
10
-22.450000
20
-71.500000
30
0.0
11
-22.450000
21
-73.500000
31
0.0
0
LINE
8
0
6
CONTINUOUS
10
-20.285000
20
-73.500000
30
0.0
11
-20.285000
21
-71.500000
31
0.0
0
LINE
8
0
6
CONTINUOUS
10
-22.450000
20
-73.500000
30
0.0
11
-20.285000
21
-73.500000
31
0.0
0
LINE
8
0
6
CONTINUOUS
10
-41.182000
20
-71.500000
30
0.0
11
-39.415000
21
-71.500000
31
0.0
0
LINE
8
0
6
CONTINUOUS
10
-41.182000
20
-73.500000
30
0.0
11
-41.182000
21
-71.500000
31
0.0
0
LINE
8
0
6
CONTINUOUS
10
-37.648000
20
-73.500000
30
0.0
11
-39.415000
21
-73.500000
31
0.0
0
LINE
8
0
6
CONTINUOUS
10
-39.415000
20
-73.500000
30
0.0
11
-41.182000
21
-73.500000
31
0.0
0
LINE
8
0
6
CONTINUOUS
10
-37.648000
20
-71.500000
30
0.0
11
-37.648000
21
-73.500000
31
0.0
0
LINE
8
0
6
CONTINUOUS
10
-39.415000
20
-71.500000
30
0.0
11
-37.648000
21
-71.500000
31
0.0
0
LINE
8
0
6
CONTINUOUS
10
-39.415000
20
-71.500000
30
0.0
11
-39.415000
21
-73.500000
31
0.0
0
LINE
8
0
6
CONTINUOUS
10
-37.648000
20
-71.500000
30
0.0
11
-39.415000
21
-71.500000
31
0.0
0
LINE
8
0
6
CONTINUOUS
10
-37.648000
20
-73.500000
30
0.0
11
-37.648000
21
-71.500000
31
0.0
0
LINE
8
0
6
CONTINUOUS
10
-39.415000
20
-73.500000
30
0.0
11
-37.648000
21
-73.500000
31
0.0
0
LINE
8
0
6
CONTINUOUS
10
-41.182000
20
-71.500000
30
0.0
11
-41.182000
21
-73.500000
31
0.0
0
LINE
8
0
6
CONTINUOUS
10
-39.415000
20
-71.500000
30
0.0
11
-41.182000
21
-71.500000
31
0.0
0
LINE
8
0
6
CONTINUOUS
10
-39.415000
20
-73.500000
30
0.0
11
-39.415000
21
-71.500000
31
0.0
0
LINE
8
0
6
CONTINUOUS
10
-41.182000
20
-73.500000
30
0.0
11
-39.415000
21
-73.500000
31
0.0
0
LINE
8
0
6
CONTINUOUS
10
-50.905000
20
-73.500000
30
0.0
11
-52.674000
21
-73.500000
31
0.0
0
LINE
8
0
6
CONTINUOUS
10
-50.905000
20
-71.500000
30
0.0
11
-50.905000
21
-73.500000
31
0.0
0
LINE
8
0
6
CONTINUOUS
10
-50.905000
20
-73.500000
30
0.0
11
-50.905000
21
-71.500000
31
0.0
0
LINE
8
0
6
CONTINUOUS
10
-52.674000
20
-73.500000
30
0.0
11
-50.905000
21
-73.500000
31
0.0
0
LINE
8
0
6
CONTINUOUS
10
-38.687000
20
-71.500000
30
0.0
11
-37.437000
21
-71.500000
31
0.0
0
LINE
8
0
6
CONTINUOUS
10
-35.273000
20
-73.500000
30
0.0
11
-36.523000
21
-73.500000
31
0.0
0
LINE
8
0
6
CONTINUOUS
10
-36.523000
20
-73.500000
30
0.0
11
-38.687000
21
-73.500000
31
0.0
0
LINE
8
0
6
CONTINUOUS
10
-35.273000
20
-71.500000
30
0.0
11
-35.273000
21
-73.500000
31
0.0
0
LINE
8
0
6
CONTINUOUS
10
-37.437000
20
-71.500000
30
0.0
11
-35.273000
21
-71.500000
31
0.0
0
LINE
8
0
6
CONTINUOUS
10
-36.523000
20
-71.500000
30
0.0
11
-36.523000
21
-73.500000
31
0.0
0
LINE
8
0
6
CONTINUOUS
10
-35.273000
20
-73.500000
30
0.0
11
-35.273000
21
-71.500000
31
0.0
0
LINE
8
0
6
CONTINUOUS
10
-36.523000
20
-73.500000
30
0.0
11
-35.273000
21
-73.500000
31
0.0
0
LINE
8
0
6
CONTINUOUS
10
-36.523000
20
-71.500000
30
0.0
11
-38.687000
21
-71.500000
31
0.0
0
LINE
8
0
6
CONTINUOUS
10
-36.523000
20
-73.500000
30
0.0
11
-36.523000
21
-71.500000
31
0.0
0
LINE
8
0
6
CONTINUOUS
10
-38.687000
20
-73.500000
30
0.0
11
-36.523000
21
-73.500000
31
0.0
0
LINE
8
0
6
CONTINUOUS
10
-46.756000
20
-71.500000
30
0.0
11
-46.110000
21
-71.500000
31
0.0
0
LINE
8
0
6
CONTINUOUS
10
-46.756000
20
-73.500000
30
0.0
11
-46.756000
21
-71.500000
31
0.0
0
LINE
8
0
6
CONTINUOUS
10
-43.695000
20
-73.500000
30
0.0
11
-44.342000
21
-73.500000
31
0.0
0
LINE
8
0
6
CONTINUOUS
10
-44.342000
20
-73.500000
30
0.0
11
-46.756000
21
-73.500000
31
0.0
0
LINE
8
0
6
CONTINUOUS
10
-43.695000
20
-71.500000
30
0.0
11
-43.695000
21
-73.500000
31
0.0
0
LINE
8
0
6
CONTINUOUS
10
-46.110000
20
-71.500000
30
0.0
11
-43.695000
21
-71.500000
31
0.0
0
LINE
8
0
6
CONTINUOUS
10
-44.342000
20
-71.500000
30
0.0
11
-44.342000
21
-73.500000
31
0.0
0
LINE
8
0
6
CONTINUOUS
10
-43.695000
20
-71.500000
30
0.0
11
-44.342000
21
-71.500000
31
0.0
0
LINE
8
0
6
CONTINUOUS
10
-43.695000
20
-73.500000
30
0.0
11
-43.695000
21
-71.500000
31
0.0
0
LINE
8
0
6
CONTINUOUS
10
-44.342000
20
-73.500000
30
0.0
11
-43.695000
21
-73.500000
31
0.0
0
LINE
8
0
6
CONTINUOUS
10
-46.756000
20
-71.500000
30
0.0
11
-46.756000
21
-73.500000
31
0.0
0
LINE
8
0
6
CONTINUOUS
10
-44.342000
20
-71.500000
30
0.0
11
-46.756000
21
-71.500000
31
0.0
0
LINE
8
0
6
CONTINUOUS
10
-44.342000
20
-73.500000
30
0.0
11
-44.342000
21
-71.500000
31
0.0
0
LINE
8
0
6
CONTINUOUS
10
-46.756000
20
-73.500000
30
0.0
11
-44.342000
21
-73.500000
31
0.0
0
LINE
8
0
6
CONTINUOUS
10
-67.699000
20
-73.500000
30
0.0
11
-67.699000
21
-71.500000
31
0.0
0
LINE
8
0
6
CONTINUOUS
10
-65.931000
20
-73.500000
30
0.0
11
-67.699000
21
-73.500000
31
0.0
0
LINE
8
0
6
CONTINUOUS
10
-65.931000
20
-71.500000
30
0.0
11
-65.931000
21
-73.500000
31
0.0
0
LINE
8
0
6
CONTINUOUS
10
-67.699000
20
-71.500000
30
0.0
11
-67.699000
21
-73.500000
31
0.0
0
LINE
8
0
6
CONTINUOUS
10
-65.931000
20
-73.500000
30
0.0
11
-65.931000
21
-71.500000
31
0.0
0
LINE
8
0
6
CONTINUOUS
10
-67.699000
20
-73.500000
30
0.0
11
-65.931000
21
-73.500000
31
0.0
0
LINE
8
0
6
CONTINUOUS
10
-77.423000
20
-73.500000
30
0.0
11
-79.190000
21
-73.500000
31
0.0
0
LINE
8
0
6
CONTINUOUS
10
-79.190000
20
-73.500000
30
0.0
11
-80.958000
21
-73.500000
31
0.0
0
LINE
8
0
6
CONTINUOUS
10
-77.423000
20
-71.500000
30
0.0
11
-77.423000
21
-73.500000
31
0.0
0
LINE
8
0
6
CONTINUOUS
10
-79.190000
20
-71.500000
30
0.0
11
-79.190000
21
-73.500000
31
0.0
0
LINE
8
0
6
CONTINUOUS
10
-77.423000
20
-73.500000
30
0.0
11
-77.423000
21
-71.500000
31
0.0
0
LINE
8
0
6
CONTINUOUS
10
-79.190000
20
-73.500000
30
0.0
11
-77.423000
21
-73.500000
31
0.0
0
LINE
8
0
6
CONTINUOUS
10
-79.190000
20
-73.500000
30
0.0
11
-79.190000
21
-71.500000
31
0.0
0
LINE
8
0
6
CONTINUOUS
10
-80.958000
20
-73.500000
30
0.0
11
-79.190000
21
-73.500000
31
0.0
0
LINE
8
0
6
CONTINUOUS
10
-71.164000
20
-73.500000
30
0.0
11
-71.164000
21
-71.500000
31
0.0
0
LINE
8
0
6
CONTINUOUS
10
-67.749000
20
-73.500000
30
0.0
11
-68.999000
21
-73.500000
31
0.0
0
LINE
8
0
6
CONTINUOUS
10
-68.999000
20
-73.500000
30
0.0
11
-71.164000
21
-73.500000
31
0.0
0
LINE
8
0
6
CONTINUOUS
10
-67.749000
20
-71.500000
30
0.0
11
-67.749000
21
-73.500000
31
0.0
0
LINE
8
0
6
CONTINUOUS
10
-68.999000
20
-71.500000
30
0.0
11
-68.999000
21
-73.500000
31
0.0
0
LINE
8
0
6
CONTINUOUS
10
-67.749000
20
-73.500000
30
0.0
11
-67.749000
21
-71.500000
31
0.0
0
LINE
8
0
6
CONTINUOUS
10
-68.999000
20
-73.500000
30
0.0
11
-67.749000
21
-73.500000
31
0.0
0
LINE
8
0
6
CONTINUOUS
10
-71.164000
20
-71.500000
30
0.0
11
-71.164000
21
-73.500000
31
0.0
0
LINE
8
0
6
CONTINUOUS
10
-68.999000
20
-73.500000
30
0.0
11
-68.999000
21
-71.500000
31
0.0
0
LINE
8
0
6
CONTINUOUS
10
-71.164000
20
-73.500000
30
0.0
11
-68.999000
21
-73.500000
31
0.0
0
LINE
8
0
6
CONTINUOUS
10
-61.806000
20
-71.500000
30
0.0
11
-61.806000
21
-73.500000
31
0.0
0
LINE
8
0
6
CONTINUOUS
10
-61.806000
20
-73.500000
30
0.0
11
-61.806000
21
-71.500000
31
0.0
0
LINE
8
0
6
CONTINUOUS
10
-94.216000
20
-71.500000
30
0.0
11
-92.447000
21
-71.500000
31
0.0
0
LINE
8
0
6
CONTINUOUS
10
-94.216000
20
-73.500000
30
0.0
11
-94.216000
21
-71.500000
31
0.0
0
LINE
8
0
6
CONTINUOUS
10
-92.447000
20
-71.500000
30
0.0
11
-90.680000
21
-71.500000
31
0.0
0
LINE
8
0
6
CONTINUOUS
10
-90.680000
20
-71.500000
30
0.0
11
-92.447000
21
-71.500000
31
0.0
0
LINE
8
0
6
CONTINUOUS
10
-94.216000
20
-71.500000
30
0.0
11
-94.216000
21
-73.500000
31
0.0
0
LINE
8
0
6
CONTINUOUS
10
-92.447000
20
-71.500000
30
0.0
11
-94.216000
21
-71.500000
31
0.0
0
LINE
8
0
6
CONTINUOUS
10
-101.090000
20
-71.500000
30
0.0
11
-100.444000
21
-71.500000
31
0.0
0
LINE
8
0
6
CONTINUOUS
10
-100.444000
20
-71.500000
30
0.0
11
-98.029000
21
-71.500000
31
0.0
0
LINE
8
0
6
CONTINUOUS
10
-98.675000
20
-71.500000
30
0.0
11
-98.675000
21
-73.500000
31
0.0
0
LINE
8
0
6
CONTINUOUS
10
-98.029000
20
-71.500000
30
0.0
11
-98.675000
21
-71.500000
31
0.0
0
LINE
8
0
6
CONTINUOUS
10
-98.675000
20
-71.500000
30
0.0
11
-101.090000
21
-71.500000
31
0.0
0
LINE
8
0
6
CONTINUOUS
10
-98.675000
20
-73.500000
30
0.0
11
-98.675000
21
-71.500000
31
0.0
0
LINE
8
0
6
CONTINUOUS
10
-103.939000
20
-73.500000
30
0.0
11
-105.706000
21
-73.500000
31
0.0
0
LINE
8
0
6
CONTINUOUS
10
-103.939000
20
-71.500000
30
0.0
11
-103.939000
21
-73.500000
31
0.0
0
LINE
8
0
6
CONTINUOUS
10
-103.939000
20
-73.500000
30
0.0
11
-103.939000
21
-71.500000
31
0.0
0
LINE
8
0
6
CONTINUOUS
10
-105.706000
20
-73.500000
30
0.0
11
-103.939000
21
-73.500000
31
0.0
0
LINE
8
0
6
CONTINUOUS
10
-103.640000
20
-73.500000
30
0.0
11
-103.640000
21
-71.500000
31
0.0
0
LINE
8
0
6
CONTINUOUS
10
-102.390000
20
-71.500000
30
0.0
11
-100.224000
21
-71.500000
31
0.0
0
LINE
8
0
6
CONTINUOUS
10
-100.224000
20
-71.500000
30
0.0
11
-101.474000
21
-71.500000
31
0.0
0
LINE
8
0
6
CONTINUOUS
10
-103.640000
20
-71.500000
30
0.0
11
-103.640000
21
-73.500000
31
0.0
0
LINE
8
0
6
CONTINUOUS
10
-101.474000
20
-71.500000
30
0.0
11
-103.640000
21
-71.500000
31
0.0
0
LINE
8
0
6
CONTINUOUS
10
-164.436000
20
-71.500000
30
0.0
11
-165.083000
21
-71.500000
31
0.0
0
LINE
8
0
6
CONTINUOUS
10
-165.083000
20
-71.500000
30
0.0
11
-162.668000
21
-71.500000
31
0.0
0
LINE
8
0
6
CONTINUOUS
10
-165.810000
20
-71.500000
30
0.0
11
-164.043000
21
-71.500000
31
0.0
0
LINE
8
0
6
CONTINUOUS
10
-164.043000
20
-71.500000
30
0.0
11
-165.810000
21
-71.500000
31
0.0
0
LINE
8
0
6
CONTINUOUS
10
-165.810000
20
-71.500000
30
0.0
11
-167.578000
21
-71.500000
31
0.0
0
LINE
8
0
6
CONTINUOUS
10
-167.578000
20
-71.500000
30
0.0
11
-165.810000
21
-71.500000
31
0.0
0
LINE
8
0
6
CONTINUOUS
10
-179.068500
20
-71.500000
30
0.0
11
-177.300800
21
-71.500000
31
0.0
0
LINE
8
0
6
CONTINUOUS
10
-177.300800
20
-71.500000
30
0.0
11
-179.068500
21
-71.500000
31
0.0
0
LINE
8
0
6
CONTINUOUS
10
-175.086500
20
-71.500000
30
0.0
11
-173.836500
21
-71.500000
31
0.0
0
LINE
8
0
6
CONTINUOUS
10
-173.836500
20
-71.500000
30
0.0
11
-176.001600
21
-71.500000
31
0.0
0
LINE
8
0
6
CONTINUOUS
10
-176.001600
20
-71.500000
30
0.0
11
-177.251600
21
-71.500000
31
0.0
0
LINE
8
0
6
CONTINUOUS
10
-177.251600
20
-71.500000
30
0.0
11
-175.086500
21
-71.500000
31
0.0
0
LINE
8
0
6
CONTINUOUS
10
-83.986000
20
-73.500000
30
0.0
11
-85.236000
21
-73.500000
31
0.0
0
LINE
8
0
6
CONTINUOUS
10
-85.236000
20
-71.500000
30
0.0
11
-85.236000
21
-73.500000
31
0.0
0
LINE
8
0
6
CONTINUOUS
10
-85.236000
20
-73.500000
30
0.0
11
-83.986000
21
-73.500000
31
0.0
0
LINE
8
0
6
CONTINUOUS
10
-85.236000
20
-73.500000
30
0.0
11
-85.236000
21
-71.500000
31
0.0
0
LINE
8
0
6
CONTINUOUS
10
-56.083000
20
-73.500000
30
0.0
11
-56.083000
21
-71.500000
31
0.0
0
LINE
8
0
6
CONTINUOUS
10
-52.667000
20
-73.500000
30
0.0
11
-54.833000
21
-73.500000
31
0.0
0
LINE
8
0
6
CONTINUOUS
10
-54.833000
20
-73.500000
30
0.0
11
-56.083000
21
-73.500000
31
0.0
0
LINE
8
0
6
CONTINUOUS
10
-52.667000
20
-71.500000
30
0.0
11
-52.667000
21
-73.500000
31
0.0
0
LINE
8
0
6
CONTINUOUS
10
-54.833000
20
-71.500000
30
0.0
11
-54.833000
21
-73.500000
31
0.0
0
LINE
8
0
6
CONTINUOUS
10
-52.667000
20
-73.500000
30
0.0
11
-52.667000
21
-71.500000
31
0.0
0
LINE
8
0
6
CONTINUOUS
10
-54.833000
20
-73.500000
30
0.0
11
-52.667000
21
-73.500000
31
0.0
0
LINE
8
0
6
CONTINUOUS
10
-56.083000
20
-71.500000
30
0.0
11
-56.083000
21
-73.500000
31
0.0
0
LINE
8
0
6
CONTINUOUS
10
-54.833000
20
-73.500000
30
0.0
11
-54.833000
21
-71.500000
31
0.0
0
LINE
8
0
6
CONTINUOUS
10
-56.083000
20
-73.500000
30
0.0
11
-54.833000
21
-73.500000
31
0.0
0
LINE
8
0
6
CONTINUOUS
10
-65.458000
20
-73.500000
30
0.0
11
-65.458000
21
-71.500000
31
0.0
0
LINE
8
0
6
CONTINUOUS
10
-62.042000
20
-73.500000
30
0.0
11
-64.208000
21
-73.500000
31
0.0
0
LINE
8
0
6
CONTINUOUS
10
-64.208000
20
-73.500000
30
0.0
11
-65.458000
21
-73.500000
31
0.0
0
LINE
8
0
6
CONTINUOUS
10
-62.042000
20
-71.500000
30
0.0
11
-62.042000
21
-73.500000
31
0.0
0
LINE
8
0
6
CONTINUOUS
10
-64.208000
20
-71.500000
30
0.0
11
-64.208000
21
-73.500000
31
0.0
0
LINE
8
0
6
CONTINUOUS
10
-62.042000
20
-73.500000
30
0.0
11
-62.042000
21
-71.500000
31
0.0
0
LINE
8
0
6
CONTINUOUS
10
-64.208000
20
-73.500000
30
0.0
11
-62.042000
21
-73.500000
31
0.0
0
LINE
8
0
6
CONTINUOUS
10
-65.458000
20
-71.500000
30
0.0
11
-65.458000
21
-73.500000
31
0.0
0
LINE
8
0
6
CONTINUOUS
10
-64.208000
20
-73.500000
30
0.0
11
-64.208000
21
-71.500000
31
0.0
0
LINE
8
0
6
CONTINUOUS
10
-65.458000
20
-73.500000
30
0.0
11
-64.208000
21
-73.500000
31
0.0
0
LINE
8
0
6
CONTINUOUS
10
-74.833000
20
-73.500000
30
0.0
11
-74.833000
21
-71.500000
31
0.0
0
LINE
8
0
6
CONTINUOUS
10
-71.417000
20
-73.500000
30
0.0
11
-73.583000
21
-73.500000
31
0.0
0
LINE
8
0
6
CONTINUOUS
10
-73.583000
20
-73.500000
30
0.0
11
-74.833000
21
-73.500000
31
0.0
0
LINE
8
0
6
CONTINUOUS
10
-71.417000
20
-71.500000
30
0.0
11
-71.417000
21
-73.500000
31
0.0
0
LINE
8
0
6
CONTINUOUS
10
-73.583000
20
-71.500000
30
0.0
11
-73.583000
21
-73.500000
31
0.0
0
LINE
8
0
6
CONTINUOUS
10
-71.417000
20
-73.500000
30
0.0
11
-71.417000
21
-71.500000
31
0.0
0
LINE
8
0
6
CONTINUOUS
10
-73.583000
20
-73.500000
30
0.0
11
-71.417000
21
-73.500000
31
0.0
0
LINE
8
0
6
CONTINUOUS
10
-74.833000
20
-71.500000
30
0.0
11
-74.833000
21
-73.500000
31
0.0
0
LINE
8
0
6
CONTINUOUS
10
-73.583000
20
-73.500000
30
0.0
11
-73.583000
21
-71.500000
31
0.0
0
LINE
8
0
6
CONTINUOUS
10
-74.833000
20
-73.500000
30
0.0
11
-73.583000
21
-73.500000
31
0.0
0
LINE
8
0
6
CONTINUOUS
10
-93.583000
20
-71.500000
30
0.0
11
-91.417000
21
-71.500000
31
0.0
0
LINE
8
0
6
CONTINUOUS
10
-90.167000
20
-71.500000
30
0.0
11
-90.167000
21
-73.500000
31
0.0
0
LINE
8
0
6
CONTINUOUS
10
-91.417000
20
-71.500000
30
0.0
11
-90.167000
21
-71.500000
31
0.0
0
LINE
8
0
6
CONTINUOUS
10
-90.167000
20
-71.500000
30
0.0
11
-92.333000
21
-71.500000
31
0.0
0
LINE
8
0
6
CONTINUOUS
10
-90.167000
20
-73.500000
30
0.0
11
-90.167000
21
-71.500000
31
0.0
0
LINE
8
0
6
CONTINUOUS
10
-92.333000
20
-71.500000
30
0.0
11
-93.583000
21
-71.500000
31
0.0
0
LINE
8
0
6
CONTINUOUS
10
-84.208000
20
-73.500000
30
0.0
11
-84.208000
21
-71.500000
31
0.0
0
LINE
8
0
6
CONTINUOUS
10
-80.792000
20
-73.500000
30
0.0
11
-82.958000
21
-73.500000
31
0.0
0
LINE
8
0
6
CONTINUOUS
10
-82.958000
20
-73.500000
30
0.0
11
-84.208000
21
-73.500000
31
0.0
0
LINE
8
0
6
CONTINUOUS
10
-80.792000
20
-71.500000
30
0.0
11
-80.792000
21
-73.500000
31
0.0
0
LINE
8
0
6
CONTINUOUS
10
-82.958000
20
-71.500000
30
0.0
11
-82.958000
21
-73.500000
31
0.0
0
LINE
8
0
6
CONTINUOUS
10
-80.792000
20
-73.500000
30
0.0
11
-80.792000
21
-71.500000
31
0.0
0
LINE
8
0
6
CONTINUOUS
10
-82.958000
20
-73.500000
30
0.0
11
-80.792000
21
-73.500000
31
0.0
0
LINE
8
0
6
CONTINUOUS
10
-84.208000
20
-71.500000
30
0.0
11
-84.208000
21
-73.500000
31
0.0
0
LINE
8
0
6
CONTINUOUS
10
-82.958000
20
-73.500000
30
0.0
11
-82.958000
21
-71.500000
31
0.0
0
LINE
8
0
6
CONTINUOUS
10
-84.208000
20
-73.500000
30
0.0
11
-82.958000
21
-73.500000
31
0.0
0
LINE
8
0
6
CONTINUOUS
10
-102.958000
20
-71.500000
30
0.0
11
-100.792000
21
-71.500000
31
0.0
0
LINE
8
0
6
CONTINUOUS
10
-99.542000
20
-71.500000
30
0.0
11
-99.542000
21
-73.500000
31
0.0
0
LINE
8
0
6
CONTINUOUS
10
-100.792000
20
-71.500000
30
0.0
11
-99.542000
21
-71.500000
31
0.0
0
LINE
8
0
6
CONTINUOUS
10
-99.542000
20
-71.500000
30
0.0
11
-101.708000
21
-71.500000
31
0.0
0
LINE
8
0
6
CONTINUOUS
10
-99.542000
20
-73.500000
30
0.0
11
-99.542000
21
-71.500000
31
0.0
0
LINE
8
0
6
CONTINUOUS
10
-101.708000
20
-71.500000
30
0.0
11
-102.958000
21
-71.500000
31
0.0
0
LINE
8
0
6
CONTINUOUS
10
-108.917000
20
-71.500000
30
0.0
11
-108.917000
21
-73.500000
31
0.0
0
LINE
8
0
6
CONTINUOUS
10
-108.917000
20
-73.500000
30
0.0
11
-108.917000
21
-71.500000
31
0.0
0
LINE
8
0
6
CONTINUOUS
10
-172.332000
20
-71.500000
30
0.0
11
-170.168000
21
-71.500000
31
0.0
0
LINE
8
0
6
CONTINUOUS
10
-170.168000
20
-71.500000
30
0.0
11
-171.418000
21
-71.500000
31
0.0
0
LINE
8
0
6
CONTINUOUS
10
-171.418000
20
-71.500000
30
0.0
11
-173.582500
21
-71.500000
31
0.0
0
LINE
8
0
6
CONTINUOUS
10
-173.582500
20
-71.500000
30
0.0
11
-172.332000
21
-71.500000
31
0.0
0
LINE
8
0
6
CONTINUOUS
10
-88.766000
20
-73.500000
30
0.0
11
-88.766000
21
-71.500000
31
0.0
0
LINE
8
0
6
CONTINUOUS
10
-85.705000
20
-73.500000
30
0.0
11
-88.120000
21
-73.500000
31
0.0
0
LINE
8
0
6
CONTINUOUS
10
-88.120000
20
-73.500000
30
0.0
11
-88.766000
21
-73.500000
31
0.0
0
LINE
8
0
6
CONTINUOUS
10
-85.705000
20
-71.500000
30
0.0
11
-85.705000
21
-73.500000
31
0.0
0
LINE
8
0
6
CONTINUOUS
10
-88.120000
20
-71.500000
30
0.0
11
-88.120000
21
-73.500000
31
0.0
0
LINE
8
0
6
CONTINUOUS
10
-85.705000
20
-73.500000
30
0.0
11
-85.705000
21
-71.500000
31
0.0
0
LINE
8
0
6
CONTINUOUS
10
-88.120000
20
-73.500000
30
0.0
11
-85.705000
21
-73.500000
31
0.0
0
LINE
8
0
6
CONTINUOUS
10
-88.766000
20
-71.500000
30
0.0
11
-88.766000
21
-73.500000
31
0.0
0
LINE
8
0
6
CONTINUOUS
10
-88.120000
20
-73.500000
30
0.0
11
-88.120000
21
-71.500000
31
0.0
0
LINE
8
0
6
CONTINUOUS
10
-88.766000
20
-73.500000
30
0.0
11
-88.120000
21
-73.500000
31
0.0
0
LINE
8
0
6
CONTINUOUS
10
-93.620000
20
-71.500000
30
0.0
11
-91.205000
21
-71.500000
31
0.0
0
LINE
8
0
6
CONTINUOUS
10
-93.620000
20
-73.500000
30
0.0
11
-93.620000
21
-71.500000
31
0.0
0
LINE
8
0
6
CONTINUOUS
10
-90.557000
20
-73.500000
30
0.0
11
-92.973000
21
-73.500000
31
0.0
0
LINE
8
0
6
CONTINUOUS
10
-92.973000
20
-73.500000
30
0.0
11
-93.620000
21
-73.500000
31
0.0
0
LINE
8
0
6
CONTINUOUS
10
-90.557000
20
-71.500000
30
0.0
11
-90.557000
21
-73.500000
31
0.0
0
LINE
8
0
6
CONTINUOUS
10
-91.205000
20
-71.500000
30
0.0
11
-90.557000
21
-71.500000
31
0.0
0
LINE
8
0
6
CONTINUOUS
10
-92.973000
20
-71.500000
30
0.0
11
-92.973000
21
-73.500000
31
0.0
0
LINE
8
0
6
CONTINUOUS
10
-90.557000
20
-71.500000
30
0.0
11
-92.973000
21
-71.500000
31
0.0
0
LINE
8
0
6
CONTINUOUS
10
-90.557000
20
-73.500000
30
0.0
11
-90.557000
21
-71.500000
31
0.0
0
LINE
8
0
6
CONTINUOUS
10
-92.973000
20
-73.500000
30
0.0
11
-90.557000
21
-73.500000
31
0.0
0
LINE
8
0
6
CONTINUOUS
10
-93.620000
20
-71.500000
30
0.0
11
-93.620000
21
-73.500000
31
0.0
0
LINE
8
0
6
CONTINUOUS
10
-92.973000
20
-71.500000
30
0.0
11
-93.620000
21
-71.500000
31
0.0
0
LINE
8
0
6
CONTINUOUS
10
-92.973000
20
-73.500000
30
0.0
11
-92.973000
21
-71.500000
31
0.0
0
LINE
8
0
6
CONTINUOUS
10
-93.620000
20
-73.500000
30
0.0
11
-92.973000
21
-73.500000
31
0.0
0
LINE
8
0
6
CONTINUOUS
10
-98.473000
20
-71.500000
30
0.0
11
-96.057000
21
-71.500000
31
0.0
0
LINE
8
0
6
CONTINUOUS
10
-98.473000
20
-73.500000
30
0.0
11
-98.473000
21
-71.500000
31
0.0
0
LINE
8
0
6
CONTINUOUS
10
-95.411000
20
-73.500000
30
0.0
11
-97.825000
21
-73.500000
31
0.0
0
LINE
8
0
6
CONTINUOUS
10
-97.825000
20
-73.500000
30
0.0
11
-98.473000
21
-73.500000
31
0.0
0
LINE
8
0
6
CONTINUOUS
10
-95.411000
20
-71.500000
30
0.0
11
-95.411000
21
-73.500000
31
0.0
0
LINE
8
0
6
CONTINUOUS
10
-96.057000
20
-71.500000
30
0.0
11
-95.411000
21
-71.500000
31
0.0
0
LINE
8
0
6
CONTINUOUS
10
-97.825000
20
-71.500000
30
0.0
11
-97.825000
21
-73.500000
31
0.0
0
LINE
8
0
6
CONTINUOUS
10
-95.411000
20
-71.500000
30
0.0
11
-97.825000
21
-71.500000
31
0.0
0
LINE
8
0
6
CONTINUOUS
10
-95.411000
20
-73.500000
30
0.0
11
-95.411000
21
-71.500000
31
0.0
0
LINE
8
0
6
CONTINUOUS
10
-97.825000
20
-73.500000
30
0.0
11
-95.411000
21
-73.500000
31
0.0
0
LINE
8
0
6
CONTINUOUS
10
-98.473000
20
-71.500000
30
0.0
11
-98.473000
21
-73.500000
31
0.0
0
LINE
8
0
6
CONTINUOUS
10
-97.825000
20
-71.500000
30
0.0
11
-98.473000
21
-71.500000
31
0.0
0
LINE
8
0
6
CONTINUOUS
10
-97.825000
20
-73.500000
30
0.0
11
-97.825000
21
-71.500000
31
0.0
0
LINE
8
0
6
CONTINUOUS
10
-98.473000
20
-73.500000
30
0.0
11
-97.825000
21
-73.500000
31
0.0
0
LINE
8
0
6
CONTINUOUS
10
-103.325000
20
-71.500000
30
0.0
11
-100.910000
21
-71.500000
31
0.0
0
LINE
8
0
6
CONTINUOUS
10
-103.325000
20
-73.500000
30
0.0
11
-103.325000
21
-71.500000
31
0.0
0
LINE
8
0
6
CONTINUOUS
10
-100.264000
20
-73.500000
30
0.0
11
-102.679000
21
-73.500000
31
0.0
0
LINE
8
0
6
CONTINUOUS
10
-102.679000
20
-73.500000
30
0.0
11
-103.325000
21
-73.500000
31
0.0
0
LINE
8
0
6
CONTINUOUS
10
-100.264000
20
-71.500000
30
0.0
11
-100.264000
21
-73.500000
31
0.0
0
LINE
8
0
6
CONTINUOUS
10
-100.910000
20
-71.500000
30
0.0
11
-100.264000
21
-71.500000
31
0.0
0
LINE
8
0
6
CONTINUOUS
10
-102.679000
20
-71.500000
30
0.0
11
-102.679000
21
-73.500000
31
0.0
0
LINE
8
0
6
CONTINUOUS
10
-100.264000
20
-71.500000
30
0.0
11
-102.679000
21
-71.500000
31
0.0
0
LINE
8
0
6
CONTINUOUS
10
-100.264000
20
-73.500000
30
0.0
11
-100.264000
21
-71.500000
31
0.0
0
LINE
8
0
6
CONTINUOUS
10
-102.679000
20
-73.500000
30
0.0
11
-100.264000
21
-73.500000
31
0.0
0
LINE
8
0
6
CONTINUOUS
10
-103.325000
20
-71.500000
30
0.0
11
-103.325000
21
-73.500000
31
0.0
0
LINE
8
0
6
CONTINUOUS
10
-102.679000
20
-73.500000
30
0.0
11
-102.679000
21
-71.500000
31
0.0
0
LINE
8
0
6
CONTINUOUS
10
-103.325000
20
-73.500000
30
0.0
11
-102.679000
21
-73.500000
31
0.0
0
LINE
8
0
6
CONTINUOUS
10
-108.179000
20
-73.500000
30
0.0
11
-108.179000
21
-71.500000
31
0.0
0
LINE
8
0
6
CONTINUOUS
10
-105.116000
20
-73.500000
30
0.0
11
-107.531000
21
-73.500000
31
0.0
0
LINE
8
0
6
CONTINUOUS
10
-107.531000
20
-73.500000
30
0.0
11
-108.179000
21
-73.500000
31
0.0
0
LINE
8
0
6
CONTINUOUS
10
-105.116000
20
-71.500000
30
0.0
11
-105.116000
21
-73.500000
31
0.0
0
LINE
8
0
6
CONTINUOUS
10
-107.531000
20
-71.500000
30
0.0
11
-107.531000
21
-73.500000
31
0.0
0
LINE
8
0
6
CONTINUOUS
10
-105.116000
20
-73.500000
30
0.0
11
-105.116000
21
-71.500000
31
0.0
0
LINE
8
0
6
CONTINUOUS
10
-107.531000
20
-73.500000
30
0.0
11
-105.116000
21
-73.500000
31
0.0
0
LINE
8
0
6
CONTINUOUS
10
-108.179000
20
-71.500000
30
0.0
11
-108.179000
21
-73.500000
31
0.0
0
LINE
8
0
6
CONTINUOUS
10
-107.531000
20
-73.500000
30
0.0
11
-107.531000
21
-71.500000
31
0.0
0
LINE
8
0
6
CONTINUOUS
10
-108.179000
20
-73.500000
30
0.0
11
-107.531000
21
-73.500000
31
0.0
0
LINE
8
0
6
CONTINUOUS
10
-113.031000
20
-73.500000
30
0.0
11
-113.031000
21
-71.500000
31
0.0
0
LINE
8
0
6
CONTINUOUS
10
-109.969000
20
-73.500000
30
0.0
11
-112.384000
21
-73.500000
31
0.0
0
LINE
8
0
6
CONTINUOUS
10
-112.384000
20
-73.500000
30
0.0
11
-113.031000
21
-73.500000
31
0.0
0
LINE
8
0
6
CONTINUOUS
10
-109.969000
20
-71.500000
30
0.0
11
-109.969000
21
-73.500000
31
0.0
0
LINE
8
0
6
CONTINUOUS
10
-112.384000
20
-71.500000
30
0.0
11
-112.384000
21
-73.500000
31
0.0
0
LINE
8
0
6
CONTINUOUS
10
-109.969000
20
-73.500000
30
0.0
11
-109.969000
21
-71.500000
31
0.0
0
LINE
8
0
6
CONTINUOUS
10
-112.384000
20
-73.500000
30
0.0
11
-109.969000
21
-73.500000
31
0.0
0
LINE
8
0
6
CONTINUOUS
10
-113.031000
20
-71.500000
30
0.0
11
-113.031000
21
-73.500000
31
0.0
0
LINE
8
0
6
CONTINUOUS
10
-112.384000
20
-73.500000
30
0.0
11
-112.384000
21
-71.500000
31
0.0
0
LINE
8
0
6
CONTINUOUS
10
-113.031000
20
-73.500000
30
0.0
11
-112.384000
21
-73.500000
31
0.0
0
LINE
8
0
6
CONTINUOUS
10
-117.884000
20
-73.500000
30
0.0
11
-117.884000
21
-71.500000
31
0.0
0
LINE
8
0
6
CONTINUOUS
10
-114.822000
20
-73.500000
30
0.0
11
-117.238000
21
-73.500000
31
0.0
0
LINE
8
0
6
CONTINUOUS
10
-117.238000
20
-73.500000
30
0.0
11
-117.884000
21
-73.500000
31
0.0
0
LINE
8
0
6
CONTINUOUS
10
-114.822000
20
-71.500000
30
0.0
11
-114.822000
21
-73.500000
31
0.0
0
LINE
8
0
6
CONTINUOUS
10
-117.238000
20
-71.500000
30
0.0
11
-117.238000
21
-73.500000
31
0.0
0
LINE
8
0
6
CONTINUOUS
10
-114.822000
20
-73.500000
30
0.0
11
-114.822000
21
-71.500000
31
0.0
0
LINE
8
0
6
CONTINUOUS
10
-117.238000
20
-73.500000
30
0.0
11
-114.822000
21
-73.500000
31
0.0
0
LINE
8
0
6
CONTINUOUS
10
-117.884000
20
-71.500000
30
0.0
11
-117.884000
21
-73.500000
31
0.0
0
LINE
8
0
6
CONTINUOUS
10
-117.238000
20
-73.500000
30
0.0
11
-117.238000
21
-71.500000
31
0.0
0
LINE
8
0
6
CONTINUOUS
10
-117.884000
20
-73.500000
30
0.0
11
-117.238000
21
-73.500000
31
0.0
0
LINE
8
0
6
CONTINUOUS
10
-121.250000
20
-73.500000
30
0.0
11
-123.750000
21
-73.500000
31
0.0
0
LINE
8
0
6
CONTINUOUS
10
-121.250000
20
-71.500000
30
0.0
11
-121.250000
21
-73.500000
31
0.0
0
LINE
8
0
6
CONTINUOUS
10
-123.750000
20
-71.500000
30
0.0
11
-123.750000
21
-73.500000
31
0.0
0
LINE
8
0
6
CONTINUOUS
10
-121.250000
20
-73.500000
30
0.0
11
-121.250000
21
-71.500000
31
0.0
0
LINE
8
0
6
CONTINUOUS
10
-123.750000
20
-73.500000
30
0.0
11
-121.250000
21
-73.500000
31
0.0
0
LINE
8
0
6
CONTINUOUS
10
-123.750000
20
-73.500000
30
0.0
11
-123.750000
21
-71.500000
31
0.0
0
LINE
8
0
6
CONTINUOUS
10
260.500000
20
33.500000
30
0.0
11
260.500000
21
36.600000
31
0.0
0
LINE
8
0
6
CONTINUOUS
10
260.500000
20
36.600000
30
0.0
11
260.500000
21
39.500000
31
0.0
0
LINE
8
0
6
CONTINUOUS
10
260.500000
20
39.500000
30
0.0
11
260.500000
21
42.000000
31
0.0
0
LINE
8
0
6
CONTINUOUS
10
260.500000
20
43.900000
30
0.0
11
260.500000
21
45.100000
31
0.0
0
LINE
8
0
6
CONTINUOUS
10
260.500000
20
45.100000
30
0.0
11
260.500000
21
45.500000
31
0.0
0
LINE
8
0
6
CONTINUOUS
10
-102.500000
20
19.400000
30
0.0
11
-105.800000
21
16.800000
31
0.0
0
LINE
8
0
6
CONTINUOUS
10
-122.800000
20
33.800000
30
0.0
11
-114.500000
21
40.100000
31
0.0
0
LINE
8
0
6
CONTINUOUS
10
-98.600000
20
21.000000
30
0.0
11
-102.500000
21
19.400000
31
0.0
0
LINE
8
0
6
CONTINUOUS
10
-114.500000
20
40.100000
30
0.0
11
-104.900000
21
44.100000
31
0.0
0
LINE
8
0
6
CONTINUOUS
10
-94.500000
20
21.500000
30
0.0
11
-98.600000
21
21.000000
31
0.0
0
LINE
8
0
6
CONTINUOUS
10
-104.900000
20
44.100000
30
0.0
11
-94.500000
21
45.500000
31
0.0
0
LINE
8
0
6
CONTINUOUS
10
260.500000
20
21.500000
30
0.0
11
-94.500000
21
21.500000
31
0.0
0
LINE
8
0
6
CONTINUOUS
10
-94.500000
20
45.500000
30
0.0
11
260.500000
21
45.500000
31
0.0
0
LINE
8
0
6
CONTINUOUS
10
-105.800000
20
16.800000
30
0.0
11
-108.400000
21
13.500000
31
0.0
0
LINE
8
0
6
CONTINUOUS
10
-129.100000
20
25.500000
30
0.0
11
-122.800000
21
33.800000
31
0.0
0
LINE
8
0
6
CONTINUOUS
10
-108.400000
20
13.500000
30
0.0
11
-110.000000
21
9.600000
31
0.0
0
LINE
8
0
6
CONTINUOUS
10
-133.100000
20
15.900000
30
0.0
11
-129.100000
21
25.500000
31
0.0
0
LINE
8
0
6
CONTINUOUS
10
-110.000000
20
9.600000
30
0.0
11
-110.500000
21
5.500000
31
0.0
0
LINE
8
0
6
CONTINUOUS
10
-134.500000
20
5.500000
30
0.0
11
-133.100000
21
15.900000
31
0.0
0
LINE
8
0
6
CONTINUOUS
10
-110.500000
20
5.500000
30
0.0
11
-110.500000
21
1.500000
31
0.0
0
LINE
8
0
6
CONTINUOUS
10
-134.500000
20
1.500000
30
0.0
11
-134.500000
21
5.500000
31
0.0
0
LINE
8
0
6
CONTINUOUS
10
-110.500000
20
-10.500000
30
0.0
11
-110.500000
21
1.500000
31
0.0
0
LINE
8
0
6
CONTINUOUS
10
-134.500000
20
-10.500000
30
0.0
11
-134.500000
21
1.500000
31
0.0
0
LINE
8
0
6
CONTINUOUS
10
260.500000
20
-0.260000
30
0.0
11
260.500000
21
-4.100000
31
0.0
0
LINE
8
0
6
CONTINUOUS
10
260.500000
20
-4.100000
30
0.0
11
260.500000
21
-0.260000
31
0.0
0
LINE
8
0
6
CONTINUOUS
10
260.500000
20
52.860000
30
0.0
11
260.500000
21
45.500000
31
0.0
0
LINE
8
0
6
CONTINUOUS
10
260.500000
20
45.500000
30
0.0
11
260.500000
21
52.860000
31
0.0
0
LINE
8
0
6
CONTINUOUS
10
260.500000
20
33.500000
30
0.0
11
260.500000
21
43.580000
31
0.0
0
LINE
8
0
6
CONTINUOUS
10
260.500000
20
43.580000
30
0.0
11
260.500000
21
52.860000
31
0.0
0
LINE
8
0
6
CONTINUOUS
10
261.220000
20
33.500000
30
0.0
11
261.220000
21
43.740000
31
0.0
0
LINE
8
0
6
CONTINUOUS
10
260.500000
20
43.580000
30
0.0
11
260.500000
21
33.500000
31
0.0
0
LINE
8
0
6
CONTINUOUS
10
261.220000
20
43.740000
30
0.0
11
261.220000
21
53.340000
31
0.0
0
LINE
8
0
6
CONTINUOUS
10
260.500000
20
52.860000
30
0.0
11
260.500000
21
43.580000
31
0.0
0
LINE
8
0
6
CONTINUOUS
10
261.220000
20
53.340000
30
0.0
11
261.220000
21
61.820000
31
0.0
0
LINE
8
0
6
CONTINUOUS
10
260.500000
20
61.020000
30
0.0
11
260.500000
21
52.860000
31
0.0
0
LINE
8
0
6
CONTINUOUS
10
261.220000
20
61.820000
30
0.0
11
261.220000
21
68.220000
31
0.0
0
LINE
8
0
6
CONTINUOUS
10
260.500000
20
67.260000
30
0.0
11
260.500000
21
61.020000
31
0.0
0
LINE
8
0
6
CONTINUOUS
10
261.220000
20
68.220000
30
0.0
11
261.220000
21
72.060000
31
0.0
0
LINE
8
0
6
CONTINUOUS
10
260.500000
20
71.100000
30
0.0
11
260.500000
21
67.260000
31
0.0
0
LINE
8
0
6
CONTINUOUS
10
261.220000
20
73.500000
30
0.0
11
260.500000
21
72.540000
31
0.0
0
LINE
8
0
6
CONTINUOUS
10
261.220000
20
72.060000
30
0.0
11
261.220000
21
73.500000
31
0.0
0
LINE
8
0
6
CONTINUOUS
10
260.500000
20
72.540000
30
0.0
11
260.500000
21
71.100000
31
0.0
0
LINE
8
0
6
CONTINUOUS
10
272.500000
20
33.500000
30
0.0
11
272.500000
21
43.740000
31
0.0
0
LINE
8
0
6
CONTINUOUS
10
261.220000
20
43.740000
30
0.0
11
261.220000
21
33.500000
31
0.0
0
LINE
8
0
6
CONTINUOUS
10
272.500000
20
43.740000
30
0.0
11
272.500000
21
53.340000
31
0.0
0
LINE
8
0
6
CONTINUOUS
10
261.220000
20
53.340000
30
0.0
11
261.220000
21
43.740000
31
0.0
0
LINE
8
0
6
CONTINUOUS
10
272.500000
20
53.340000
30
0.0
11
272.500000
21
61.820000
31
0.0
0
LINE
8
0
6
CONTINUOUS
10
261.220000
20
61.820000
30
0.0
11
261.220000
21
53.340000
31
0.0
0
LINE
8
0
6
CONTINUOUS
10
272.500000
20
61.820000
30
0.0
11
272.500000
21
68.220000
31
0.0
0
LINE
8
0
6
CONTINUOUS
10
261.220000
20
68.220000
30
0.0
11
261.220000
21
61.820000
31
0.0
0
LINE
8
0
6
CONTINUOUS
10
272.500000
20
68.220000
30
0.0
11
272.500000
21
72.060000
31
0.0
0
LINE
8
0
6
CONTINUOUS
10
261.220000
20
72.060000
30
0.0
11
261.220000
21
68.220000
31
0.0
0
LINE
8
0
6
CONTINUOUS
10
272.500000
20
73.500000
30
0.0
11
261.220000
21
73.500000
31
0.0
0
LINE
8
0
6
CONTINUOUS
10
272.500000
20
72.060000
30
0.0
11
272.500000
21
73.500000
31
0.0
0
LINE
8
0
6
CONTINUOUS
10
272.500000
20
43.740000
30
0.0
11
272.500000
21
33.500000
31
0.0
0
LINE
8
0
6
CONTINUOUS
10
272.500000
20
53.340000
30
0.0
11
272.500000
21
43.740000
31
0.0
0
LINE
8
0
6
CONTINUOUS
10
272.500000
20
61.820000
30
0.0
11
272.500000
21
53.340000
31
0.0
0
LINE
8
0
6
CONTINUOUS
10
272.500000
20
68.220000
30
0.0
11
272.500000
21
61.820000
31
0.0
0
LINE
8
0
6
CONTINUOUS
10
272.500000
20
72.060000
30
0.0
11
272.500000
21
68.220000
31
0.0
0
LINE
8
0
6
CONTINUOUS
10
272.500000
20
73.500000
30
0.0
11
272.500000
21
72.060000
31
0.0
0
LINE
8
0
6
CONTINUOUS
10
260.500000
20
23.420000
30
0.0
11
260.500000
21
33.500000
31
0.0
0
LINE
8
0
6
CONTINUOUS
10
260.500000
20
21.500000
30
0.0
11
260.500000
21
23.420000
31
0.0
0
LINE
8
0
6
CONTINUOUS
10
260.500000
20
-4.100000
30
0.0
11
260.500000
21
-0.260000
31
0.0
0
LINE
8
0
6
CONTINUOUS
10
260.500000
20
-5.540000
30
0.0
11
260.500000
21
-4.100000
31
0.0
0
LINE
8
0
6
CONTINUOUS
10
260.500000
20
33.500000
30
0.0
11
260.500000
21
23.420000
31
0.0
0
LINE
8
0
6
CONTINUOUS
10
261.220000
20
23.260000
30
0.0
11
261.220000
21
33.500000
31
0.0
0
LINE
8
0
6
CONTINUOUS
10
260.500000
20
23.420000
30
0.0
11
260.500000
21
14.140000
31
0.0
0
LINE
8
0
6
CONTINUOUS
10
261.220000
20
13.660000
30
0.0
11
261.220000
21
23.260000
31
0.0
0
LINE
8
0
6
CONTINUOUS
10
260.500000
20
14.140000
30
0.0
11
260.500000
21
5.980000
31
0.0
0
LINE
8
0
6
CONTINUOUS
10
261.220000
20
5.180000
30
0.0
11
261.220000
21
13.660000
31
0.0
0
LINE
8
0
6
CONTINUOUS
10
260.500000
20
5.980000
30
0.0
11
260.500000
21
-0.260000
31
0.0
0
LINE
8
0
6
CONTINUOUS
10
261.220000
20
-1.220000
30
0.0
11
261.220000
21
5.180000
31
0.0
0
LINE
8
0
6
CONTINUOUS
10
260.500000
20
-0.260000
30
0.0
11
260.500000
21
-4.100000
31
0.0
0
LINE
8
0
6
CONTINUOUS
10
261.220000
20
-5.060000
30
0.0
11
261.220000
21
-1.220000
31
0.0
0
LINE
8
0
6
CONTINUOUS
10
260.500000
20
-5.540000
30
0.0
11
261.220000
21
-6.500000
31
0.0
0
LINE
8
0
6
CONTINUOUS
10
260.500000
20
-4.100000
30
0.0
11
260.500000
21
-5.540000
31
0.0
0
LINE
8
0
6
CONTINUOUS
10
261.220000
20
-6.500000
30
0.0
11
261.220000
21
-5.060000
31
0.0
0
LINE
8
0
6
CONTINUOUS
10
261.220000
20
33.500000
30
0.0
11
261.220000
21
23.260000
31
0.0
0
LINE
8
0
6
CONTINUOUS
10
272.500000
20
23.260000
30
0.0
11
272.500000
21
33.500000
31
0.0
0
LINE
8
0
6
CONTINUOUS
10
261.220000
20
23.260000
30
0.0
11
261.220000
21
13.660000
31
0.0
0
LINE
8
0
6
CONTINUOUS
10
272.500000
20
13.660000
30
0.0
11
272.500000
21
23.260000
31
0.0
0
LINE
8
0
6
CONTINUOUS
10
261.220000
20
13.660000
30
0.0
11
261.220000
21
5.180000
31
0.0
0
LINE
8
0
6
CONTINUOUS
10
272.500000
20
5.180000
30
0.0
11
272.500000
21
13.660000
31
0.0
0
LINE
8
0
6
CONTINUOUS
10
261.220000
20
5.180000
30
0.0
11
261.220000
21
-1.220000
31
0.0
0
LINE
8
0
6
CONTINUOUS
10
272.500000
20
-1.220000
30
0.0
11
272.500000
21
5.180000
31
0.0
0
LINE
8
0
6
CONTINUOUS
10
261.220000
20
-1.220000
30
0.0
11
261.220000
21
-5.060000
31
0.0
0
LINE
8
0
6
CONTINUOUS
10
272.500000
20
-5.060000
30
0.0
11
272.500000
21
-1.220000
31
0.0
0
LINE
8
0
6
CONTINUOUS
10
261.220000
20
-6.500000
30
0.0
11
272.500000
21
-6.500000
31
0.0
0
LINE
8
0
6
CONTINUOUS
10
261.220000
20
-5.060000
30
0.0
11
261.220000
21
-6.500000
31
0.0
0
LINE
8
0
6
CONTINUOUS
10
272.500000
20
-6.500000
30
0.0
11
272.500000
21
-5.060000
31
0.0
0
LINE
8
0
6
CONTINUOUS
10
272.500000
20
33.500000
30
0.0
11
272.500000
21
23.260000
31
0.0
0
LINE
8
0
6
CONTINUOUS
10
272.500000
20
23.260000
30
0.0
11
272.500000
21
13.660000
31
0.0
0
LINE
8
0
6
CONTINUOUS
10
272.500000
20
13.660000
30
0.0
11
272.500000
21
5.180000
31
0.0
0
LINE
8
0
6
CONTINUOUS
10
272.500000
20
5.180000
30
0.0
11
272.500000
21
-1.220000
31
0.0
0
LINE
8
0
6
CONTINUOUS
10
272.500000
20
-1.220000
30
0.0
11
272.500000
21
-5.060000
31
0.0
0
LINE
8
0
6
CONTINUOUS
10
272.500000
20
-5.060000
30
0.0
11
272.500000
21
-6.500000
31
0.0
0
LINE
8
0
6
CONTINUOUS
10
-113.637000
20
-23.848200
30
0.0
11
-113.555000
21
-23.534200
31
0.0
0
LINE
8
0
6
CONTINUOUS
10
-113.555000
20
-23.534200
30
0.0
11
-113.555000
21
-22.023500
31
0.0
0
LINE
8
0
6
CONTINUOUS
10
-113.555000
20
-23.534200
30
0.0
11
-113.637000
21
-23.848200
31
0.0
0
LINE
8
0
6
CONTINUOUS
10
-113.637000
20
-23.848200
30
0.0
11
-113.876000
21
-24.129600
31
0.0
0
LINE
8
0
6
CONTINUOUS
10
-113.555000
20
-22.023500
30
0.0
11
-113.555000
21
-23.534200
31
0.0
0
LINE
8
0
6
CONTINUOUS
10
-110.085000
20
-10.500000
30
0.0
11
-110.781000
21
-10.500000
31
0.0
0
LINE
8
0
6
CONTINUOUS
10
-111.695000
20
-10.500000
30
0.0
11
-112.810000
21
-10.500000
31
0.0
0
LINE
8
0
6
CONTINUOUS
10
-110.781000
20
-10.500000
30
0.0
11
-111.695000
21
-10.500000
31
0.0
0
LINE
8
0
6
CONTINUOUS
10
-112.717000
20
-28.751700
30
0.0
11
-112.895000
21
-28.605900
31
0.0
0
LINE
8
0
6
CONTINUOUS
10
-113.197000
20
-27.473300
30
0.0
11
-113.041000
21
-27.268700
31
0.0
0
LINE
8
0
6
CONTINUOUS
10
-112.895000
20
-28.605900
30
0.0
11
-113.177000
21
-28.274600
31
0.0
0
LINE
8
0
6
CONTINUOUS
10
-112.717000
20
-28.883200
30
0.0
11
-112.895000
21
-28.605900
31
0.0
0
LINE
8
0
6
CONTINUOUS
10
-113.177000
20
-28.274600
30
0.0
11
-113.279000
21
-27.876000
31
0.0
0
LINE
8
0
6
CONTINUOUS
10
-113.279000
20
-27.876000
30
0.0
11
-113.197000
21
-27.473300
31
0.0
0
LINE
8
0
6
CONTINUOUS
10
-109.715000
20
-24.255000
30
0.0
11
-111.426000
21
-25.782300
31
0.0
0
LINE
8
0
6
CONTINUOUS
10
-111.426000
20
-25.782300
30
0.0
11
-112.951000
21
-27.130800
31
0.0
0
LINE
8
0
6
CONTINUOUS
10
-112.951000
20
-27.130800
30
0.0
11
-113.041000
21
-27.268700
31
0.0
0
LINE
8
0
6
CONTINUOUS
10
-112.717000
20
-28.751700
30
0.0
11
-112.656000
21
-28.808200
31
0.0
0
LINE
8
0
6
CONTINUOUS
10
-111.394000
20
-30.035400
30
0.0
11
-110.322000
21
-31.398100
31
0.0
0
LINE
8
0
6
CONTINUOUS
10
-112.656000
20
-28.808200
30
0.0
11
-111.394000
21
-30.035400
31
0.0
0
LINE
8
0
6
CONTINUOUS
10
-109.620000
20
-10.500000
30
0.0
11
-110.085000
21
-10.500000
31
0.0
0
LINE
8
0
6
CONTINUOUS
10
-109.377000
20
-23.534200
30
0.0
11
-109.395000
21
-10.500000
31
0.0
0
LINE
8
0
6
CONTINUOUS
10
-109.395000
20
-10.500000
30
0.0
11
-109.620000
21
-10.500000
31
0.0
0
LINE
8
0
6
CONTINUOUS
10
-109.715000
20
-24.255000
30
0.0
11
-109.468000
21
-23.924700
31
0.0
0
LINE
8
0
6
CONTINUOUS
10
-109.468000
20
-23.924700
30
0.0
11
-109.377000
21
-23.534200
31
0.0
0
LINE
8
0
6
CONTINUOUS
10
-109.715000
20
-24.255000
30
0.0
11
-109.892000
21
-24.255000
31
0.0
0
LINE
8
0
6
CONTINUOUS
10
-112.994000
20
-27.130800
30
0.0
11
-109.715000
21
-24.255000
31
0.0
0
LINE
8
0
6
CONTINUOUS
10
-122.359000
20
-21.203900
30
0.0
11
-120.842000
21
-21.225300
31
0.0
0
LINE
8
0
6
CONTINUOUS
10
-120.572000
20
-10.500000
30
0.0
11
-122.359000
21
-10.500000
31
0.0
0
LINE
8
0
6
CONTINUOUS
10
-122.500000
20
-21.205900
30
0.0
11
-122.359000
21
-21.203900
31
0.0
0
LINE
8
0
6
CONTINUOUS
10
-122.359000
20
-10.500000
30
0.0
11
-122.500000
21
-10.500000
31
0.0
0
LINE
8
0
6
CONTINUOUS
10
-115.559000
20
-10.500000
30
0.0
11
-114.106000
21
-10.500000
31
0.0
0
LINE
8
0
6
CONTINUOUS
10
-115.386000
20
-24.990000
30
0.0
11
-116.567000
21
-25.571000
31
0.0
0
LINE
8
0
6
CONTINUOUS
10
-116.567000
20
-25.571000
30
0.0
11
-118.382000
21
-26.303000
31
0.0
0
LINE
8
0
6
CONTINUOUS
10
-114.059000
20
-24.255000
30
0.0
11
-115.386000
21
-24.990000
31
0.0
0
LINE
8
0
6
CONTINUOUS
10
-119.990000
20
-26.752600
30
0.0
11
-121.365000
21
-26.965600
31
0.0
0
LINE
8
0
6
CONTINUOUS
10
-121.365000
20
-26.965600
30
0.0
11
-122.500000
21
-27.003700
31
0.0
0
LINE
8
0
6
CONTINUOUS
10
-118.382000
20
-26.303000
30
0.0
11
-119.990000
21
-26.752600
31
0.0
0
LINE
8
0
6
CONTINUOUS
10
-116.516000
20
-21.534200
30
0.0
11
-115.463000
21
-21.675900
31
0.0
0
LINE
8
0
6
CONTINUOUS
10
-115.559000
20
-10.500000
30
0.0
11
-117.141000
21
-10.500000
31
0.0
0
LINE
8
0
6
CONTINUOUS
10
-117.900000
20
-21.391400
30
0.0
11
-116.516000
21
-21.534200
31
0.0
0
LINE
8
0
6
CONTINUOUS
10
-115.463000
20
-21.675900
30
0.0
11
-114.473000
21
-21.839000
31
0.0
0
LINE
8
0
6
CONTINUOUS
10
-114.106000
20
-10.500000
30
0.0
11
-115.559000
21
-10.500000
31
0.0
0
LINE
8
0
6
CONTINUOUS
10
-117.141000
20
-10.500000
30
0.0
11
-118.822000
21
-10.500000
31
0.0
0
LINE
8
0
6
CONTINUOUS
10
-119.347000
20
-21.287400
30
0.0
11
-117.900000
21
-21.391400
31
0.0
0
LINE
8
0
6
CONTINUOUS
10
-120.842000
20
-21.225300
30
0.0
11
-119.347000
21
-21.287400
31
0.0
0
LINE
8
0
6
CONTINUOUS
10
-118.822000
20
-10.500000
30
0.0
11
-120.572000
21
-10.500000
31
0.0
0
LINE
8
0
6
CONTINUOUS
10
-122.359000
20
-10.500000
30
0.0
11
-120.572000
21
-10.500000
31
0.0
0
LINE
8
0
6
CONTINUOUS
10
-122.500000
20
-10.500000
30
0.0
11
-122.359000
21
-10.500000
31
0.0
0
LINE
8
0
6
CONTINUOUS
10
-113.876000
20
-24.129600
30
0.0
11
-113.637000
21
-23.848200
31
0.0
0
LINE
8
0
6
CONTINUOUS
10
-114.059000
20
-24.255000
30
0.0
11
-113.876000
21
-24.129600
31
0.0
0
LINE
8
0
6
CONTINUOUS
10
-113.876000
20
-24.129600
30
0.0
11
-114.059000
21
-24.255000
31
0.0
0
LINE
8
0
6
CONTINUOUS
10
-115.386000
20
-24.990000
30
0.0
11
-114.059000
21
-24.255000
31
0.0
0
LINE
8
0
6
CONTINUOUS
10
-114.473000
20
-21.839000
30
0.0
11
-115.463000
21
-21.675900
31
0.0
0
LINE
8
0
6
CONTINUOUS
10
-121.365000
20
-26.965600
30
0.0
11
-119.990000
21
-26.752600
31
0.0
0
LINE
8
0
6
CONTINUOUS
10
-119.990000
20
-26.752600
30
0.0
11
-118.382000
21
-26.303000
31
0.0
0
LINE
8
0
6
CONTINUOUS
10
-113.555000
20
-22.023500
30
0.0
11
-122.500000
21
-22.023500
31
0.0
0
LINE
8
0
6
CONTINUOUS
10
-122.500000
20
-27.003700
30
0.0
11
-121.365000
21
-26.965600
31
0.0
0
LINE
8
0
6
CONTINUOUS
10
-116.567000
20
-25.571000
30
0.0
11
-115.386000
21
-24.990000
31
0.0
0
LINE
8
0
6
CONTINUOUS
10
-118.382000
20
-26.303000
30
0.0
11
-116.567000
21
-25.571000
31
0.0
0
LINE
8
0
6
CONTINUOUS
10
-120.842000
20
-21.225300
30
0.0
11
-122.359000
21
-21.203900
31
0.0
0
LINE
8
0
6
CONTINUOUS
10
-122.359000
20
-21.203900
30
0.0
11
-122.500000
21
-21.205900
31
0.0
0
LINE
8
0
6
CONTINUOUS
10
-116.516000
20
-21.534200
30
0.0
11
-117.900000
21
-21.391400
31
0.0
0
LINE
8
0
6
CONTINUOUS
10
-122.500000
20
-22.023500
30
0.0
11
-113.555000
21
-22.023500
31
0.0
0
LINE
8
0
6
CONTINUOUS
10
-114.473000
20
-21.839000
30
0.0
11
-113.555000
21
-22.023500
31
0.0
0
LINE
8
0
6
CONTINUOUS
10
-112.810000
20
-10.500000
30
0.0
11
-114.106000
21
-10.500000
31
0.0
0
LINE
8
0
6
CONTINUOUS
10
-112.922000
20
-33.029100
30
0.0
11
-111.591000
21
-33.029100
31
0.0
0
LINE
8
0
6
CONTINUOUS
10
-112.922000
20
-40.980600
30
0.0
11
-111.591000
21
-40.980600
31
0.0
0
LINE
8
0
6
CONTINUOUS
10
-111.591000
20
-33.029100
30
0.0
11
-112.922000
21
-33.029100
31
0.0
0
LINE
8
0
6
CONTINUOUS
10
-112.987000
20
-51.990300
30
0.0
11
-111.664000
21
-51.990300
31
0.0
0
LINE
8
0
6
CONTINUOUS
10
-108.273000
20
-40.980600
30
0.0
11
-107.429000
21
-40.980600
31
0.0
0
LINE
8
0
6
CONTINUOUS
10
-107.429000
20
-33.029100
30
0.0
11
-108.273000
21
-33.029100
31
0.0
0
LINE
8
0
6
CONTINUOUS
10
-109.570000
20
-32.111700
30
0.0
11
-110.663000
21
-32.111700
31
0.0
0
LINE
8
0
6
CONTINUOUS
10
-111.878000
20
-32.111700
30
0.0
11
-110.663000
21
-32.111700
31
0.0
0
LINE
8
0
6
CONTINUOUS
10
-111.074000
20
-31.601900
30
0.0
11
-112.247000
21
-31.601900
31
0.0
0
LINE
8
0
6
CONTINUOUS
10
-110.663000
20
-32.892600
30
0.0
11
-111.878000
21
-32.892600
31
0.0
0
LINE
8
0
6
CONTINUOUS
10
-110.364000
20
-33.029100
30
0.0
11
-109.255000
21
-33.029100
31
0.0
0
LINE
8
0
6
CONTINUOUS
10
-110.663000
20
-32.111700
30
0.0
11
-111.878000
21
-32.111700
31
0.0
0
LINE
8
0
6
CONTINUOUS
10
-109.255000
20
-40.980600
30
0.0
11
-110.364000
21
-40.980600
31
0.0
0
LINE
8
0
6
CONTINUOUS
10
-110.364000
20
-40.980600
30
0.0
11
-109.255000
21
-40.980600
31
0.0
0
LINE
8
0
6
CONTINUOUS
10
-109.255000
20
-33.029100
30
0.0
11
-110.364000
21
-33.029100
31
0.0
0
LINE
8
0
6
CONTINUOUS
10
-110.663000
20
-32.111700
30
0.0
11
-109.570000
21
-32.111700
31
0.0
0
LINE
8
0
6
CONTINUOUS
10
-110.020000
20
-31.601900
30
0.0
11
-111.074000
21
-31.601900
31
0.0
0
LINE
8
0
6
CONTINUOUS
10
-108.610000
20
-32.892600
30
0.0
11
-109.570000
21
-32.892600
31
0.0
0
LINE
8
0
6
CONTINUOUS
10
-108.273000
20
-33.029100
30
0.0
11
-107.429000
21
-33.029100
31
0.0
0
LINE
8
0
6
CONTINUOUS
10
-109.570000
20
-32.111700
30
0.0
11
-108.610000
21
-32.111700
31
0.0
0
LINE
8
0
6
CONTINUOUS
10
-109.093000
20
-31.601900
30
0.0
11
-110.020000
21
-31.601900
31
0.0
0
LINE
8
0
6
CONTINUOUS
10
-108.610000
20
-32.111700
30
0.0
11
-109.570000
21
-32.111700
31
0.0
0
LINE
8
0
6
CONTINUOUS
10
-108.273000
20
-40.980600
30
0.0
11
-109.255000
21
-40.980600
31
0.0
0
LINE
8
0
6
CONTINUOUS
10
-109.255000
20
-40.980600
30
0.0
11
-108.273000
21
-40.980600
31
0.0
0
LINE
8
0
6
CONTINUOUS
10
-108.273000
20
-33.029100
30
0.0
11
-109.255000
21
-33.029100
31
0.0
0
LINE
8
0
6
CONTINUOUS
10
-109.570000
20
-32.892600
30
0.0
11
-110.663000
21
-32.892600
31
0.0
0
LINE
8
0
6
CONTINUOUS
10
-109.255000
20
-33.029100
30
0.0
11
-108.273000
21
-33.029100
31
0.0
0
LINE
8
0
6
CONTINUOUS
10
-109.344000
20
-51.990300
30
0.0
11
-110.447000
21
-51.990300
31
0.0
0
LINE
8
0
6
CONTINUOUS
10
-108.369000
20
-51.990300
30
0.0
11
-109.344000
21
-51.990300
31
0.0
0
LINE
8
0
6
CONTINUOUS
10
-108.369000
20
-51.990300
30
0.0
11
-107.529000
21
-51.990300
31
0.0
0
LINE
8
0
6
CONTINUOUS
10
-110.447000
20
-51.990300
30
0.0
11
-109.344000
21
-51.990300
31
0.0
0
LINE
8
0
6
CONTINUOUS
10
-109.344000
20
-51.990300
30
0.0
11
-108.369000
21
-51.990300
31
0.0
0
LINE
8
0
6
CONTINUOUS
10
-107.792000
20
-32.111700
30
0.0
11
-107.125000
21
-32.111700
31
0.0
0
LINE
8
0
6
CONTINUOUS
10
-107.659000
20
-31.601900
30
0.0
11
-108.303000
21
-31.601900
31
0.0
0
LINE
8
0
6
CONTINUOUS
10
-107.125000
20
-32.892600
30
0.0
11
-107.793000
21
-32.892600
31
0.0
0
LINE
8
0
6
CONTINUOUS
10
-106.729000
20
-33.029100
30
0.0
11
-106.181000
21
-33.029100
31
0.0
0
LINE
8
0
6
CONTINUOUS
10
-107.125000
20
-32.111700
30
0.0
11
-107.792000
21
-32.111700
31
0.0
0
LINE
8
0
6
CONTINUOUS
10
-106.729000
20
-40.980600
30
0.0
11
-106.181000
21
-40.980600
31
0.0
0
LINE
8
0
6
CONTINUOUS
10
-106.181000
20
-33.029100
30
0.0
11
-106.729000
21
-33.029100
31
0.0
0
LINE
8
0
6
CONTINUOUS
10
-106.616000
20
-32.111700
30
0.0
11
-106.270000
21
-32.111700
31
0.0
0
LINE
8
0
6
CONTINUOUS
10
-106.834000
20
-31.601900
30
0.0
11
-107.167000
21
-31.601900
31
0.0
0
LINE
8
0
6
CONTINUOUS
10
-106.270000
20
-32.111700
30
0.0
11
-106.616000
21
-32.111700
31
0.0
0
LINE
8
0
6
CONTINUOUS
10
-105.790000
20
-33.029100
30
0.0
11
-106.181000
21
-33.029100
31
0.0
0
LINE
8
0
6
CONTINUOUS
10
-106.181000
20
-40.980600
30
0.0
11
-105.790000
21
-40.980600
31
0.0
0
LINE
8
0
6
CONTINUOUS
10
-106.181000
20
-40.980600
30
0.0
11
-106.729000
21
-40.980600
31
0.0
0
LINE
8
0
6
CONTINUOUS
10
-106.616000
20
-32.892600
30
0.0
11
-107.125000
21
-32.892600
31
0.0
0
LINE
8
0
6
CONTINUOUS
10
-106.181000
20
-33.029100
30
0.0
11
-105.790000
21
-33.029100
31
0.0
0
LINE
8
0
6
CONTINUOUS
10
-107.167000
20
-31.601900
30
0.0
11
-106.834000
21
-31.601900
31
0.0
0
LINE
8
0
6
CONTINUOUS
10
-107.659000
20
-31.601900
30
0.0
11
-107.167000
21
-31.601900
31
0.0
0
LINE
8
0
6
CONTINUOUS
10
-108.303000
20
-31.601900
30
0.0
11
-107.659000
21
-31.601900
31
0.0
0
LINE
8
0
6
CONTINUOUS
10
-106.616000
20
-32.111700
30
0.0
11
-107.125000
21
-32.111700
31
0.0
0
LINE
8
0
6
CONTINUOUS
10
-107.125000
20
-32.111700
30
0.0
11
-106.616000
21
-32.111700
31
0.0
0
LINE
8
0
6
CONTINUOUS
10
-107.167000
20
-31.601900
30
0.0
11
-107.659000
21
-31.601900
31
0.0
0
LINE
8
0
6
CONTINUOUS
10
-105.902000
20
-51.990300
30
0.0
11
-106.291000
21
-51.990300
31
0.0
0
LINE
8
0
6
CONTINUOUS
10
-106.291000
20
-51.990300
30
0.0
11
-106.834000
21
-51.990300
31
0.0
0
LINE
8
0
6
CONTINUOUS
10
-106.291000
20
-51.990300
30
0.0
11
-105.902000
21
-51.990300
31
0.0
0
LINE
8
0
6
CONTINUOUS
10
-106.834000
20
-51.990300
30
0.0
11
-106.291000
21
-51.990300
31
0.0
0
LINE
8
0
6
CONTINUOUS
10
-107.529000
20
-51.990300
30
0.0
11
-108.369000
21
-51.990300
31
0.0
0
LINE
8
0
6
CONTINUOUS
10
-108.610000
20
-32.111700
30
0.0
11
-107.792000
21
-32.111700
31
0.0
0
LINE
8
0
6
CONTINUOUS
10
-108.303000
20
-31.601900
30
0.0
11
-109.093000
21
-31.601900
31
0.0
0
LINE
8
0
6
CONTINUOUS
10
-107.792000
20
-32.111700
30
0.0
11
-108.610000
21
-32.111700
31
0.0
0
LINE
8
0
6
CONTINUOUS
10
-107.429000
20
-40.980600
30
0.0
11
-108.273000
21
-40.980600
31
0.0
0
LINE
8
0
6
CONTINUOUS
10
-107.793000
20
-32.892600
30
0.0
11
-108.610000
21
-32.892600
31
0.0
0
LINE
8
0
6
CONTINUOUS
10
-107.429000
20
-33.029100
30
0.0
11
-106.729000
21
-33.029100
31
0.0
0
LINE
8
0
6
CONTINUOUS
10
-107.529000
20
-51.990300
30
0.0
11
-106.834000
21
-51.990300
31
0.0
0
LINE
8
0
6
CONTINUOUS
10
-106.834000
20
-51.990300
30
0.0
11
-107.529000
21
-51.990300
31
0.0
0
LINE
8
0
6
CONTINUOUS
10
-106.729000
20
-40.980600
30
0.0
11
-107.429000
21
-40.980600
31
0.0
0
LINE
8
0
6
CONTINUOUS
10
-107.429000
20
-40.980600
30
0.0
11
-106.729000
21
-40.980600
31
0.0
0
LINE
8
0
6
CONTINUOUS
10
-106.729000
20
-33.029100
30
0.0
11
-107.429000
21
-33.029100
31
0.0
0
LINE
8
0
6
CONTINUOUS
10
-105.560000
20
-33.029100
30
0.0
11
-105.500000
21
-33.029100
31
0.0
0
LINE
8
0
6
CONTINUOUS
10
-105.500000
20
-40.980600
30
0.0
11
-105.560000
21
-40.980600
31
0.0
0
LINE
8
0
6
CONTINUOUS
10
-105.560000
20
-40.980600
30
0.0
11
-105.500000
21
-40.980600
31
0.0
0
LINE
8
0
6
CONTINUOUS
10
-105.500000
20
-33.029100
30
0.0
11
-105.560000
21
-33.029100
31
0.0
0
LINE
8
0
6
CONTINUOUS
10
-105.578000
20
-33.009800
30
0.0
11
-105.500000
21
-33.029100
31
0.0
0
LINE
8
0
6
CONTINUOUS
10
-106.084000
20
-32.892600
30
0.0
11
-105.578000
21
-33.009800
31
0.0
0
LINE
8
0
6
CONTINUOUS
10
-106.084000
20
-32.111700
30
0.0
11
-106.084000
21
-32.892600
31
0.0
0
LINE
8
0
6
CONTINUOUS
10
-106.655000
20
-31.601900
30
0.0
11
-106.084000
21
-32.111700
31
0.0
0
LINE
8
0
6
CONTINUOUS
10
-106.084000
20
-41.694200
30
0.0
11
-105.614000
21
-42.400600
31
0.0
0
LINE
8
0
6
CONTINUOUS
10
-106.084000
20
-40.980600
30
0.0
11
-106.084000
21
-41.694200
31
0.0
0
LINE
8
0
6
CONTINUOUS
10
-105.500000
20
-33.029100
30
0.0
11
-105.500000
21
-40.980600
31
0.0
0
LINE
8
0
6
CONTINUOUS
10
-105.614000
20
-51.990300
30
0.0
11
-105.674000
21
-51.990300
31
0.0
0
LINE
8
0
6
CONTINUOUS
10
-105.614000
20
-51.990300
30
0.0
11
-106.198000
21
-52.500000
31
0.0
0
LINE
8
0
6
CONTINUOUS
10
-105.614000
20
-51.990300
30
0.0
11
-105.614000
21
-42.400600
31
0.0
0
LINE
8
0
6
CONTINUOUS
10
-105.674000
20
-51.990300
30
0.0
11
-105.614000
21
-51.990300
31
0.0
0
LINE
8
0
6
CONTINUOUS
10
-106.181000
20
-33.029100
30
0.0
11
-106.729000
21
-33.029100
31
0.0
0
LINE
8
0
6
CONTINUOUS
10
-105.560000
20
-33.029100
30
0.0
11
-105.790000
21
-33.029100
31
0.0
0
LINE
8
0
6
CONTINUOUS
10
-105.790000
20
-33.029100
30
0.0
11
-106.181000
21
-33.029100
31
0.0
0
LINE
8
0
6
CONTINUOUS
10
-105.790000
20
-40.980600
30
0.0
11
-106.181000
21
-40.980600
31
0.0
0
LINE
8
0
6
CONTINUOUS
10
-106.270000
20
-32.892600
30
0.0
11
-106.616000
21
-32.892600
31
0.0
0
LINE
8
0
6
CONTINUOUS
10
-105.790000
20
-33.029100
30
0.0
11
-105.560000
21
-33.029100
31
0.0
0
LINE
8
0
6
CONTINUOUS
10
-105.902000
20
-51.990300
30
0.0
11
-105.674000
21
-51.990300
31
0.0
0
LINE
8
0
6
CONTINUOUS
10
-105.674000
20
-51.990300
30
0.0
11
-105.902000
21
-51.990300
31
0.0
0
LINE
8
0
6
CONTINUOUS
10
-105.560000
20
-40.980600
30
0.0
11
-105.790000
21
-40.980600
31
0.0
0
LINE
8
0
6
CONTINUOUS
10
-105.560000
20
-33.029100
30
0.0
11
-105.790000
21
-33.029100
31
0.0
0
LINE
8
0
6
CONTINUOUS
10
-105.790000
20
-40.980600
30
0.0
11
-105.560000
21
-40.980600
31
0.0
0
LINE
8
0
6
CONTINUOUS
10
-106.091000
20
-32.892600
30
0.0
11
-106.270000
21
-32.892600
31
0.0
0
LINE
8
0
6
CONTINUOUS
10
-106.091000
20
-32.892600
30
0.0
11
-106.270000
21
-32.892600
31
0.0
0
LINE
8
0
6
CONTINUOUS
10
-105.560000
20
-33.029100
30
0.0
11
-106.091000
21
-32.892600
31
0.0
0
LINE
8
0
6
CONTINUOUS
10
-106.270000
20
-32.111700
30
0.0
11
-106.091000
21
-32.111700
31
0.0
0
LINE
8
0
6
CONTINUOUS
10
-106.660000
20
-31.601900
30
0.0
11
-106.834000
21
-31.601900
31
0.0
0
LINE
8
0
6
CONTINUOUS
10
-106.270000
20
-32.892600
30
0.0
11
-106.091000
21
-32.892600
31
0.0
0
LINE
8
0
6
CONTINUOUS
10
-106.091000
20
-32.111700
30
0.0
11
-106.270000
21
-32.111700
31
0.0
0
LINE
8
0
6
CONTINUOUS
10
-111.664000
20
-51.990300
30
0.0
11
-112.987000
21
-51.990300
31
0.0
0
LINE
8
0
6
CONTINUOUS
10
-111.591000
20
-40.980600
30
0.0
11
-112.922000
21
-40.980600
31
0.0
0
LINE
8
0
6
CONTINUOUS
10
-111.664000
20
-51.990300
30
0.0
11
-110.447000
21
-51.990300
31
0.0
0
LINE
8
0
6
CONTINUOUS
10
-110.447000
20
-51.990300
30
0.0
11
-111.664000
21
-51.990300
31
0.0
0
LINE
8
0
6
CONTINUOUS
10
-111.591000
20
-40.980600
30
0.0
11
-110.364000
21
-40.980600
31
0.0
0
LINE
8
0
6
CONTINUOUS
10
-110.364000
20
-33.029100
30
0.0
11
-111.591000
21
-33.029100
31
0.0
0
LINE
8
0
6
CONTINUOUS
10
-110.364000
20
-40.980600
30
0.0
11
-111.591000
21
-40.980600
31
0.0
0
LINE
8
0
6
CONTINUOUS
10
-111.878000
20
-32.892600
30
0.0
11
-113.201000
21
-32.892600
31
0.0
0
LINE
8
0
6
CONTINUOUS
10
-111.591000
20
-33.029100
30
0.0
11
-110.364000
21
-33.029100
31
0.0
0
LINE
8
0
6
CONTINUOUS
10
-113.201000
20
-32.111700
30
0.0
11
-111.878000
21
-32.111700
31
0.0
0
LINE
8
0
6
CONTINUOUS
10
-112.247000
20
-31.601900
30
0.0
11
-113.524000
21
-31.601900
31
0.0
0
LINE
8
0
6
CONTINUOUS
10
-111.878000
20
-32.111700
30
0.0
11
-113.201000
21
-32.111700
31
0.0
0
LINE
8
0
6
CONTINUOUS
10
-117.686000
20
-32.892600
30
0.0
11
-119.299000
21
-32.892600
31
0.0
0
LINE
8
0
6
CONTINUOUS
10
-119.030000
20
-33.029100
30
0.0
11
-117.415000
21
-33.029100
31
0.0
0
LINE
8
0
6
CONTINUOUS
10
-119.299000
20
-32.892600
30
0.0
11
-117.686000
21
-32.892600
31
0.0
0
LINE
8
0
6
CONTINUOUS
10
-117.686000
20
-32.111700
30
0.0
11
-119.299000
21
-32.111700
31
0.0
0
LINE
8
0
6
CONTINUOUS
10
-119.030000
20
-40.980600
30
0.0
11
-117.415000
21
-40.980600
31
0.0
0
LINE
8
0
6
CONTINUOUS
10
-117.415000
20
-33.029100
30
0.0
11
-119.030000
21
-33.029100
31
0.0
0
LINE
8
0
6
CONTINUOUS
10
-117.415000
20
-40.980600
30
0.0
11
-115.849000
21
-40.980600
31
0.0
0
LINE
8
0
6
CONTINUOUS
10
-115.849000
20
-33.029100
30
0.0
11
-117.415000
21
-33.029100
31
0.0
0
LINE
8
0
6
CONTINUOUS
10
-116.119000
20
-32.892600
30
0.0
11
-114.620000
21
-32.892600
31
0.0
0
LINE
8
0
6
CONTINUOUS
10
-114.620000
20
-32.111700
30
0.0
11
-116.119000
21
-32.111700
31
0.0
0
LINE
8
0
6
CONTINUOUS
10
-114.893000
20
-31.601900
30
0.0
11
-116.341000
21
-31.601900
31
0.0
0
LINE
8
0
6
CONTINUOUS
10
-116.119000
20
-32.111700
30
0.0
11
-114.620000
21
-32.111700
31
0.0
0
LINE
8
0
6
CONTINUOUS
10
-117.415000
20
-40.980600
30
0.0
11
-119.030000
21
-40.980600
31
0.0
0
LINE
8
0
6
CONTINUOUS
10
-115.849000
20
-40.980600
30
0.0
11
-114.347000
21
-40.980600
31
0.0
0
LINE
8
0
6
CONTINUOUS
10
-114.347000
20
-33.029100
30
0.0
11
-115.849000
21
-33.029100
31
0.0
0
LINE
8
0
6
CONTINUOUS
10
-115.849000
20
-40.980600
30
0.0
11
-117.415000
21
-40.980600
31
0.0
0
LINE
8
0
6
CONTINUOUS
10
-114.347000
20
-40.980600
30
0.0
11
-115.849000
21
-40.980600
31
0.0
0
LINE
8
0
6
CONTINUOUS
10
-117.686000
20
-32.892600
30
0.0
11
-116.119000
21
-32.892600
31
0.0
0
LINE
8
0
6
CONTINUOUS
10
-116.119000
20
-32.111700
30
0.0
11
-117.686000
21
-32.111700
31
0.0
0
LINE
8
0
6
CONTINUOUS
10
-116.119000
20
-32.892600
30
0.0
11
-117.686000
21
-32.892600
31
0.0
0
LINE
8
0
6
CONTINUOUS
10
-117.415000
20
-33.029100
30
0.0
11
-115.849000
21
-33.029100
31
0.0
0
LINE
8
0
6
CONTINUOUS
10
-117.686000
20
-32.111700
30
0.0
11
-116.119000
21
-32.111700
31
0.0
0
LINE
8
0
6
CONTINUOUS
10
-116.341000
20
-31.601900
30
0.0
11
-117.852000
21
-31.601900
31
0.0
0
LINE
8
0
6
CONTINUOUS
10
-114.620000
20
-32.892600
30
0.0
11
-116.119000
21
-32.892600
31
0.0
0
LINE
8
0
6
CONTINUOUS
10
-115.849000
20
-33.029100
30
0.0
11
-114.347000
21
-33.029100
31
0.0
0
LINE
8
0
6
CONTINUOUS
10
-122.500000
20
-33.029100
30
0.0
11
-122.345000
21
-33.029100
31
0.0
0
LINE
8
0
6
CONTINUOUS
10
-120.948000
20
-32.892600
30
0.0
11
-122.500000
21
-32.892600
31
0.0
0
LINE
8
0
6
CONTINUOUS
10
-120.948000
20
-32.892600
30
0.0
11
-122.500000
21
-32.892600
31
0.0
0
LINE
8
0
6
CONTINUOUS
10
-122.500000
20
-32.949400
30
0.0
11
-120.948000
21
-32.892600
31
0.0
0
LINE
8
0
6
CONTINUOUS
10
-122.345000
20
-33.029100
30
0.0
11
-120.678000
21
-33.029100
31
0.0
0
LINE
8
0
6
CONTINUOUS
10
-121.000000
20
-31.601900
30
0.0
11
-122.500000
21
-31.601900
31
0.0
0
LINE
8
0
6
CONTINUOUS
10
-122.500000
20
-32.111700
30
0.0
11
-120.947000
21
-32.111700
31
0.0
0
LINE
8
0
6
CONTINUOUS
10
-122.500000
20
-32.892600
30
0.0
11
-120.948000
21
-32.892600
31
0.0
0
LINE
8
0
6
CONTINUOUS
10
-120.947000
20
-32.111700
30
0.0
11
-122.500000
21
-32.111700
31
0.0
0
LINE
8
0
6
CONTINUOUS
10
-120.947000
20
-41.694200
30
0.0
11
-122.500000
21
-41.694200
31
0.0
0
LINE
8
0
6
CONTINUOUS
10
-122.500000
20
-41.989600
30
0.0
11
-120.947000
21
-41.694200
31
0.0
0
LINE
8
0
6
CONTINUOUS
10
-122.345000
20
-40.980600
30
0.0
11
-122.500000
21
-40.980600
31
0.0
0
LINE
8
0
6
CONTINUOUS
10
-122.500000
20
-40.980600
30
0.0
11
-122.345000
21
-40.980600
31
0.0
0
LINE
8
0
6
CONTINUOUS
10
-122.345000
20
-33.029100
30
0.0
11
-122.500000
21
-33.029100
31
0.0
0
LINE
8
0
6
CONTINUOUS
10
-122.345000
20
-40.980600
30
0.0
11
-120.678000
21
-40.980600
31
0.0
0
LINE
8
0
6
CONTINUOUS
10
-120.678000
20
-33.029100
30
0.0
11
-122.345000
21
-33.029100
31
0.0
0
LINE
8
0
6
CONTINUOUS
10
-120.948000
20
-32.892600
30
0.0
11
-119.299000
21
-32.892600
31
0.0
0
LINE
8
0
6
CONTINUOUS
10
-119.299000
20
-32.111700
30
0.0
11
-120.947000
21
-32.111700
31
0.0
0
LINE
8
0
6
CONTINUOUS
10
-120.947000
20
-32.111700
30
0.0
11
-119.299000
21
-32.111700
31
0.0
0
LINE
8
0
6
CONTINUOUS
10
-119.410000
20
-31.601900
30
0.0
11
-121.000000
21
-31.601900
31
0.0
0
LINE
8
0
6
CONTINUOUS
10
-119.299000
20
-32.111700
30
0.0
11
-117.686000
21
-32.111700
31
0.0
0
LINE
8
0
6
CONTINUOUS
10
-117.852000
20
-31.601900
30
0.0
11
-119.410000
21
-31.601900
31
0.0
0
LINE
8
0
6
CONTINUOUS
10
-120.678000
20
-40.980600
30
0.0
11
-119.030000
21
-40.980600
31
0.0
0
LINE
8
0
6
CONTINUOUS
10
-119.030000
20
-33.029100
30
0.0
11
-120.678000
21
-33.029100
31
0.0
0
LINE
8
0
6
CONTINUOUS
10
-120.678000
20
-40.980600
30
0.0
11
-122.345000
21
-40.980600
31
0.0
0
LINE
8
0
6
CONTINUOUS
10
-119.299000
20
-32.892600
30
0.0
11
-120.948000
21
-32.892600
31
0.0
0
LINE
8
0
6
CONTINUOUS
10
-120.678000
20
-33.029100
30
0.0
11
-119.030000
21
-33.029100
31
0.0
0
LINE
8
0
6
CONTINUOUS
10
-119.030000
20
-40.980600
30
0.0
11
-120.678000
21
-40.980600
31
0.0
0
LINE
8
0
6
CONTINUOUS
10
-115.893000
20
-51.990300
30
0.0
11
-117.449000
21
-51.990300
31
0.0
0
LINE
8
0
6
CONTINUOUS
10
-114.400000
20
-51.990300
30
0.0
11
-115.893000
21
-51.990300
31
0.0
0
LINE
8
0
6
CONTINUOUS
10
-122.346000
20
-51.990300
30
0.0
11
-122.500000
21
-51.990300
31
0.0
0
LINE
8
0
6
CONTINUOUS
10
-120.691000
20
-51.990300
30
0.0
11
-122.346000
21
-51.990300
31
0.0
0
LINE
8
0
6
CONTINUOUS
10
-120.958000
20
-52.500000
30
0.0
11
-120.691000
21
-51.990300
31
0.0
0
LINE
8
0
6
CONTINUOUS
10
-122.346000
20
-51.990300
30
0.0
11
-120.958000
21
-52.500000
31
0.0
0
LINE
8
0
6
CONTINUOUS
10
-120.691000
20
-51.990300
30
0.0
11
-122.346000
21
-51.990300
31
0.0
0
LINE
8
0
6
CONTINUOUS
10
-119.053000
20
-51.990300
30
0.0
11
-120.691000
21
-51.990300
31
0.0
0
LINE
8
0
6
CONTINUOUS
10
-117.449000
20
-51.990300
30
0.0
11
-119.053000
21
-51.990300
31
0.0
0
LINE
8
0
6
CONTINUOUS
10
-117.449000
20
-51.990300
30
0.0
11
-115.893000
21
-51.990300
31
0.0
0
LINE
8
0
6
CONTINUOUS
10
-115.893000
20
-51.990300
30
0.0
11
-114.400000
21
-51.990300
31
0.0
0
LINE
8
0
6
CONTINUOUS
10
-122.500000
20
-51.990300
30
0.0
11
-122.346000
21
-51.990300
31
0.0
0
LINE
8
0
6
CONTINUOUS
10
-122.346000
20
-51.990300
30
0.0
11
-120.691000
21
-51.990300
31
0.0
0
LINE
8
0
6
CONTINUOUS
10
-120.691000
20
-51.990300
30
0.0
11
-119.053000
21
-51.990300
31
0.0
0
LINE
8
0
6
CONTINUOUS
10
-119.053000
20
-51.990300
30
0.0
11
-117.449000
21
-51.990300
31
0.0
0
LINE
8
0
6
CONTINUOUS
10
-116.341000
20
-31.601900
30
0.0
11
-114.893000
21
-31.601900
31
0.0
0
LINE
8
0
6
CONTINUOUS
10
-117.852000
20
-31.601900
30
0.0
11
-116.341000
21
-31.601900
31
0.0
0
LINE
8
0
6
CONTINUOUS
10
-119.410000
20
-31.601900
30
0.0
11
-117.852000
21
-31.601900
31
0.0
0
LINE
8
0
6
CONTINUOUS
10
-121.000000
20
-31.601900
30
0.0
11
-119.410000
21
-31.601900
31
0.0
0
LINE
8
0
6
CONTINUOUS
10
-122.500000
20
-31.601900
30
0.0
11
-121.000000
21
-31.601900
31
0.0
0
LINE
8
0
6
CONTINUOUS
10
-114.893000
20
-31.601900
30
0.0
11
-113.524000
21
-31.601900
31
0.0
0
LINE
8
0
6
CONTINUOUS
10
-113.524000
20
-31.601900
30
0.0
11
-112.247000
21
-31.601900
31
0.0
0
LINE
8
0
6
CONTINUOUS
10
-112.247000
20
-31.601900
30
0.0
11
-111.074000
21
-31.601900
31
0.0
0
LINE
8
0
6
CONTINUOUS
10
-110.020000
20
-31.601900
30
0.0
11
-109.093000
21
-31.601900
31
0.0
0
LINE
8
0
6
CONTINUOUS
10
-111.074000
20
-31.601900
30
0.0
11
-110.020000
21
-31.601900
31
0.0
0
LINE
8
0
6
CONTINUOUS
10
-114.347000
20
-40.980600
30
0.0
11
-112.922000
21
-40.980600
31
0.0
0
LINE
8
0
6
CONTINUOUS
10
-112.922000
20
-33.029100
30
0.0
11
-114.347000
21
-33.029100
31
0.0
0
LINE
8
0
6
CONTINUOUS
10
-114.400000
20
-51.990300
30
0.0
11
-112.987000
21
-51.990300
31
0.0
0
LINE
8
0
6
CONTINUOUS
10
-112.987000
20
-51.990300
30
0.0
11
-114.400000
21
-51.990300
31
0.0
0
LINE
8
0
6
CONTINUOUS
10
-112.922000
20
-40.980600
30
0.0
11
-114.347000
21
-40.980600
31
0.0
0
LINE
8
0
6
CONTINUOUS
10
-113.201000
20
-32.892600
30
0.0
11
-114.620000
21
-32.892600
31
0.0
0
LINE
8
0
6
CONTINUOUS
10
-114.347000
20
-33.029100
30
0.0
11
-112.922000
21
-33.029100
31
0.0
0
LINE
8
0
6
CONTINUOUS
10
-114.620000
20
-32.111700
30
0.0
11
-113.201000
21
-32.111700
31
0.0
0
LINE
8
0
6
CONTINUOUS
10
-113.524000
20
-31.601900
30
0.0
11
-114.893000
21
-31.601900
31
0.0
0
LINE
8
0
6
CONTINUOUS
10
-114.620000
20
-32.892600
30
0.0
11
-113.201000
21
-32.892600
31
0.0
0
LINE
8
0
6
CONTINUOUS
10
-113.201000
20
-32.111700
30
0.0
11
-114.620000
21
-32.111700
31
0.0
0
LINE
8
0
6
CONTINUOUS
10
-106.834000
20
-31.601900
30
0.0
11
-106.660000
21
-31.601900
31
0.0
0
LINE
8
0
6
CONTINUOUS
10
-109.093000
20
-31.601900
30
0.0
11
-108.303000
21
-31.601900
31
0.0
0
LINE
8
0
6
CONTINUOUS
10
-110.364000
20
-33.029100
30
0.0
11
-111.591000
21
-33.029100
31
0.0
0
LINE
8
0
6
CONTINUOUS
10
-108.273000
20
-33.029100
30
0.0
11
-109.255000
21
-33.029100
31
0.0
0
LINE
8
0
6
CONTINUOUS
10
-107.429000
20
-33.029100
30
0.0
11
-108.273000
21
-33.029100
31
0.0
0
LINE
8
0
6
CONTINUOUS
10
-106.729000
20
-33.029100
30
0.0
11
-107.429000
21
-33.029100
31
0.0
0
LINE
8
0
6
CONTINUOUS
10
-135.605000
20
-10.500000
30
0.0
11
-135.380000
21
-10.500000
31
0.0
0
LINE
8
0
6
CONTINUOUS
10
-132.006000
20
-27.130800
30
0.0
11
-135.108000
21
-24.255000
31
0.0
0
LINE
8
0
6
CONTINUOUS
10
-135.285000
20
-24.255000
30
0.0
11
-132.006000
21
-27.130800
31
0.0
0
LINE
8
0
6
CONTINUOUS
10
-135.108000
20
-24.255000
30
0.0
11
-135.285000
21
-24.255000
31
0.0
0
LINE
8
0
6
CONTINUOUS
10
-135.285000
20
-24.255000
30
0.0
11
-133.575000
21
-25.782300
31
0.0
0
LINE
8
0
6
CONTINUOUS
10
-132.283000
20
-28.883200
30
0.0
11
-131.975000
21
-28.605900
31
0.0
0
LINE
8
0
6
CONTINUOUS
10
-132.105000
20
-28.605900
30
0.0
11
-132.283000
21
-28.883200
31
0.0
0
LINE
8
0
6
CONTINUOUS
10
-131.975000
20
-28.605900
30
0.0
11
-132.105000
21
-28.605900
31
0.0
0
LINE
8
0
6
CONTINUOUS
10
-132.105000
20
-28.605900
30
0.0
11
-131.823000
21
-28.274600
31
0.0
0
LINE
8
0
6
CONTINUOUS
10
-131.720000
20
-27.876000
30
0.0
11
-131.803000
21
-27.473300
31
0.0
0
LINE
8
0
6
CONTINUOUS
10
-131.823000
20
-28.274600
30
0.0
11
-131.720000
21
-27.876000
31
0.0
0
LINE
8
0
6
CONTINUOUS
10
-131.959000
20
-27.268700
30
0.0
11
-131.803000
21
-27.473300
31
0.0
0
LINE
8
0
6
CONTINUOUS
10
-135.623000
20
-23.534200
30
0.0
11
-135.532000
21
-23.924700
31
0.0
0
LINE
8
0
6
CONTINUOUS
10
-135.532000
20
-23.924700
30
0.0
11
-135.285000
21
-24.255000
31
0.0
0
LINE
8
0
6
CONTINUOUS
10
-132.105000
20
-28.605900
30
0.0
11
-132.284000
21
-28.751700
31
0.0
0
LINE
8
0
6
CONTINUOUS
10
-135.605000
20
-10.500000
30
0.0
11
-135.623000
21
-23.534200
31
0.0
0
LINE
8
0
6
CONTINUOUS
10
-135.380000
20
-10.500000
30
0.0
11
-135.605000
21
-10.500000
31
0.0
0
LINE
8
0
6
CONTINUOUS
10
-134.219000
20
-10.500000
30
0.0
11
-133.305000
21
-10.500000
31
0.0
0
LINE
8
0
6
CONTINUOUS
10
-134.219000
20
-10.500000
30
0.0
11
-134.915000
21
-10.500000
31
0.0
0
LINE
8
0
6
CONTINUOUS
10
-133.305000
20
-10.500000
30
0.0
11
-134.219000
21
-10.500000
31
0.0
0
LINE
8
0
6
CONTINUOUS
10
-135.380000
20
-10.500000
30
0.0
11
-134.915000
21
-10.500000
31
0.0
0
LINE
8
0
6
CONTINUOUS
10
-134.915000
20
-10.500000
30
0.0
11
-134.219000
21
-10.500000
31
0.0
0
LINE
8
0
6
CONTINUOUS
10
-134.915000
20
-10.500000
30
0.0
11
-135.380000
21
-10.500000
31
0.0
0
LINE
8
0
6
CONTINUOUS
10
-138.730000
20
-32.111700
30
0.0
11
-138.909000
21
-32.111700
31
0.0
0
LINE
8
0
6
CONTINUOUS
10
-138.909000
20
-32.892600
30
0.0
11
-138.730000
21
-32.892600
31
0.0
0
LINE
8
0
6
CONTINUOUS
10
-138.909000
20
-32.111700
30
0.0
11
-138.730000
21
-32.111700
31
0.0
0
LINE
8
0
6
CONTINUOUS
10
-138.166000
20
-31.601900
30
0.0
11
-138.340000
21
-31.601900
31
0.0
0
LINE
8
0
6
CONTINUOUS
10
-139.440000
20
-33.029100
30
0.0
11
-138.730000
21
-32.892600
31
0.0
0
LINE
8
0
6
CONTINUOUS
10
-138.909000
20
-32.892600
30
0.0
11
-139.440000
21
-33.029100
31
0.0
0
LINE
8
0
6
CONTINUOUS
10
-138.730000
20
-32.892600
30
0.0
11
-138.909000
21
-32.892600
31
0.0
0
LINE
8
0
6
CONTINUOUS
10
-138.730000
20
-32.892600
30
0.0
11
-138.909000
21
-32.892600
31
0.0
0
LINE
8
0
6
CONTINUOUS
10
-139.440000
20
-40.980600
30
0.0
11
-139.211000
21
-40.980600
31
0.0
0
LINE
8
0
6
CONTINUOUS
10
-139.211000
20
-33.029100
30
0.0
11
-139.440000
21
-33.029100
31
0.0
0
LINE
8
0
6
CONTINUOUS
10
-139.500000
20
-33.029100
30
0.0
11
-139.440000
21
-33.029100
31
0.0
0
LINE
8
0
6
CONTINUOUS
10
-139.440000
20
-40.980600
30
0.0
11
-139.500000
21
-40.980600
31
0.0
0
LINE
8
0
6
CONTINUOUS
10
-139.211000
20
-40.980600
30
0.0
11
-139.440000
21
-40.980600
31
0.0
0
LINE
8
0
6
CONTINUOUS
10
-139.440000
20
-33.029100
30
0.0
11
-139.500000
21
-33.029100
31
0.0
0
LINE
8
0
6
CONTINUOUS
10
-139.500000
20
-40.980600
30
0.0
11
-139.440000
21
-40.980600
31
0.0
0
LINE
8
0
6
CONTINUOUS
10
-139.098000
20
-51.990300
30
0.0
11
-139.326000
21
-51.990300
31
0.0
0
LINE
8
0
6
CONTINUOUS
10
-139.326000
20
-51.990300
30
0.0
11
-139.386000
21
-51.990300
31
0.0
0
LINE
8
0
6
CONTINUOUS
10
-139.386000
20
-51.990300
30
0.0
11
-139.326000
21
-51.990300
31
0.0
0
LINE
8
0
6
CONTINUOUS
10
-139.326000
20
-51.990300
30
0.0
11
-139.098000
21
-51.990300
31
0.0
0
LINE
8
0
6
CONTINUOUS
10
-138.384000
20
-32.111700
30
0.0
11
-137.875000
21
-32.111700
31
0.0
0
LINE
8
0
6
CONTINUOUS
10
-137.341000
20
-31.601900
30
0.0
11
-137.833000
21
-31.601900
31
0.0
0
LINE
8
0
6
CONTINUOUS
10
-137.875000
20
-32.111700
30
0.0
11
-138.384000
21
-32.111700
31
0.0
0
LINE
8
0
6
CONTINUOUS
10
-138.384000
20
-32.892600
30
0.0
11
-137.875000
21
-32.892600
31
0.0
0
LINE
8
0
6
CONTINUOUS
10
-137.571000
20
-33.029100
30
0.0
11
-138.271000
21
-33.029100
31
0.0
0
LINE
8
0
6
CONTINUOUS
10
-138.271000
20
-40.980600
30
0.0
11
-137.571000
21
-40.980600
31
0.0
0
LINE
8
0
6
CONTINUOUS
10
-137.208000
20
-32.111700
30
0.0
11
-137.875000
21
-32.111700
31
0.0
0
LINE
8
0
6
CONTINUOUS
10
-137.875000
20
-32.892600
30
0.0
11
-137.207000
21
-32.892600
31
0.0
0
LINE
8
0
6
CONTINUOUS
10
-138.819000
20
-33.029100
30
0.0
11
-138.271000
21
-33.029100
31
0.0
0
LINE
8
0
6
CONTINUOUS
10
-137.207000
20
-32.892600
30
0.0
11
-137.875000
21
-32.892600
31
0.0
0
LINE
8
0
6
CONTINUOUS
10
-137.875000
20
-32.111700
30
0.0
11
-137.208000
21
-32.111700
31
0.0
0
LINE
8
0
6
CONTINUOUS
10
-136.697000
20
-31.601900
30
0.0
11
-137.341000
21
-31.601900
31
0.0
0
LINE
8
0
6
CONTINUOUS
10
-138.271000
20
-33.029100
30
0.0
11
-138.819000
21
-33.029100
31
0.0
0
LINE
8
0
6
CONTINUOUS
10
-138.819000
20
-40.980600
30
0.0
11
-138.271000
21
-40.980600
31
0.0
0
LINE
8
0
6
CONTINUOUS
10
-137.571000
20
-40.980600
30
0.0
11
-138.271000
21
-40.980600
31
0.0
0
LINE
8
0
6
CONTINUOUS
10
-137.471000
20
-51.990300
30
0.0
11
-138.166000
21
-51.990300
31
0.0
0
LINE
8
0
6
CONTINUOUS
10
-138.166000
20
-51.990300
30
0.0
11
-138.709000
21
-51.990300
31
0.0
0
LINE
8
0
6
CONTINUOUS
10
-138.709000
20
-51.990300
30
0.0
11
-138.166000
21
-51.990300
31
0.0
0
LINE
8
0
6
CONTINUOUS
10
-138.166000
20
-51.990300
30
0.0
11
-137.471000
21
-51.990300
31
0.0
0
LINE
8
0
6
CONTINUOUS
10
-137.341000
20
-31.601900
30
0.0
11
-136.697000
21
-31.601900
31
0.0
0
LINE
8
0
6
CONTINUOUS
10
-137.833000
20
-31.601900
30
0.0
11
-137.341000
21
-31.601900
31
0.0
0
LINE
8
0
6
CONTINUOUS
10
-138.166000
20
-31.601900
30
0.0
11
-137.833000
21
-31.601900
31
0.0
0
LINE
8
0
6
CONTINUOUS
10
-139.440000
20
-33.029100
30
0.0
11
-139.211000
21
-33.029100
31
0.0
0
LINE
8
0
6
CONTINUOUS
10
-138.384000
20
-32.892600
30
0.0
11
-138.730000
21
-32.892600
31
0.0
0
LINE
8
0
6
CONTINUOUS
10
-138.384000
20
-32.111700
30
0.0
11
-138.730000
21
-32.111700
31
0.0
0
LINE
8
0
6
CONTINUOUS
10
-138.730000
20
-32.892600
30
0.0
11
-138.384000
21
-32.892600
31
0.0
0
LINE
8
0
6
CONTINUOUS
10
-138.730000
20
-32.111700
30
0.0
11
-138.384000
21
-32.111700
31
0.0
0
LINE
8
0
6
CONTINUOUS
10
-137.833000
20
-31.601900
30
0.0
11
-138.166000
21
-31.601900
31
0.0
0
LINE
8
0
6
CONTINUOUS
10
-139.211000
20
-33.029100
30
0.0
11
-138.819000
21
-33.029100
31
0.0
0
LINE
8
0
6
CONTINUOUS
10
-137.875000
20
-32.892600
30
0.0
11
-138.384000
21
-32.892600
31
0.0
0
LINE
8
0
6
CONTINUOUS
10
-138.271000
20
-40.980600
30
0.0
11
-138.819000
21
-40.980600
31
0.0
0
LINE
8
0
6
CONTINUOUS
10
-138.819000
20
-40.980600
30
0.0
11
-139.211000
21
-40.980600
31
0.0
0
LINE
8
0
6
CONTINUOUS
10
-139.211000
20
-40.980600
30
0.0
11
-138.819000
21
-40.980600
31
0.0
0
LINE
8
0
6
CONTINUOUS
10
-138.819000
20
-33.029100
30
0.0
11
-139.211000
21
-33.029100
31
0.0
0
LINE
8
0
6
CONTINUOUS
10
-138.709000
20
-51.990300
30
0.0
11
-139.098000
21
-51.990300
31
0.0
0
LINE
8
0
6
CONTINUOUS
10
-139.098000
20
-51.990300
30
0.0
11
-138.709000
21
-51.990300
31
0.0
0
LINE
8
0
6
CONTINUOUS
10
-136.697000
20
-31.601900
30
0.0
11
-135.907000
21
-31.601900
31
0.0
0
LINE
8
0
6
CONTINUOUS
10
-138.340000
20
-31.601900
30
0.0
11
-138.166000
21
-31.601900
31
0.0
0
LINE
8
0
6
CONTINUOUS
10
-131.445000
20
-23.534200
30
0.0
11
-131.363000
21
-23.848200
31
0.0
0
LINE
8
0
6
CONTINUOUS
10
-131.445000
20
-22.023500
30
0.0
11
-131.445000
21
-23.534200
31
0.0
0
LINE
8
0
6
CONTINUOUS
10
-131.124000
20
-24.129600
30
0.0
11
-131.363000
21
-23.848200
31
0.0
0
LINE
8
0
6
CONTINUOUS
10
-130.894000
20
-10.500000
30
0.0
11
-129.441000
21
-10.500000
31
0.0
0
LINE
8
0
6
CONTINUOUS
10
-127.859000
20
-10.500000
30
0.0
11
-126.178000
21
-10.500000
31
0.0
0
LINE
8
0
6
CONTINUOUS
10
-129.441000
20
-10.500000
30
0.0
11
-127.859000
21
-10.500000
31
0.0
0
LINE
8
0
6
CONTINUOUS
10
-122.641000
20
-10.500000
30
0.0
11
-122.500000
21
-10.500000
31
0.0
0
LINE
8
0
6
CONTINUOUS
10
-124.428000
20
-10.500000
30
0.0
11
-122.641000
21
-10.500000
31
0.0
0
LINE
8
0
6
CONTINUOUS
10
-126.178000
20
-10.500000
30
0.0
11
-124.428000
21
-10.500000
31
0.0
0
LINE
8
0
6
CONTINUOUS
10
-123.635000
20
-26.965600
30
0.0
11
-125.010000
21
-26.752600
31
0.0
0
LINE
8
0
6
CONTINUOUS
10
-122.500000
20
-27.003700
30
0.0
11
-123.635000
21
-26.965600
31
0.0
0
LINE
8
0
6
CONTINUOUS
10
-125.010000
20
-26.752600
30
0.0
11
-126.618000
21
-26.303000
31
0.0
0
LINE
8
0
6
CONTINUOUS
10
-126.178000
20
-10.500000
30
0.0
11
-127.859000
21
-10.500000
31
0.0
0
LINE
8
0
6
CONTINUOUS
10
-127.100000
20
-21.391400
30
0.0
11
-125.653000
21
-21.287400
31
0.0
0
LINE
8
0
6
CONTINUOUS
10
-122.500000
20
-10.500000
30
0.0
11
-122.641000
21
-10.500000
31
0.0
0
LINE
8
0
6
CONTINUOUS
10
-122.641000
20
-21.203900
30
0.0
11
-122.500000
21
-21.205900
31
0.0
0
LINE
8
0
6
CONTINUOUS
10
-122.641000
20
-10.500000
30
0.0
11
-124.428000
21
-10.500000
31
0.0
0
LINE
8
0
6
CONTINUOUS
10
-124.158000
20
-21.225300
30
0.0
11
-122.641000
21
-21.203900
31
0.0
0
LINE
8
0
6
CONTINUOUS
10
-125.653000
20
-21.287400
30
0.0
11
-124.158000
21
-21.225300
31
0.0
0
LINE
8
0
6
CONTINUOUS
10
-124.428000
20
-10.500000
30
0.0
11
-126.178000
21
-10.500000
31
0.0
0
LINE
8
0
6
CONTINUOUS
10
-129.441000
20
-10.500000
30
0.0
11
-130.894000
21
-10.500000
31
0.0
0
LINE
8
0
6
CONTINUOUS
10
-130.527000
20
-21.839000
30
0.0
11
-129.537000
21
-21.675900
31
0.0
0
LINE
8
0
6
CONTINUOUS
10
-128.484000
20
-21.534200
30
0.0
11
-127.100000
21
-21.391400
31
0.0
0
LINE
8
0
6
CONTINUOUS
10
-127.859000
20
-10.500000
30
0.0
11
-129.441000
21
-10.500000
31
0.0
0
LINE
8
0
6
CONTINUOUS
10
-129.537000
20
-21.675900
30
0.0
11
-128.484000
21
-21.534200
31
0.0
0
LINE
8
0
6
CONTINUOUS
10
-131.445000
20
-22.023500
30
0.0
11
-130.527000
21
-21.839000
31
0.0
0
LINE
8
0
6
CONTINUOUS
10
-130.894000
20
-10.500000
30
0.0
11
-132.190000
21
-10.500000
31
0.0
0
LINE
8
0
6
CONTINUOUS
10
-131.445000
20
-22.023500
30
0.0
11
-122.500000
21
-22.023500
31
0.0
0
LINE
8
0
6
CONTINUOUS
10
-127.100000
20
-21.391400
30
0.0
11
-128.484000
21
-21.534200
31
0.0
0
LINE
8
0
6
CONTINUOUS
10
-125.653000
20
-21.287400
30
0.0
11
-127.100000
21
-21.391400
31
0.0
0
LINE
8
0
6
CONTINUOUS
10
-122.500000
20
-21.205900
30
0.0
11
-122.641000
21
-21.203900
31
0.0
0
LINE
8
0
6
CONTINUOUS
10
-124.158000
20
-21.225300
30
0.0
11
-125.653000
21
-21.287400
31
0.0
0
LINE
8
0
6
CONTINUOUS
10
-122.641000
20
-21.203900
30
0.0
11
-124.158000
21
-21.225300
31
0.0
0
LINE
8
0
6
CONTINUOUS
10
-128.433000
20
-25.571000
30
0.0
11
-126.618000
21
-26.303000
31
0.0
0
LINE
8
0
6
CONTINUOUS
10
-129.615000
20
-24.990000
30
0.0
11
-128.433000
21
-25.571000
31
0.0
0
LINE
8
0
6
CONTINUOUS
10
-123.635000
20
-26.965600
30
0.0
11
-122.500000
21
-27.003700
31
0.0
0
LINE
8
0
6
CONTINUOUS
10
-122.500000
20
-22.023500
30
0.0
11
-131.445000
21
-22.023500
31
0.0
0
LINE
8
0
6
CONTINUOUS
10
-125.010000
20
-26.752600
30
0.0
11
-123.635000
21
-26.965600
31
0.0
0
LINE
8
0
6
CONTINUOUS
10
-126.618000
20
-26.303000
30
0.0
11
-125.010000
21
-26.752600
31
0.0
0
LINE
8
0
6
CONTINUOUS
10
-129.537000
20
-21.675900
30
0.0
11
-130.527000
21
-21.839000
31
0.0
0
LINE
8
0
6
CONTINUOUS
10
-128.484000
20
-21.534200
30
0.0
11
-129.537000
21
-21.675900
31
0.0
0
LINE
8
0
6
CONTINUOUS
10
-130.527000
20
-21.839000
30
0.0
11
-131.445000
21
-22.023500
31
0.0
0
LINE
8
0
6
CONTINUOUS
10
-130.941000
20
-24.255000
30
0.0
11
-129.615000
21
-24.990000
31
0.0
0
LINE
8
0
6
CONTINUOUS
10
-130.941000
20
-24.255000
30
0.0
11
-131.124000
21
-24.129600
31
0.0
0
LINE
8
0
6
CONTINUOUS
10
-131.124000
20
-24.129600
30
0.0
11
-130.941000
21
-24.255000
31
0.0
0
LINE
8
0
6
CONTINUOUS
10
-131.363000
20
-23.848200
30
0.0
11
-131.124000
21
-24.129600
31
0.0
0
LINE
8
0
6
CONTINUOUS
10
-131.799000
20
-32.111700
30
0.0
11
-133.122000
21
-32.111700
31
0.0
0
LINE
8
0
6
CONTINUOUS
10
-133.122000
20
-32.892600
30
0.0
11
-131.799000
21
-32.892600
31
0.0
0
LINE
8
0
6
CONTINUOUS
10
-133.122000
20
-32.111700
30
0.0
11
-131.799000
21
-32.111700
31
0.0
0
LINE
8
0
6
CONTINUOUS
10
-131.476000
20
-31.601900
30
0.0
11
-132.753000
21
-31.601900
31
0.0
0
LINE
8
0
6
CONTINUOUS
10
-134.636000
20
-33.029100
30
0.0
11
-133.409000
21
-33.029100
31
0.0
0
LINE
8
0
6
CONTINUOUS
10
-131.799000
20
-32.892600
30
0.0
11
-133.122000
21
-32.892600
31
0.0
0
LINE
8
0
6
CONTINUOUS
10
-133.122000
20
-32.111700
30
0.0
11
-134.337000
21
-32.111700
31
0.0
0
LINE
8
0
6
CONTINUOUS
10
-134.337000
20
-32.892600
30
0.0
11
-133.122000
21
-32.892600
31
0.0
0
LINE
8
0
6
CONTINUOUS
10
-133.409000
20
-40.980600
30
0.0
11
-134.636000
21
-40.980600
31
0.0
0
LINE
8
0
6
CONTINUOUS
10
-133.409000
20
-33.029100
30
0.0
11
-134.636000
21
-33.029100
31
0.0
0
LINE
8
0
6
CONTINUOUS
10
-134.636000
20
-40.980600
30
0.0
11
-133.409000
21
-40.980600
31
0.0
0
LINE
8
0
6
CONTINUOUS
10
-134.636000
20
-33.029100
30
0.0
11
-135.745000
21
-33.029100
31
0.0
0
LINE
8
0
6
CONTINUOUS
10
-135.745000
20
-40.980600
30
0.0
11
-134.636000
21
-40.980600
31
0.0
0
LINE
8
0
6
CONTINUOUS
10
-134.337000
20
-32.111700
30
0.0
11
-135.430000
21
-32.111700
31
0.0
0
LINE
8
0
6
CONTINUOUS
10
-135.430000
20
-32.892600
30
0.0
11
-134.337000
21
-32.892600
31
0.0
0
LINE
8
0
6
CONTINUOUS
10
-135.430000
20
-32.111700
30
0.0
11
-134.337000
21
-32.111700
31
0.0
0
LINE
8
0
6
CONTINUOUS
10
-133.926000
20
-31.601900
30
0.0
11
-134.980000
21
-31.601900
31
0.0
0
LINE
8
0
6
CONTINUOUS
10
-135.745000
20
-33.029100
30
0.0
11
-134.636000
21
-33.029100
31
0.0
0
LINE
8
0
6
CONTINUOUS
10
-133.122000
20
-32.892600
30
0.0
11
-134.337000
21
-32.892600
31
0.0
0
LINE
8
0
6
CONTINUOUS
10
-134.636000
20
-40.980600
30
0.0
11
-135.745000
21
-40.980600
31
0.0
0
LINE
8
0
6
CONTINUOUS
10
-134.337000
20
-32.111700
30
0.0
11
-133.122000
21
-32.111700
31
0.0
0
LINE
8
0
6
CONTINUOUS
10
-132.753000
20
-31.601900
30
0.0
11
-133.926000
21
-31.601900
31
0.0
0
LINE
8
0
6
CONTINUOUS
10
-136.727000
20
-33.029100
30
0.0
11
-135.745000
21
-33.029100
31
0.0
0
LINE
8
0
6
CONTINUOUS
10
-134.337000
20
-32.892600
30
0.0
11
-135.430000
21
-32.892600
31
0.0
0
LINE
8
0
6
CONTINUOUS
10
-135.745000
20
-33.029100
30
0.0
11
-136.727000
21
-33.029100
31
0.0
0
LINE
8
0
6
CONTINUOUS
10
-136.727000
20
-40.980600
30
0.0
11
-135.745000
21
-40.980600
31
0.0
0
LINE
8
0
6
CONTINUOUS
10
-135.745000
20
-40.980600
30
0.0
11
-136.727000
21
-40.980600
31
0.0
0
LINE
8
0
6
CONTINUOUS
10
-135.430000
20
-32.111700
30
0.0
11
-136.390000
21
-32.111700
31
0.0
0
LINE
8
0
6
CONTINUOUS
10
-136.390000
20
-32.892600
30
0.0
11
-135.430000
21
-32.892600
31
0.0
0
LINE
8
0
6
CONTINUOUS
10
-133.336000
20
-51.990300
30
0.0
11
-134.554000
21
-51.990300
31
0.0
0
LINE
8
0
6
CONTINUOUS
10
-134.554000
20
-51.990300
30
0.0
11
-135.656000
21
-51.990300
31
0.0
0
LINE
8
0
6
CONTINUOUS
10
-135.656000
20
-51.990300
30
0.0
11
-136.631000
21
-51.990300
31
0.0
0
LINE
8
0
6
CONTINUOUS
10
-136.631000
20
-51.990300
30
0.0
11
-135.656000
21
-51.990300
31
0.0
0
LINE
8
0
6
CONTINUOUS
10
-134.554000
20
-51.990300
30
0.0
11
-133.336000
21
-51.990300
31
0.0
0
LINE
8
0
6
CONTINUOUS
10
-135.656000
20
-51.990300
30
0.0
11
-134.554000
21
-51.990300
31
0.0
0
LINE
8
0
6
CONTINUOUS
10
-133.409000
20
-33.029100
30
0.0
11
-132.078000
21
-33.029100
31
0.0
0
LINE
8
0
6
CONTINUOUS
10
-132.078000
20
-40.980600
30
0.0
11
-133.409000
21
-40.980600
31
0.0
0
LINE
8
0
6
CONTINUOUS
10
-132.078000
20
-33.029100
30
0.0
11
-133.409000
21
-33.029100
31
0.0
0
LINE
8
0
6
CONTINUOUS
10
-133.409000
20
-40.980600
30
0.0
11
-132.078000
21
-40.980600
31
0.0
0
LINE
8
0
6
CONTINUOUS
10
-132.013000
20
-51.990300
30
0.0
11
-133.336000
21
-51.990300
31
0.0
0
LINE
8
0
6
CONTINUOUS
10
-133.336000
20
-51.990300
30
0.0
11
-132.013000
21
-51.990300
31
0.0
0
LINE
8
0
6
CONTINUOUS
10
-128.659000
20
-31.601900
30
0.0
11
-130.107000
21
-31.601900
31
0.0
0
LINE
8
0
6
CONTINUOUS
10
-130.380000
20
-32.111700
30
0.0
11
-128.881000
21
-32.111700
31
0.0
0
LINE
8
0
6
CONTINUOUS
10
-130.653000
20
-33.029100
30
0.0
11
-129.151000
21
-33.029100
31
0.0
0
LINE
8
0
6
CONTINUOUS
10
-128.881000
20
-32.892600
30
0.0
11
-130.380000
21
-32.892600
31
0.0
0
LINE
8
0
6
CONTINUOUS
10
-128.881000
20
-32.111700
30
0.0
11
-130.380000
21
-32.111700
31
0.0
0
LINE
8
0
6
CONTINUOUS
10
-130.380000
20
-32.892600
30
0.0
11
-128.881000
21
-32.892600
31
0.0
0
LINE
8
0
6
CONTINUOUS
10
-125.701000
20
-32.111700
30
0.0
11
-127.315000
21
-32.111700
31
0.0
0
LINE
8
0
6
CONTINUOUS
10
-127.315000
20
-32.892600
30
0.0
11
-125.701000
21
-32.892600
31
0.0
0
LINE
8
0
6
CONTINUOUS
10
-128.881000
20
-32.111700
30
0.0
11
-127.315000
21
-32.111700
31
0.0
0
LINE
8
0
6
CONTINUOUS
10
-127.148000
20
-31.601900
30
0.0
11
-128.659000
21
-31.601900
31
0.0
0
LINE
8
0
6
CONTINUOUS
10
-129.151000
20
-33.029100
30
0.0
11
-127.585000
21
-33.029100
31
0.0
0
LINE
8
0
6
CONTINUOUS
10
-127.315000
20
-32.892600
30
0.0
11
-128.881000
21
-32.892600
31
0.0
0
LINE
8
0
6
CONTINUOUS
10
-127.315000
20
-32.111700
30
0.0
11
-128.881000
21
-32.111700
31
0.0
0
LINE
8
0
6
CONTINUOUS
10
-128.881000
20
-32.892600
30
0.0
11
-127.315000
21
-32.892600
31
0.0
0
LINE
8
0
6
CONTINUOUS
10
-129.151000
20
-40.980600
30
0.0
11
-130.653000
21
-40.980600
31
0.0
0
LINE
8
0
6
CONTINUOUS
10
-127.585000
20
-40.980600
30
0.0
11
-129.151000
21
-40.980600
31
0.0
0
LINE
8
0
6
CONTINUOUS
10
-127.585000
20
-33.029100
30
0.0
11
-129.151000
21
-33.029100
31
0.0
0
LINE
8
0
6
CONTINUOUS
10
-129.151000
20
-40.980600
30
0.0
11
-127.585000
21
-40.980600
31
0.0
0
LINE
8
0
6
CONTINUOUS
10
-129.151000
20
-33.029100
30
0.0
11
-130.653000
21
-33.029100
31
0.0
0
LINE
8
0
6
CONTINUOUS
10
-130.653000
20
-40.980600
30
0.0
11
-129.151000
21
-40.980600
31
0.0
0
LINE
8
0
6
CONTINUOUS
10
-125.970000
20
-40.980600
30
0.0
11
-127.585000
21
-40.980600
31
0.0
0
LINE
8
0
6
CONTINUOUS
10
-127.585000
20
-33.029100
30
0.0
11
-125.970000
21
-33.029100
31
0.0
0
LINE
8
0
6
CONTINUOUS
10
-125.701000
20
-32.892600
30
0.0
11
-127.315000
21
-32.892600
31
0.0
0
LINE
8
0
6
CONTINUOUS
10
-125.970000
20
-33.029100
30
0.0
11
-127.585000
21
-33.029100
31
0.0
0
LINE
8
0
6
CONTINUOUS
10
-127.585000
20
-40.980600
30
0.0
11
-125.970000
21
-40.980600
31
0.0
0
LINE
8
0
6
CONTINUOUS
10
-122.500000
20
-32.111700
30
0.0
11
-124.053000
21
-32.111700
31
0.0
0
LINE
8
0
6
CONTINUOUS
10
-124.052000
20
-32.892600
30
0.0
11
-122.500000
21
-32.892600
31
0.0
0
LINE
8
0
6
CONTINUOUS
10
-124.053000
20
-32.111700
30
0.0
11
-122.500000
21
-32.111700
31
0.0
0
LINE
8
0
6
CONTINUOUS
10
-122.500000
20
-31.601900
30
0.0
11
-124.000000
21
-31.601900
31
0.0
0
LINE
8
0
6
CONTINUOUS
10
-122.655000
20
-33.029100
30
0.0
11
-122.500000
21
-33.029100
31
0.0
0
LINE
8
0
6
CONTINUOUS
10
-124.322000
20
-33.029100
30
0.0
11
-122.655000
21
-33.029100
31
0.0
0
LINE
8
0
6
CONTINUOUS
10
-122.655000
20
-33.029100
30
0.0
11
-124.322000
21
-33.029100
31
0.0
0
LINE
8
0
6
CONTINUOUS
10
-124.322000
20
-40.980600
30
0.0
11
-122.655000
21
-40.980600
31
0.0
0
LINE
8
0
6
CONTINUOUS
10
-122.500000
20
-33.029100
30
0.0
11
-122.655000
21
-33.029100
31
0.0
0
LINE
8
0
6
CONTINUOUS
10
-122.655000
20
-40.980600
30
0.0
11
-122.500000
21
-40.980600
31
0.0
0
LINE
8
0
6
CONTINUOUS
10
-124.052000
20
-32.892600
30
0.0
11
-122.500000
21
-32.949400
31
0.0
0
LINE
8
0
6
CONTINUOUS
10
-122.500000
20
-32.892600
30
0.0
11
-124.052000
21
-32.892600
31
0.0
0
LINE
8
0
6
CONTINUOUS
10
-122.500000
20
-32.892600
30
0.0
11
-124.052000
21
-32.892600
31
0.0
0
LINE
8
0
6
CONTINUOUS
10
-122.500000
20
-40.980600
30
0.0
11
-122.655000
21
-40.980600
31
0.0
0
LINE
8
0
6
CONTINUOUS
10
-124.053000
20
-41.694200
30
0.0
11
-122.500000
21
-41.989600
31
0.0
0
LINE
8
0
6
CONTINUOUS
10
-122.500000
20
-41.694200
30
0.0
11
-124.053000
21
-41.694200
31
0.0
0
LINE
8
0
6
CONTINUOUS
10
-124.322000
20
-40.980600
30
0.0
11
-125.970000
21
-40.980600
31
0.0
0
LINE
8
0
6
CONTINUOUS
10
-125.970000
20
-33.029100
30
0.0
11
-124.322000
21
-33.029100
31
0.0
0
LINE
8
0
6
CONTINUOUS
10
-124.052000
20
-32.892600
30
0.0
11
-125.701000
21
-32.892600
31
0.0
0
LINE
8
0
6
CONTINUOUS
10
-122.655000
20
-40.980600
30
0.0
11
-124.322000
21
-40.980600
31
0.0
0
LINE
8
0
6
CONTINUOUS
10
-124.322000
20
-33.029100
30
0.0
11
-125.970000
21
-33.029100
31
0.0
0
LINE
8
0
6
CONTINUOUS
10
-125.970000
20
-40.980600
30
0.0
11
-124.322000
21
-40.980600
31
0.0
0
LINE
8
0
6
CONTINUOUS
10
-127.315000
20
-32.111700
30
0.0
11
-125.701000
21
-32.111700
31
0.0
0
LINE
8
0
6
CONTINUOUS
10
-125.590000
20
-31.601900
30
0.0
11
-127.148000
21
-31.601900
31
0.0
0
LINE
8
0
6
CONTINUOUS
10
-125.701000
20
-32.111700
30
0.0
11
-124.053000
21
-32.111700
31
0.0
0
LINE
8
0
6
CONTINUOUS
10
-124.000000
20
-31.601900
30
0.0
11
-125.590000
21
-31.601900
31
0.0
0
LINE
8
0
6
CONTINUOUS
10
-124.053000
20
-32.111700
30
0.0
11
-125.701000
21
-32.111700
31
0.0
0
LINE
8
0
6
CONTINUOUS
10
-125.701000
20
-32.892600
30
0.0
11
-124.052000
21
-32.892600
31
0.0
0
LINE
8
0
6
CONTINUOUS
10
-129.107000
20
-51.990300
30
0.0
11
-130.600000
21
-51.990300
31
0.0
0
LINE
8
0
6
CONTINUOUS
10
-127.551000
20
-51.990300
30
0.0
11
-129.107000
21
-51.990300
31
0.0
0
LINE
8
0
6
CONTINUOUS
10
-122.500000
20
-51.990300
30
0.0
11
-122.654000
21
-51.990300
31
0.0
0
LINE
8
0
6
CONTINUOUS
10
-122.654000
20
-51.990300
30
0.0
11
-124.309000
21
-51.990300
31
0.0
0
LINE
8
0
6
CONTINUOUS
10
-124.309000
20
-51.990300
30
0.0
11
-124.042000
21
-52.500000
31
0.0
0
LINE
8
0
6
CONTINUOUS
10
-122.654000
20
-51.990300
30
0.0
11
-124.309000
21
-51.990300
31
0.0
0
LINE
8
0
6
CONTINUOUS
10
-124.042000
20
-52.500000
30
0.0
11
-122.654000
21
-51.990300
31
0.0
0
LINE
8
0
6
CONTINUOUS
10
-125.947000
20
-51.990300
30
0.0
11
-127.551000
21
-51.990300
31
0.0
0
LINE
8
0
6
CONTINUOUS
10
-124.309000
20
-51.990300
30
0.0
11
-125.947000
21
-51.990300
31
0.0
0
LINE
8
0
6
CONTINUOUS
10
-127.551000
20
-51.990300
30
0.0
11
-125.947000
21
-51.990300
31
0.0
0
LINE
8
0
6
CONTINUOUS
10
-125.947000
20
-51.990300
30
0.0
11
-124.309000
21
-51.990300
31
0.0
0
LINE
8
0
6
CONTINUOUS
10
-124.309000
20
-51.990300
30
0.0
11
-122.654000
21
-51.990300
31
0.0
0
LINE
8
0
6
CONTINUOUS
10
-122.654000
20
-51.990300
30
0.0
11
-122.500000
21
-51.990300
31
0.0
0
LINE
8
0
6
CONTINUOUS
10
-130.600000
20
-51.990300
30
0.0
11
-129.107000
21
-51.990300
31
0.0
0
LINE
8
0
6
CONTINUOUS
10
-129.107000
20
-51.990300
30
0.0
11
-127.551000
21
-51.990300
31
0.0
0
LINE
8
0
6
CONTINUOUS
10
-130.380000
20
-32.111700
30
0.0
11
-131.799000
21
-32.111700
31
0.0
0
LINE
8
0
6
CONTINUOUS
10
-131.799000
20
-32.892600
30
0.0
11
-130.380000
21
-32.892600
31
0.0
0
LINE
8
0
6
CONTINUOUS
10
-131.799000
20
-32.111700
30
0.0
11
-130.380000
21
-32.111700
31
0.0
0
LINE
8
0
6
CONTINUOUS
10
-130.107000
20
-31.601900
30
0.0
11
-131.476000
21
-31.601900
31
0.0
0
LINE
8
0
6
CONTINUOUS
10
-130.380000
20
-32.892600
30
0.0
11
-131.799000
21
-32.892600
31
0.0
0
LINE
8
0
6
CONTINUOUS
10
-132.078000
20
-33.029100
30
0.0
11
-130.653000
21
-33.029100
31
0.0
0
LINE
8
0
6
CONTINUOUS
10
-130.653000
20
-40.980600
30
0.0
11
-132.078000
21
-40.980600
31
0.0
0
LINE
8
0
6
CONTINUOUS
10
-130.600000
20
-51.990300
30
0.0
11
-132.013000
21
-51.990300
31
0.0
0
LINE
8
0
6
CONTINUOUS
10
-132.013000
20
-51.990300
30
0.0
11
-130.600000
21
-51.990300
31
0.0
0
LINE
8
0
6
CONTINUOUS
10
-130.653000
20
-33.029100
30
0.0
11
-132.078000
21
-33.029100
31
0.0
0
LINE
8
0
6
CONTINUOUS
10
-132.078000
20
-40.980600
30
0.0
11
-130.653000
21
-40.980600
31
0.0
0
LINE
8
0
6
CONTINUOUS
10
-136.727000
20
-33.029100
30
0.0
11
-137.571000
21
-33.029100
31
0.0
0
LINE
8
0
6
CONTINUOUS
10
-137.571000
20
-40.980600
30
0.0
11
-136.727000
21
-40.980600
31
0.0
0
LINE
8
0
6
CONTINUOUS
10
-132.190000
20
-10.500000
30
0.0
11
-130.894000
21
-10.500000
31
0.0
0
LINE
8
0
6
CONTINUOUS
10
-133.305000
20
-10.500000
30
0.0
11
-132.190000
21
-10.500000
31
0.0
0
LINE
8
0
6
CONTINUOUS
10
-126.618000
20
-26.303000
30
0.0
11
-128.433000
21
-25.571000
31
0.0
0
LINE
8
0
6
CONTINUOUS
10
-131.363000
20
-23.848200
30
0.0
11
-131.445000
21
-23.534200
31
0.0
0
LINE
8
0
6
CONTINUOUS
10
-136.390000
20
-32.111700
30
0.0
11
-135.430000
21
-32.111700
31
0.0
0
LINE
8
0
6
CONTINUOUS
10
-134.980000
20
-31.601900
30
0.0
11
-135.907000
21
-31.601900
31
0.0
0
LINE
8
0
6
CONTINUOUS
10
-128.433000
20
-25.571000
30
0.0
11
-129.615000
21
-24.990000
31
0.0
0
LINE
8
0
6
CONTINUOUS
10
-129.615000
20
-24.990000
30
0.0
11
-130.941000
21
-24.255000
31
0.0
0
LINE
8
0
6
CONTINUOUS
10
-137.571000
20
-33.029100
30
0.0
11
-136.727000
21
-33.029100
31
0.0
0
LINE
8
0
6
CONTINUOUS
10
-135.430000
20
-32.892600
30
0.0
11
-136.390000
21
-32.892600
31
0.0
0
LINE
8
0
6
CONTINUOUS
10
-138.271000
20
-33.029100
30
0.0
11
-137.571000
21
-33.029100
31
0.0
0
LINE
8
0
6
CONTINUOUS
10
-136.390000
20
-32.892600
30
0.0
11
-137.207000
21
-32.892600
31
0.0
0
LINE
8
0
6
CONTINUOUS
10
-136.727000
20
-40.980600
30
0.0
11
-137.571000
21
-40.980600
31
0.0
0
LINE
8
0
6
CONTINUOUS
10
-136.390000
20
-32.111700
30
0.0
11
-137.208000
21
-32.111700
31
0.0
0
LINE
8
0
6
CONTINUOUS
10
-137.207000
20
-32.892600
30
0.0
11
-136.390000
21
-32.892600
31
0.0
0
LINE
8
0
6
CONTINUOUS
10
-137.208000
20
-32.111700
30
0.0
11
-136.390000
21
-32.111700
31
0.0
0
LINE
8
0
6
CONTINUOUS
10
-135.907000
20
-31.601900
30
0.0
11
-136.697000
21
-31.601900
31
0.0
0
LINE
8
0
6
CONTINUOUS
10
-136.631000
20
-51.990300
30
0.0
11
-137.471000
21
-51.990300
31
0.0
0
LINE
8
0
6
CONTINUOUS
10
-137.471000
20
-51.990300
30
0.0
11
-136.631000
21
-51.990300
31
0.0
0
LINE
8
0
6
CONTINUOUS
10
-131.445000
20
-23.534200
30
0.0
11
-131.445000
21
-22.023500
31
0.0
0
LINE
8
0
6
CONTINUOUS
10
-132.190000
20
-10.500000
30
0.0
11
-133.305000
21
-10.500000
31
0.0
0
LINE
8
0
6
CONTINUOUS
10
-124.000000
20
-31.601900
30
0.0
11
-122.500000
21
-31.601900
31
0.0
0
LINE
8
0
6
CONTINUOUS
10
-125.590000
20
-31.601900
30
0.0
11
-124.000000
21
-31.601900
31
0.0
0
LINE
8
0
6
CONTINUOUS
10
-127.148000
20
-31.601900
30
0.0
11
-125.590000
21
-31.601900
31
0.0
0
LINE
8
0
6
CONTINUOUS
10
-128.659000
20
-31.601900
30
0.0
11
-127.148000
21
-31.601900
31
0.0
0
LINE
8
0
6
CONTINUOUS
10
-134.980000
20
-31.601900
30
0.0
11
-133.926000
21
-31.601900
31
0.0
0
LINE
8
0
6
CONTINUOUS
10
-135.907000
20
-31.601900
30
0.0
11
-134.980000
21
-31.601900
31
0.0
0
LINE
8
0
6
CONTINUOUS
10
-133.926000
20
-31.601900
30
0.0
11
-132.753000
21
-31.601900
31
0.0
0
LINE
8
0
6
CONTINUOUS
10
-132.753000
20
-31.601900
30
0.0
11
-131.476000
21
-31.601900
31
0.0
0
LINE
8
0
6
CONTINUOUS
10
-131.476000
20
-31.601900
30
0.0
11
-130.107000
21
-31.601900
31
0.0
0
LINE
8
0
6
CONTINUOUS
10
-130.107000
20
-31.601900
30
0.0
11
-128.659000
21
-31.601900
31
0.0
0
LINE
8
0
6
CONTINUOUS
10
-139.500000
20
-33.029100
30
0.0
11
-139.422000
21
-33.009800
31
0.0
0
LINE
8
0
6
CONTINUOUS
10
-139.422000
20
-33.009800
30
0.0
11
-138.916000
21
-32.892600
31
0.0
0
LINE
8
0
6
CONTINUOUS
10
-139.386000
20
-42.400600
30
0.0
11
-138.916000
21
-41.694200
31
0.0
0
LINE
8
0
6
CONTINUOUS
10
-138.802000
20
-52.500000
30
0.0
11
-139.386000
21
-51.990300
31
0.0
0
LINE
8
0
6
CONTINUOUS
10
-132.343000
20
-28.808200
30
0.0
11
-132.284000
21
-28.751700
31
0.0
0
LINE
8
0
6
CONTINUOUS
10
-131.823000
20
-28.274600
30
0.0
11
-132.105000
21
-28.605900
31
0.0
0
LINE
8
0
6
CONTINUOUS
10
-132.094000
20
-28.605900
30
0.0
11
-131.817000
21
-28.274600
31
0.0
0
LINE
8
0
6
CONTINUOUS
10
-131.959000
20
-27.268700
30
0.0
11
-132.049000
21
-27.130800
31
0.0
0
LINE
8
0
6
CONTINUOUS
10
-132.049000
20
-27.130800
30
0.0
11
-133.575000
21
-25.782300
31
0.0
0
LINE
8
0
6
CONTINUOUS
10
-135.623000
20
-23.534200
30
0.0
11
-135.532000
21
-23.924700
31
0.0
0
LINE
8
0
6
CONTINUOUS
10
-139.500000
20
-40.980600
30
0.0
11
-139.500000
21
-33.029100
31
0.0
0
LINE
8
0
6
CONTINUOUS
10
-138.916000
20
-41.694200
30
0.0
11
-138.916000
21
-40.980600
31
0.0
0
LINE
8
0
6
CONTINUOUS
10
-138.916000
20
-32.892600
30
0.0
11
-138.916000
21
-32.111700
31
0.0
0
LINE
8
0
6
CONTINUOUS
10
-138.916000
20
-32.111700
30
0.0
11
-138.345000
21
-31.601900
31
0.0
0
LINE
8
0
6
CONTINUOUS
10
-139.386000
20
-51.990300
30
0.0
11
-139.386000
21
-42.400600
31
0.0
0
LINE
8
0
6
CONTINUOUS
10
-134.678000
20
-31.398100
30
0.0
11
-133.606000
21
-30.035400
31
0.0
0
LINE
8
0
6
CONTINUOUS
10
-133.606000
20
-30.035400
30
0.0
11
-132.343000
21
-28.808200
31
0.0
0
LINE
8
0
6
CONTINUOUS
10
-135.610000
20
-23.534200
30
0.0
11
-135.597000
21
-10.500000
31
0.0
0
LINE
8
0
6
CONTINUOUS
10
-135.623000
20
-23.534200
30
0.0
11
-135.605000
21
-10.500000
31
0.0
0
LINE
8
0
6
CONTINUOUS
10
-65.625000
20
-56.500000
30
0.0
11
-72.500000
21
-56.500000
31
0.0
0
LINE
8
0
6
CONTINUOUS
10
-31.375000
20
-57.500000
30
0.0
11
-47.875000
21
-57.500000
31
0.0
0
LINE
8
0
6
CONTINUOUS
10
-72.500000
20
-56.500000
30
0.0
11
-65.625000
21
-56.500000
31
0.0
0
LINE
8
0
6
CONTINUOUS
10
-83.750000
20
-57.500000
30
0.0
11
-103.000000
21
-57.500000
31
0.0
0
LINE
8
0
6
CONTINUOUS
10
-36.523000
20
-71.500000
30
0.0
11
-48.500000
21
-71.500000
31
0.0
0
LINE
8
0
6
CONTINUOUS
10
-88.766000
20
-71.500000
30
0.0
11
-103.000000
21
-71.500000
31
0.0
0
LINE
8
0
6
CONTINUOUS
10
-48.500000
20
-71.500000
30
0.0
11
-36.523000
21
-71.500000
31
0.0
0
LINE
8
0
6
CONTINUOUS
10
-103.000000
20
-71.500000
30
0.0
11
-88.766000
21
-71.500000
31
0.0
0
LINE
8
0
6
CONTINUOUS
10
6.375000
20
-56.500000
30
0.0
11
-4.750000
21
-56.500000
31
0.0
0
LINE
8
0
6
CONTINUOUS
10
24.750000
20
-56.500000
30
0.0
11
20.875000
21
-56.500000
31
0.0
0
LINE
8
0
6
CONTINUOUS
10
-4.750000
20
-56.500000
30
0.0
11
6.375000
21
-56.500000
31
0.0
0
LINE
8
0
6
CONTINUOUS
10
22.125000
20
-57.500000
30
0.0
11
15.750000
21
-57.500000
31
0.0
0
LINE
8
0
6
CONTINUOUS
10
20.875000
20
-56.500000
30
0.0
11
24.750000
21
-56.500000
31
0.0
0
LINE
8
0
6
CONTINUOUS
10
20.875000
20
-71.500000
30
0.0
11
14.625000
21
-71.500000
31
0.0
0
LINE
8
0
6
CONTINUOUS
10
14.625000
20
-71.500000
30
0.0
11
20.875000
21
-71.500000
31
0.0
0
LINE
8
0
6
CONTINUOUS
10
-17.500000
20
-56.500000
30
0.0
11
-4.750000
21
-56.500000
31
0.0
0
LINE
8
0
6
CONTINUOUS
10
-4.750000
20
-56.500000
30
0.0
11
6.375000
21
-56.500000
31
0.0
0
LINE
8
0
6
CONTINUOUS
10
6.375000
20
-56.500000
30
0.0
11
14.625000
21
-56.500000
31
0.0
0
LINE
8
0
6
CONTINUOUS
10
20.875000
20
-56.500000
30
0.0
11
24.750000
21
-56.500000
31
0.0
0
LINE
8
0
6
CONTINUOUS
10
24.750000
20
-56.500000
30
0.0
11
26.250000
21
-56.500000
31
0.0
0
LINE
8
0
6
CONTINUOUS
10
-16.625000
20
-57.500000
30
0.0
11
-3.750000
21
-57.500000
31
0.0
0
LINE
8
0
6
CONTINUOUS
10
-4.750000
20
-56.500000
30
0.0
11
-17.500000
21
-56.500000
31
0.0
0
LINE
8
0
6
CONTINUOUS
10
-3.750000
20
-57.500000
30
0.0
11
7.375000
21
-57.500000
31
0.0
0
LINE
8
0
6
CONTINUOUS
10
6.375000
20
-56.500000
30
0.0
11
-4.750000
21
-56.500000
31
0.0
0
LINE
8
0
6
CONTINUOUS
10
7.375000
20
-57.500000
30
0.0
11
15.750000
21
-57.500000
31
0.0
0
LINE
8
0
6
CONTINUOUS
10
14.625000
20
-56.500000
30
0.0
11
6.375000
21
-56.500000
31
0.0
0
LINE
8
0
6
CONTINUOUS
10
15.750000
20
-57.500000
30
0.0
11
22.125000
21
-57.500000
31
0.0
0
LINE
8
0
6
CONTINUOUS
10
20.875000
20
-56.500000
30
0.0
11
14.625000
21
-56.500000
31
0.0
0
LINE
8
0
6
CONTINUOUS
10
22.125000
20
-57.500000
30
0.0
11
26.000000
21
-57.500000
31
0.0
0
LINE
8
0
6
CONTINUOUS
10
24.750000
20
-56.500000
30
0.0
11
20.875000
21
-56.500000
31
0.0
0
LINE
8
0
6
CONTINUOUS
10
26.000000
20
-57.500000
30
0.0
11
27.500000
21
-57.500000
31
0.0
0
LINE
8
0
6
CONTINUOUS
10
26.250000
20
-56.500000
30
0.0
11
24.750000
21
-56.500000
31
0.0
0
LINE
8
0
6
CONTINUOUS
10
27.500000
20
-57.500000
30
0.0
11
26.250000
21
-56.500000
31
0.0
0
LINE
8
0
6
CONTINUOUS
10
-16.625000
20
-70.500000
30
0.0
11
-3.750000
21
-70.500000
31
0.0
0
LINE
8
0
6
CONTINUOUS
10
-3.750000
20
-57.500000
30
0.0
11
-16.625000
21
-57.500000
31
0.0
0
LINE
8
0
6
CONTINUOUS
10
-3.750000
20
-70.500000
30
0.0
11
7.375000
21
-70.500000
31
0.0
0
LINE
8
0
6
CONTINUOUS
10
7.375000
20
-57.500000
30
0.0
11
-3.750000
21
-57.500000
31
0.0
0
LINE
8
0
6
CONTINUOUS
10
7.375000
20
-70.500000
30
0.0
11
15.750000
21
-70.500000
31
0.0
0
LINE
8
0
6
CONTINUOUS
10
15.750000
20
-57.500000
30
0.0
11
7.375000
21
-57.500000
31
0.0
0
LINE
8
0
6
CONTINUOUS
10
15.750000
20
-70.500000
30
0.0
11
22.125000
21
-70.500000
31
0.0
0
LINE
8
0
6
CONTINUOUS
10
22.125000
20
-57.500000
30
0.0
11
15.750000
21
-57.500000
31
0.0
0
LINE
8
0
6
CONTINUOUS
10
22.125000
20
-70.500000
30
0.0
11
26.000000
21
-70.500000
31
0.0
0
LINE
8
0
6
CONTINUOUS
10
26.000000
20
-57.500000
30
0.0
11
22.125000
21
-57.500000
31
0.0
0
LINE
8
0
6
CONTINUOUS
10
26.000000
20
-70.500000
30
0.0
11
27.500000
21
-70.500000
31
0.0
0
LINE
8
0
6
CONTINUOUS
10
27.500000
20
-57.500000
30
0.0
11
26.000000
21
-57.500000
31
0.0
0
LINE
8
0
6
CONTINUOUS
10
27.500000
20
-70.500000
30
0.0
11
27.500000
21
-57.500000
31
0.0
0
LINE
8
0
6
CONTINUOUS
10
-17.500000
20
-71.500000
30
0.0
11
-4.750000
21
-71.500000
31
0.0
0
LINE
8
0
6
CONTINUOUS
10
-3.750000
20
-70.500000
30
0.0
11
-16.625000
21
-70.500000
31
0.0
0
LINE
8
0
6
CONTINUOUS
10
-4.750000
20
-71.500000
30
0.0
11
6.375000
21
-71.500000
31
0.0
0
LINE
8
0
6
CONTINUOUS
10
7.375000
20
-70.500000
30
0.0
11
-3.750000
21
-70.500000
31
0.0
0
LINE
8
0
6
CONTINUOUS
10
6.375000
20
-71.500000
30
0.0
11
14.625000
21
-71.500000
31
0.0
0
LINE
8
0
6
CONTINUOUS
10
15.750000
20
-70.500000
30
0.0
11
7.375000
21
-70.500000
31
0.0
0
LINE
8
0
6
CONTINUOUS
10
14.625000
20
-71.500000
30
0.0
11
20.875000
21
-71.500000
31
0.0
0
LINE
8
0
6
CONTINUOUS
10
22.125000
20
-70.500000
30
0.0
11
15.750000
21
-70.500000
31
0.0
0
LINE
8
0
6
CONTINUOUS
10
20.875000
20
-71.500000
30
0.0
11
24.750000
21
-71.500000
31
0.0
0
LINE
8
0
6
CONTINUOUS
10
26.000000
20
-70.500000
30
0.0
11
22.125000
21
-70.500000
31
0.0
0
LINE
8
0
6
CONTINUOUS
10
24.750000
20
-71.500000
30
0.0
11
26.250000
21
-71.500000
31
0.0
0
LINE
8
0
6
CONTINUOUS
10
27.500000
20
-70.500000
30
0.0
11
26.000000
21
-70.500000
31
0.0
0
LINE
8
0
6
CONTINUOUS
10
26.250000
20
-71.500000
30
0.0
11
27.500000
21
-70.500000
31
0.0
0
LINE
8
0
6
CONTINUOUS
10
-4.750000
20
-71.500000
30
0.0
11
-17.500000
21
-71.500000
31
0.0
0
LINE
8
0
6
CONTINUOUS
10
14.625000
20
-71.500000
30
0.0
11
6.375000
21
-71.500000
31
0.0
0
LINE
8
0
6
CONTINUOUS
10
20.875000
20
-71.500000
30
0.0
11
14.625000
21
-71.500000
31
0.0
0
LINE
8
0
6
CONTINUOUS
10
26.250000
20
-71.500000
30
0.0
11
24.750000
21
-71.500000
31
0.0
0
LINE
8
0
6
CONTINUOUS
10
-32.125000
20
-56.500000
30
0.0
11
-17.500000
21
-56.500000
31
0.0
0
LINE
8
0
6
CONTINUOUS
10
-65.625000
20
-56.500000
30
0.0
11
-48.500000
21
-56.500000
31
0.0
0
LINE
8
0
6
CONTINUOUS
10
-84.125000
20
-56.500000
30
0.0
11
-65.625000
21
-56.500000
31
0.0
0
LINE
8
0
6
CONTINUOUS
10
-122.500000
20
-56.500000
30
0.0
11
-103.000000
21
-56.500000
31
0.0
0
LINE
8
0
6
CONTINUOUS
10
-31.375000
20
-57.500000
30
0.0
11
-16.625000
21
-57.500000
31
0.0
0
LINE
8
0
6
CONTINUOUS
10
-17.500000
20
-56.500000
30
0.0
11
-32.125000
21
-56.500000
31
0.0
0
LINE
8
0
6
CONTINUOUS
10
-47.875000
20
-57.500000
30
0.0
11
-31.375000
21
-57.500000
31
0.0
0
LINE
8
0
6
CONTINUOUS
10
-32.125000
20
-56.500000
30
0.0
11
-48.500000
21
-56.500000
31
0.0
0
LINE
8
0
6
CONTINUOUS
10
-65.250000
20
-57.500000
30
0.0
11
-47.875000
21
-57.500000
31
0.0
0
LINE
8
0
6
CONTINUOUS
10
-48.500000
20
-56.500000
30
0.0
11
-65.625000
21
-56.500000
31
0.0
0
LINE
8
0
6
CONTINUOUS
10
-83.750000
20
-57.500000
30
0.0
11
-65.250000
21
-57.500000
31
0.0
0
LINE
8
0
6
CONTINUOUS
10
-65.625000
20
-56.500000
30
0.0
11
-84.125000
21
-56.500000
31
0.0
0
LINE
8
0
6
CONTINUOUS
10
-103.000000
20
-57.500000
30
0.0
11
-83.750000
21
-57.500000
31
0.0
0
LINE
8
0
6
CONTINUOUS
10
-84.125000
20
-56.500000
30
0.0
11
-103.000000
21
-56.500000
31
0.0
0
LINE
8
0
6
CONTINUOUS
10
-122.500000
20
-57.500000
30
0.0
11
-103.000000
21
-57.500000
31
0.0
0
LINE
8
0
6
CONTINUOUS
10
-103.000000
20
-56.500000
30
0.0
11
-122.500000
21
-56.500000
31
0.0
0
LINE
8
0
6
CONTINUOUS
10
-31.375000
20
-70.500000
30
0.0
11
-16.625000
21
-70.500000
31
0.0
0
LINE
8
0
6
CONTINUOUS
10
-16.625000
20
-57.500000
30
0.0
11
-31.375000
21
-57.500000
31
0.0
0
LINE
8
0
6
CONTINUOUS
10
-47.875000
20
-70.500000
30
0.0
11
-31.375000
21
-70.500000
31
0.0
0
LINE
8
0
6
CONTINUOUS
10
-31.375000
20
-57.500000
30
0.0
11
-47.875000
21
-57.500000
31
0.0
0
LINE
8
0
6
CONTINUOUS
10
-65.250000
20
-70.500000
30
0.0
11
-47.875000
21
-70.500000
31
0.0
0
LINE
8
0
6
CONTINUOUS
10
-47.875000
20
-57.500000
30
0.0
11
-65.250000
21
-57.500000
31
0.0
0
LINE
8
0
6
CONTINUOUS
10
-83.750000
20
-70.500000
30
0.0
11
-65.250000
21
-70.500000
31
0.0
0
LINE
8
0
6
CONTINUOUS
10
-65.250000
20
-57.500000
30
0.0
11
-83.750000
21
-57.500000
31
0.0
0
LINE
8
0
6
CONTINUOUS
10
-103.000000
20
-70.500000
30
0.0
11
-83.750000
21
-70.500000
31
0.0
0
LINE
8
0
6
CONTINUOUS
10
-83.750000
20
-57.500000
30
0.0
11
-103.000000
21
-57.500000
31
0.0
0
LINE
8
0
6
CONTINUOUS
10
-122.500000
20
-70.500000
30
0.0
11
-103.000000
21
-70.500000
31
0.0
0
LINE
8
0
6
CONTINUOUS
10
-103.000000
20
-57.500000
30
0.0
11
-122.500000
21
-57.500000
31
0.0
0
LINE
8
0
6
CONTINUOUS
10
-32.125000
20
-71.500000
30
0.0
11
-17.500000
21
-71.500000
31
0.0
0
LINE
8
0
6
CONTINUOUS
10
-16.625000
20
-70.500000
30
0.0
11
-31.375000
21
-70.500000
31
0.0
0
LINE
8
0
6
CONTINUOUS
10
-48.500000
20
-71.500000
30
0.0
11
-32.125000
21
-71.500000
31
0.0
0
LINE
8
0
6
CONTINUOUS
10
-31.375000
20
-70.500000
30
0.0
11
-47.875000
21
-70.500000
31
0.0
0
LINE
8
0
6
CONTINUOUS
10
-65.625000
20
-71.500000
30
0.0
11
-48.500000
21
-71.500000
31
0.0
0
LINE
8
0
6
CONTINUOUS
10
-47.875000
20
-70.500000
30
0.0
11
-65.250000
21
-70.500000
31
0.0
0
LINE
8
0
6
CONTINUOUS
10
-84.125000
20
-71.500000
30
0.0
11
-65.625000
21
-71.500000
31
0.0
0
LINE
8
0
6
CONTINUOUS
10
-65.250000
20
-70.500000
30
0.0
11
-83.750000
21
-70.500000
31
0.0
0
LINE
8
0
6
CONTINUOUS
10
-103.000000
20
-71.500000
30
0.0
11
-84.125000
21
-71.500000
31
0.0
0
LINE
8
0
6
CONTINUOUS
10
-83.750000
20
-70.500000
30
0.0
11
-103.000000
21
-70.500000
31
0.0
0
LINE
8
0
6
CONTINUOUS
10
-122.500000
20
-71.500000
30
0.0
11
-103.000000
21
-71.500000
31
0.0
0
LINE
8
0
6
CONTINUOUS
10
-103.000000
20
-70.500000
30
0.0
11
-122.500000
21
-70.500000
31
0.0
0
LINE
8
0
6
CONTINUOUS
10
-17.500000
20
-71.500000
30
0.0
11
-32.125000
21
-71.500000
31
0.0
0
LINE
8
0
6
CONTINUOUS
10
-32.125000
20
-71.500000
30
0.0
11
-48.500000
21
-71.500000
31
0.0
0
LINE
8
0
6
CONTINUOUS
10
-48.500000
20
-71.500000
30
0.0
11
-65.625000
21
-71.500000
31
0.0
0
LINE
8
0
6
CONTINUOUS
10
-65.625000
20
-71.500000
30
0.0
11
-68.999000
21
-71.500000
31
0.0
0
LINE
8
0
6
CONTINUOUS
10
-84.125000
20
-71.500000
30
0.0
11
-103.000000
21
-71.500000
31
0.0
0
LINE
8
0
6
CONTINUOUS
10
-103.000000
20
-71.500000
30
0.0
11
-122.500000
21
-71.500000
31
0.0
0
LINE
8
0
6
CONTINUOUS
10
-227.500000
20
-56.500000
30
0.0
11
-212.875000
21
-56.500000
31
0.0
0
LINE
8
0
6
CONTINUOUS
10
-212.875000
20
-56.500000
30
0.0
11
-196.500000
21
-56.500000
31
0.0
0
LINE
8
0
6
CONTINUOUS
10
-196.500000
20
-56.500000
30
0.0
11
-179.375000
21
-56.500000
31
0.0
0
LINE
8
0
6
CONTINUOUS
10
-160.875000
20
-56.500000
30
0.0
11
-142.000000
21
-56.500000
31
0.0
0
LINE
8
0
6
CONTINUOUS
10
-142.000000
20
-56.500000
30
0.0
11
-122.500000
21
-56.500000
31
0.0
0
LINE
8
0
6
CONTINUOUS
10
-228.375000
20
-57.500000
30
0.0
11
-213.625000
21
-57.500000
31
0.0
0
LINE
8
0
6
CONTINUOUS
10
-212.875000
20
-56.500000
30
0.0
11
-227.500000
21
-56.500000
31
0.0
0
LINE
8
0
6
CONTINUOUS
10
-213.625000
20
-57.500000
30
0.0
11
-197.125000
21
-57.500000
31
0.0
0
LINE
8
0
6
CONTINUOUS
10
-196.500000
20
-56.500000
30
0.0
11
-212.875000
21
-56.500000
31
0.0
0
LINE
8
0
6
CONTINUOUS
10
-197.125000
20
-57.500000
30
0.0
11
-179.750000
21
-57.500000
31
0.0
0
LINE
8
0
6
CONTINUOUS
10
-179.375000
20
-56.500000
30
0.0
11
-196.500000
21
-56.500000
31
0.0
0
LINE
8
0
6
CONTINUOUS
10
-179.750000
20
-57.500000
30
0.0
11
-161.250000
21
-57.500000
31
0.0
0
LINE
8
0
6
CONTINUOUS
10
-160.875000
20
-56.500000
30
0.0
11
-179.375000
21
-56.500000
31
0.0
0
LINE
8
0
6
CONTINUOUS
10
-161.250000
20
-57.500000
30
0.0
11
-142.000000
21
-57.500000
31
0.0
0
LINE
8
0
6
CONTINUOUS
10
-142.000000
20
-56.500000
30
0.0
11
-160.875000
21
-56.500000
31
0.0
0
LINE
8
0
6
CONTINUOUS
10
-142.000000
20
-57.500000
30
0.0
11
-122.500000
21
-57.500000
31
0.0
0
LINE
8
0
6
CONTINUOUS
10
-122.500000
20
-56.500000
30
0.0
11
-142.000000
21
-56.500000
31
0.0
0
LINE
8
0
6
CONTINUOUS
10
-228.375000
20
-70.500000
30
0.0
11
-213.625000
21
-70.500000
31
0.0
0
LINE
8
0
6
CONTINUOUS
10
-213.625000
20
-57.500000
30
0.0
11
-228.375000
21
-57.500000
31
0.0
0
LINE
8
0
6
CONTINUOUS
10
-213.625000
20
-70.500000
30
0.0
11
-197.125000
21
-70.500000
31
0.0
0
LINE
8
0
6
CONTINUOUS
10
-197.125000
20
-57.500000
30
0.0
11
-213.625000
21
-57.500000
31
0.0
0
LINE
8
0
6
CONTINUOUS
10
-197.125000
20
-70.500000
30
0.0
11
-179.750000
21
-70.500000
31
0.0
0
LINE
8
0
6
CONTINUOUS
10
-179.750000
20
-57.500000
30
0.0
11
-197.125000
21
-57.500000
31
0.0
0
LINE
8
0
6
CONTINUOUS
10
-179.750000
20
-70.500000
30
0.0
11
-161.250000
21
-70.500000
31
0.0
0
LINE
8
0
6
CONTINUOUS
10
-161.250000
20
-57.500000
30
0.0
11
-179.750000
21
-57.500000
31
0.0
0
LINE
8
0
6
CONTINUOUS
10
-161.250000
20
-70.500000
30
0.0
11
-142.000000
21
-70.500000
31
0.0
0
LINE
8
0
6
CONTINUOUS
10
-142.000000
20
-57.500000
30
0.0
11
-161.250000
21
-57.500000
31
0.0
0
LINE
8
0
6
CONTINUOUS
10
-142.000000
20
-70.500000
30
0.0
11
-122.500000
21
-70.500000
31
0.0
0
LINE
8
0
6
CONTINUOUS
10
-122.500000
20
-57.500000
30
0.0
11
-142.000000
21
-57.500000
31
0.0
0
LINE
8
0
6
CONTINUOUS
10
-227.500000
20
-71.500000
30
0.0
11
-212.875000
21
-71.500000
31
0.0
0
LINE
8
0
6
CONTINUOUS
10
-213.625000
20
-70.500000
30
0.0
11
-228.375000
21
-70.500000
31
0.0
0
LINE
8
0
6
CONTINUOUS
10
-212.875000
20
-71.500000
30
0.0
11
-196.500000
21
-71.500000
31
0.0
0
LINE
8
0
6
CONTINUOUS
10
-197.125000
20
-70.500000
30
0.0
11
-213.625000
21
-70.500000
31
0.0
0
LINE
8
0
6
CONTINUOUS
10
-196.500000
20
-71.500000
30
0.0
11
-179.375000
21
-71.500000
31
0.0
0
LINE
8
0
6
CONTINUOUS
10
-179.750000
20
-70.500000
30
0.0
11
-197.125000
21
-70.500000
31
0.0
0
LINE
8
0
6
CONTINUOUS
10
-179.375000
20
-71.500000
30
0.0
11
-160.875000
21
-71.500000
31
0.0
0
LINE
8
0
6
CONTINUOUS
10
-161.250000
20
-70.500000
30
0.0
11
-179.750000
21
-70.500000
31
0.0
0
LINE
8
0
6
CONTINUOUS
10
-160.875000
20
-71.500000
30
0.0
11
-142.000000
21
-71.500000
31
0.0
0
LINE
8
0
6
CONTINUOUS
10
-142.000000
20
-70.500000
30
0.0
11
-161.250000
21
-70.500000
31
0.0
0
LINE
8
0
6
CONTINUOUS
10
-142.000000
20
-71.500000
30
0.0
11
-122.500000
21
-71.500000
31
0.0
0
LINE
8
0
6
CONTINUOUS
10
-122.500000
20
-70.500000
30
0.0
11
-142.000000
21
-70.500000
31
0.0
0
LINE
8
0
6
CONTINUOUS
10
-212.875000
20
-71.500000
30
0.0
11
-227.500000
21
-71.500000
31
0.0
0
LINE
8
0
6
CONTINUOUS
10
-196.500000
20
-71.500000
30
0.0
11
-200.658000
21
-71.500000
31
0.0
0
LINE
8
0
6
CONTINUOUS
10
-179.375000
20
-71.500000
30
0.0
11
-196.500000
21
-71.500000
31
0.0
0
LINE
8
0
6
CONTINUOUS
10
-160.875000
20
-71.500000
30
0.0
11
-179.375000
21
-71.500000
31
0.0
0
LINE
8
0
6
CONTINUOUS
10
-142.000000
20
-71.500000
30
0.0
11
-146.971000
21
-71.500000
31
0.0
0
LINE
8
0
6
CONTINUOUS
10
-122.500000
20
-71.500000
30
0.0
11
-142.000000
21
-71.500000
31
0.0
0
LINE
8
0
6
CONTINUOUS
10
-240.250000
20
-56.500000
30
0.0
11
-227.500000
21
-56.500000
31
0.0
0
LINE
8
0
6
CONTINUOUS
10
-259.625000
20
-56.500000
30
0.0
11
-251.375000
21
-56.500000
31
0.0
0
LINE
8
0
6
CONTINUOUS
10
-265.875000
20
-56.500000
30
0.0
11
-259.625000
21
-56.500000
31
0.0
0
LINE
8
0
6
CONTINUOUS
10
-271.250000
20
-56.500000
30
0.0
11
-269.750000
21
-56.500000
31
0.0
0
LINE
8
0
6
CONTINUOUS
10
-241.250000
20
-57.500000
30
0.0
11
-228.375000
21
-57.500000
31
0.0
0
LINE
8
0
6
CONTINUOUS
10
-227.500000
20
-56.500000
30
0.0
11
-240.250000
21
-56.500000
31
0.0
0
LINE
8
0
6
CONTINUOUS
10
-252.375000
20
-57.500000
30
0.0
11
-241.250000
21
-57.500000
31
0.0
0
LINE
8
0
6
CONTINUOUS
10
-240.250000
20
-56.500000
30
0.0
11
-251.375000
21
-56.500000
31
0.0
0
LINE
8
0
6
CONTINUOUS
10
-260.750000
20
-57.500000
30
0.0
11
-252.375000
21
-57.500000
31
0.0
0
LINE
8
0
6
CONTINUOUS
10
-251.375000
20
-56.500000
30
0.0
11
-259.625000
21
-56.500000
31
0.0
0
LINE
8
0
6
CONTINUOUS
10
-267.125000
20
-57.500000
30
0.0
11
-260.750000
21
-57.500000
31
0.0
0
LINE
8
0
6
CONTINUOUS
10
-259.625000
20
-56.500000
30
0.0
11
-265.875000
21
-56.500000
31
0.0
0
LINE
8
0
6
CONTINUOUS
10
-271.000000
20
-57.500000
30
0.0
11
-267.125000
21
-57.500000
31
0.0
0
LINE
8
0
6
CONTINUOUS
10
-265.875000
20
-56.500000
30
0.0
11
-269.750000
21
-56.500000
31
0.0
0
LINE
8
0
6
CONTINUOUS
10
-272.500000
20
-57.500000
30
0.0
11
-271.000000
21
-57.500000
31
0.0
0
LINE
8
0
6
CONTINUOUS
10
-269.750000
20
-56.500000
30
0.0
11
-271.250000
21
-56.500000
31
0.0
0
LINE
8
0
6
CONTINUOUS
10
-241.250000
20
-70.500000
30
0.0
11
-228.375000
21
-70.500000
31
0.0
0
LINE
8
0
6
CONTINUOUS
10
-228.375000
20
-57.500000
30
0.0
11
-241.250000
21
-57.500000
31
0.0
0
LINE
8
0
6
CONTINUOUS
10
-252.375000
20
-70.500000
30
0.0
11
-241.250000
21
-70.500000
31
0.0
0
LINE
8
0
6
CONTINUOUS
10
-241.250000
20
-57.500000
30
0.0
11
-252.375000
21
-57.500000
31
0.0
0
LINE
8
0
6
CONTINUOUS
10
-260.750000
20
-70.500000
30
0.0
11
-252.375000
21
-70.500000
31
0.0
0
LINE
8
0
6
CONTINUOUS
10
-252.375000
20
-57.500000
30
0.0
11
-260.750000
21
-57.500000
31
0.0
0
LINE
8
0
6
CONTINUOUS
10
-267.125000
20
-70.500000
30
0.0
11
-260.750000
21
-70.500000
31
0.0
0
LINE
8
0
6
CONTINUOUS
10
-260.750000
20
-57.500000
30
0.0
11
-267.125000
21
-57.500000
31
0.0
0
LINE
8
0
6
CONTINUOUS
10
-271.000000
20
-70.500000
30
0.0
11
-267.125000
21
-70.500000
31
0.0
0
LINE
8
0
6
CONTINUOUS
10
-267.125000
20
-57.500000
30
0.0
11
-271.000000
21
-57.500000
31
0.0
0
LINE
8
0
6
CONTINUOUS
10
-272.500000
20
-70.500000
30
0.0
11
-271.000000
21
-70.500000
31
0.0
0
LINE
8
0
6
CONTINUOUS
10
-271.000000
20
-57.500000
30
0.0
11
-272.500000
21
-57.500000
31
0.0
0
LINE
8
0
6
CONTINUOUS
10
-240.250000
20
-71.500000
30
0.0
11
-227.500000
21
-71.500000
31
0.0
0
LINE
8
0
6
CONTINUOUS
10
-228.375000
20
-70.500000
30
0.0
11
-241.250000
21
-70.500000
31
0.0
0
LINE
8
0
6
CONTINUOUS
10
-251.375000
20
-71.500000
30
0.0
11
-240.250000
21
-71.500000
31
0.0
0
LINE
8
0
6
CONTINUOUS
10
-241.250000
20
-70.500000
30
0.0
11
-252.375000
21
-70.500000
31
0.0
0
LINE
8
0
6
CONTINUOUS
10
-259.625000
20
-71.500000
30
0.0
11
-251.375000
21
-71.500000
31
0.0
0
LINE
8
0
6
CONTINUOUS
10
-252.375000
20
-70.500000
30
0.0
11
-260.750000
21
-70.500000
31
0.0
0
LINE
8
0
6
CONTINUOUS
10
-265.875000
20
-71.500000
30
0.0
11
-259.625000
21
-71.500000
31
0.0
0
LINE
8
0
6
CONTINUOUS
10
-260.750000
20
-70.500000
30
0.0
11
-267.125000
21
-70.500000
31
0.0
0
LINE
8
0
6
CONTINUOUS
10
-269.750000
20
-71.500000
30
0.0
11
-265.875000
21
-71.500000
31
0.0
0
LINE
8
0
6
CONTINUOUS
10
-267.125000
20
-70.500000
30
0.0
11
-271.000000
21
-70.500000
31
0.0
0
LINE
8
0
6
CONTINUOUS
10
-271.250000
20
-71.500000
30
0.0
11
-269.750000
21
-71.500000
31
0.0
0
LINE
8
0
6
CONTINUOUS
10
-271.000000
20
-70.500000
30
0.0
11
-272.500000
21
-70.500000
31
0.0
0
LINE
8
0
6
CONTINUOUS
10
-227.500000
20
-71.500000
30
0.0
11
-240.250000
21
-71.500000
31
0.0
0
LINE
8
0
6
CONTINUOUS
10
-240.250000
20
-71.500000
30
0.0
11
-251.375000
21
-71.500000
31
0.0
0
LINE
8
0
6
CONTINUOUS
10
-251.375000
20
-71.500000
30
0.0
11
-259.625000
21
-71.500000
31
0.0
0
LINE
8
0
6
CONTINUOUS
10
-259.625000
20
-71.500000
30
0.0
11
-260.000000
21
-71.500000
31
0.0
0
LINE
8
0
6
CONTINUOUS
10
-265.875000
20
-71.500000
30
0.0
11
-269.750000
21
-71.500000
31
0.0
0
LINE
8
0
6
CONTINUOUS
10
-269.750000
20
-71.500000
30
0.0
11
-271.250000
21
-71.500000
31
0.0
0
LINE
8
0
6
CONTINUOUS
10
-259.625000
20
-56.500000
30
0.0
11
-265.875000
21
-56.500000
31
0.0
0
LINE
8
0
6
CONTINUOUS
10
-241.250000
20
-57.500000
30
0.0
11
-252.375000
21
-57.500000
31
0.0
0
LINE
8
0
6
CONTINUOUS
10
-265.875000
20
-56.500000
30
0.0
11
-259.625000
21
-56.500000
31
0.0
0
LINE
8
0
6
CONTINUOUS
10
-267.125000
20
-57.500000
30
0.0
11
-271.000000
21
-57.500000
31
0.0
0
LINE
8
0
6
CONTINUOUS
10
-272.500000
20
-57.500000
30
0.0
11
-271.250000
21
-56.500000
31
0.0
0
LINE
8
0
6
CONTINUOUS
10
-272.500000
20
-70.500000
30
0.0
11
-272.500000
21
-57.500000
31
0.0
0
LINE
8
0
6
CONTINUOUS
10
-242.203500
20
-71.500000
30
0.0
11
-251.375000
21
-71.500000
31
0.0
0
LINE
8
0
6
CONTINUOUS
10
-265.875000
20
-71.500000
30
0.0
11
-269.750000
21
-71.500000
31
0.0
0
LINE
8
0
6
CONTINUOUS
10
-271.250000
20
-71.500000
30
0.0
11
-272.500000
21
-70.500000
31
0.0
0
LINE
8
0
6
CONTINUOUS
10
-251.375000
20
-71.500000
30
0.0
11
-242.203500
21
-71.500000
31
0.0
0
LINE
8
0
6
CONTINUOUS
10
-269.750000
20
-71.500000
30
0.0
11
-265.875000
21
-71.500000
31
0.0
0
LINE
8
0
6
CONTINUOUS
10
-196.500000
20
-56.500000
30
0.0
11
-212.875000
21
-56.500000
31
0.0
0
LINE
8
0
6
CONTINUOUS
10
-212.875000
20
-56.500000
30
0.0
11
-196.500000
21
-56.500000
31
0.0
0
LINE
8
0
6
CONTINUOUS
10
-161.250000
20
-57.500000
30
0.0
11
-179.750000
21
-57.500000
31
0.0
0
LINE
8
0
6
CONTINUOUS
10
-163.750000
20
-71.500000
30
0.0
11
-179.375000
21
-71.500000
31
0.0
0
LINE
8
0
6
CONTINUOUS
10
-179.375000
20
-71.500000
30
0.0
11
-163.750000
21
-71.500000
31
0.0
0
LINE
8
0
6
CONTINUOUS
10
-87.200000
20
-52.500000
30
0.0
11
-82.900000
21
-52.500000
31
0.0
0
LINE
8
0
6
CONTINUOUS
10
-82.900000
20
-52.500000
30
0.0
11
-79.200000
21
-52.500000
31
0.0
0
LINE
8
0
6
CONTINUOUS
10
-79.200000
20
-52.500000
30
0.0
11
-76.400000
21
-52.500000
31
0.0
0
LINE
8
0
6
CONTINUOUS
10
-76.400000
20
-52.500000
30
0.0
11
-74.300000
21
-52.500000
31
0.0
0
LINE
8
0
6
CONTINUOUS
10
-74.300000
20
-52.500000
30
0.0
11
-73.000000
21
-52.500000
31
0.0
0
LINE
8
0
6
CONTINUOUS
10
-73.000000
20
-52.500000
30
0.0
11
-72.500000
21
-52.500000
31
0.0
0
LINE
8
0
6
CONTINUOUS
10
-82.900000
20
-52.500000
30
0.0
11
-87.200000
21
-52.500000
31
0.0
0
LINE
8
0
6
CONTINUOUS
10
-82.900000
20
-56.500000
30
0.0
11
-79.200000
21
-56.500000
31
0.0
0
LINE
8
0
6
CONTINUOUS
10
-79.200000
20
-52.500000
30
0.0
11
-82.900000
21
-52.500000
31
0.0
0
LINE
8
0
6
CONTINUOUS
10
-79.200000
20
-56.500000
30
0.0
11
-76.400000
21
-56.500000
31
0.0
0
LINE
8
0
6
CONTINUOUS
10
-76.400000
20
-52.500000
30
0.0
11
-79.200000
21
-52.500000
31
0.0
0
LINE
8
0
6
CONTINUOUS
10
-76.400000
20
-56.500000
30
0.0
11
-74.300000
21
-56.500000
31
0.0
0
LINE
8
0
6
CONTINUOUS
10
-74.300000
20
-52.500000
30
0.0
11
-76.400000
21
-52.500000
31
0.0
0
LINE
8
0
6
CONTINUOUS
10
-74.300000
20
-56.500000
30
0.0
11
-73.000000
21
-56.500000
31
0.0
0
LINE
8
0
6
CONTINUOUS
10
-73.000000
20
-52.500000
30
0.0
11
-74.300000
21
-52.500000
31
0.0
0
LINE
8
0
6
CONTINUOUS
10
-73.000000
20
-56.500000
30
0.0
11
-72.500000
21
-56.500000
31
0.0
0
LINE
8
0
6
CONTINUOUS
10
-72.500000
20
-52.500000
30
0.0
11
-73.000000
21
-52.500000
31
0.0
0
LINE
8
0
6
CONTINUOUS
10
-72.500000
20
-56.500000
30
0.0
11
-72.500000
21
-52.500000
31
0.0
0
LINE
8
0
6
CONTINUOUS
10
-92.100000
20
-52.500000
30
0.0
11
-87.200000
21
-52.500000
31
0.0
0
LINE
8
0
6
CONTINUOUS
10
-97.600000
20
-52.500000
30
0.0
11
-92.100000
21
-52.500000
31
0.0
0
LINE
8
0
6
CONTINUOUS
10
-103.400000
20
-52.500000
30
0.0
11
-97.600000
21
-52.500000
31
0.0
0
LINE
8
0
6
CONTINUOUS
10
-109.600000
20
-52.500000
30
0.0
11
-103.400000
21
-52.500000
31
0.0
0
LINE
8
0
6
CONTINUOUS
10
-116.000000
20
-52.500000
30
0.0
11
-109.600000
21
-52.500000
31
0.0
0
LINE
8
0
6
CONTINUOUS
10
-122.500000
20
-52.500000
30
0.0
11
-116.000000
21
-52.500000
31
0.0
0
LINE
8
0
6
CONTINUOUS
10
-87.200000
20
-52.500000
30
0.0
11
-92.100000
21
-52.500000
31
0.0
0
LINE
8
0
6
CONTINUOUS
10
-92.100000
20
-52.500000
30
0.0
11
-97.600000
21
-52.500000
31
0.0
0
LINE
8
0
6
CONTINUOUS
10
-97.600000
20
-52.500000
30
0.0
11
-103.400000
21
-52.500000
31
0.0
0
LINE
8
0
6
CONTINUOUS
10
-103.400000
20
-52.500000
30
0.0
11
-109.600000
21
-52.500000
31
0.0
0
LINE
8
0
6
CONTINUOUS
10
-109.600000
20
-52.500000
30
0.0
11
-116.000000
21
-52.500000
31
0.0
0
LINE
8
0
6
CONTINUOUS
10
-116.000000
20
-52.500000
30
0.0
11
-122.500000
21
-52.500000
31
0.0
0
LINE
8
0
6
CONTINUOUS
10
-157.800000
20
-52.500000
30
0.0
11
-152.900000
21
-52.500000
31
0.0
0
LINE
8
0
6
CONTINUOUS
10
-152.900000
20
-52.500000
30
0.0
11
-147.400000
21
-52.500000
31
0.0
0
LINE
8
0
6
CONTINUOUS
10
-147.400000
20
-52.500000
30
0.0
11
-141.600000
21
-52.500000
31
0.0
0
LINE
8
0
6
CONTINUOUS
10
-141.600000
20
-52.500000
30
0.0
11
-135.400000
21
-52.500000
31
0.0
0
LINE
8
0
6
CONTINUOUS
10
-135.400000
20
-52.500000
30
0.0
11
-129.000000
21
-52.500000
31
0.0
0
LINE
8
0
6
CONTINUOUS
10
-129.000000
20
-52.500000
30
0.0
11
-122.500000
21
-52.500000
31
0.0
0
LINE
8
0
6
CONTINUOUS
10
-157.800000
20
-56.500000
30
0.0
11
-152.900000
21
-56.500000
31
0.0
0
LINE
8
0
6
CONTINUOUS
10
-152.900000
20
-52.500000
30
0.0
11
-157.800000
21
-52.500000
31
0.0
0
LINE
8
0
6
CONTINUOUS
10
-152.900000
20
-56.500000
30
0.0
11
-147.400000
21
-56.500000
31
0.0
0
LINE
8
0
6
CONTINUOUS
10
-147.400000
20
-52.500000
30
0.0
11
-152.900000
21
-52.500000
31
0.0
0
LINE
8
0
6
CONTINUOUS
10
-147.400000
20
-56.500000
30
0.0
11
-141.600000
21
-56.500000
31
0.0
0
LINE
8
0
6
CONTINUOUS
10
-141.600000
20
-52.500000
30
0.0
11
-147.400000
21
-52.500000
31
0.0
0
LINE
8
0
6
CONTINUOUS
10
-135.400000
20
-52.500000
30
0.0
11
-141.600000
21
-52.500000
31
0.0
0
LINE
8
0
6
CONTINUOUS
10
-129.000000
20
-52.500000
30
0.0
11
-135.400000
21
-52.500000
31
0.0
0
LINE
8
0
6
CONTINUOUS
10
-122.500000
20
-52.500000
30
0.0
11
-129.000000
21
-52.500000
31
0.0
0
LINE
8
0
6
CONTINUOUS
10
-162.100000
20
-52.500000
30
0.0
11
-157.800000
21
-52.500000
31
0.0
0
LINE
8
0
6
CONTINUOUS
10
-165.800000
20
-52.500000
30
0.0
11
-162.100000
21
-52.500000
31
0.0
0
LINE
8
0
6
CONTINUOUS
10
-168.600000
20
-52.500000
30
0.0
11
-165.800000
21
-52.500000
31
0.0
0
LINE
8
0
6
CONTINUOUS
10
-170.700000
20
-52.500000
30
0.0
11
-168.600000
21
-52.500000
31
0.0
0
LINE
8
0
6
CONTINUOUS
10
-172.000000
20
-52.500000
30
0.0
11
-170.700000
21
-52.500000
31
0.0
0
LINE
8
0
6
CONTINUOUS
10
-172.500000
20
-52.500000
30
0.0
11
-172.000000
21
-52.500000
31
0.0
0
LINE
8
0
6
CONTINUOUS
10
-157.800000
20
-52.500000
30
0.0
11
-162.100000
21
-52.500000
31
0.0
0
LINE
8
0
6
CONTINUOUS
10
-162.100000
20
-52.500000
30
0.0
11
-165.800000
21
-52.500000
31
0.0
0
LINE
8
0
6
CONTINUOUS
10
-165.800000
20
-52.500000
30
0.0
11
-168.600000
21
-52.500000
31
0.0
0
LINE
8
0
6
CONTINUOUS
10
-168.600000
20
-52.500000
30
0.0
11
-170.700000
21
-52.500000
31
0.0
0
LINE
8
0
6
CONTINUOUS
10
-170.700000
20
-52.500000
30
0.0
11
-172.000000
21
-52.500000
31
0.0
0
LINE
8
0
6
CONTINUOUS
10
-172.000000
20
-52.500000
30
0.0
11
-172.500000
21
-52.500000
31
0.0
0
LINE
8
0
6
CONTINUOUS
10
-172.500000
20
-56.500000
30
0.0
11
-172.500000
21
-52.500000
31
0.0
0
ENDSEC
0
EOF
