999
Erzeugt mit innoplus bad 
0
SECTION
2
HEADER
9
$ACADVER
1
AC1009
9
$DWGCODEPAGE
3
ISO8859-1
0
ENDSEC
0
SECTION
2
TABLES
0
TABLE
2
LAYER
70
1
0
LAYER
2
0
70
0
62
7
6
CONTINUOUS
0
ENDTAB
0
ENDSEC
0
SECTION
2
ENTITIES
0
LINE
8
0
6
CONTINUOUS
10
1.536000
20
-73.500000
30
0.0
11
2.976000
21
-73.500000
31
0.0
0
LINE
8
0
6
CONTINUOUS
10
2.976000
20
-73.500000
30
0.0
11
4.248000
21
-73.500000
31
0.0
0
LINE
8
0
6
CONTINUOUS
10
2.976000
20
-73.500000
30
0.0
11
1.536000
21
-73.500000
31
0.0
0
LINE
8
0
6
CONTINUOUS
10
4.248000
20
-73.500000
30
0.0
11
2.976000
21
-73.500000
31
0.0
0
LINE
8
0
6
CONTINUOUS
10
-2.976000
20
-73.500000
30
0.0
11
-1.536000
21
-73.500000
31
0.0
0
LINE
8
0
6
CONTINUOUS
10
-4.248000
20
-73.500000
30
0.0
11
-2.976000
21
-73.500000
31
0.0
0
LINE
8
0
6
CONTINUOUS
10
-1.536000
20
-73.500000
30
0.0
11
-2.976000
21
-73.500000
31
0.0
0
LINE
8
0
6
CONTINUOUS
10
-2.976000
20
-73.500000
30
0.0
11
-4.248000
21
-73.500000
31
0.0
0
LINE
8
0
6
CONTINUOUS
10
-54.800800
20
-71.500000
30
0.0
11
-56.568500
21
-71.500000
31
0.0
0
LINE
8
0
6
CONTINUOUS
10
-56.568500
20
-71.500000
30
0.0
11
-54.800800
21
-71.500000
31
0.0
0
LINE
8
0
6
CONTINUOUS
10
-41.543000
20
-71.500000
30
0.0
11
-43.310000
21
-71.500000
31
0.0
0
LINE
8
0
6
CONTINUOUS
10
-43.310000
20
-71.500000
30
0.0
11
-45.078000
21
-71.500000
31
0.0
0
LINE
8
0
6
CONTINUOUS
10
-45.078000
20
-71.500000
30
0.0
11
-43.310000
21
-71.500000
31
0.0
0
LINE
8
0
6
CONTINUOUS
10
-43.310000
20
-71.500000
30
0.0
11
-41.543000
21
-71.500000
31
0.0
0
LINE
8
0
6
CONTINUOUS
10
130.076000
20
-71.500000
30
0.0
11
130.076000
21
-73.500000
31
0.0
0
LINE
8
0
6
CONTINUOUS
10
132.491000
20
-73.500000
30
0.0
11
133.139000
21
-73.500000
31
0.0
0
LINE
8
0
6
CONTINUOUS
10
130.076000
20
-73.500000
30
0.0
11
132.491000
21
-73.500000
31
0.0
0
LINE
8
0
6
CONTINUOUS
10
132.491000
20
-71.500000
30
0.0
11
132.491000
21
-73.500000
31
0.0
0
LINE
8
0
6
CONTINUOUS
10
130.076000
20
-73.500000
30
0.0
11
130.076000
21
-71.500000
31
0.0
0
LINE
8
0
6
CONTINUOUS
10
132.491000
20
-73.500000
30
0.0
11
130.076000
21
-73.500000
31
0.0
0
LINE
8
0
6
CONTINUOUS
10
133.139000
20
-71.500000
30
0.0
11
133.139000
21
-73.500000
31
0.0
0
LINE
8
0
6
CONTINUOUS
10
132.491000
20
-73.500000
30
0.0
11
132.491000
21
-71.500000
31
0.0
0
LINE
8
0
6
CONTINUOUS
10
133.139000
20
-73.500000
30
0.0
11
132.491000
21
-73.500000
31
0.0
0
LINE
8
0
6
CONTINUOUS
10
133.139000
20
-73.500000
30
0.0
11
133.139000
21
-71.500000
31
0.0
0
LINE
8
0
6
CONTINUOUS
10
111.965000
20
-71.500000
30
0.0
11
111.965000
21
-73.500000
31
0.0
0
LINE
8
0
6
CONTINUOUS
10
114.380000
20
-73.500000
30
0.0
11
115.027000
21
-73.500000
31
0.0
0
LINE
8
0
6
CONTINUOUS
10
111.965000
20
-73.500000
30
0.0
11
114.380000
21
-73.500000
31
0.0
0
LINE
8
0
6
CONTINUOUS
10
114.380000
20
-71.500000
30
0.0
11
114.380000
21
-73.500000
31
0.0
0
LINE
8
0
6
CONTINUOUS
10
111.965000
20
-73.500000
30
0.0
11
111.965000
21
-71.500000
31
0.0
0
LINE
8
0
6
CONTINUOUS
10
114.380000
20
-73.500000
30
0.0
11
111.965000
21
-73.500000
31
0.0
0
LINE
8
0
6
CONTINUOUS
10
115.027000
20
-71.500000
30
0.0
11
115.027000
21
-73.500000
31
0.0
0
LINE
8
0
6
CONTINUOUS
10
114.380000
20
-73.500000
30
0.0
11
114.380000
21
-71.500000
31
0.0
0
LINE
8
0
6
CONTINUOUS
10
115.027000
20
-73.500000
30
0.0
11
114.380000
21
-73.500000
31
0.0
0
LINE
8
0
6
CONTINUOUS
10
115.027000
20
-73.500000
30
0.0
11
115.027000
21
-71.500000
31
0.0
0
LINE
8
0
6
CONTINUOUS
10
116.289000
20
-71.500000
30
0.0
11
116.289000
21
-73.500000
31
0.0
0
LINE
8
0
6
CONTINUOUS
10
118.454000
20
-73.500000
30
0.0
11
119.704000
21
-73.500000
31
0.0
0
LINE
8
0
6
CONTINUOUS
10
116.289000
20
-73.500000
30
0.0
11
118.454000
21
-73.500000
31
0.0
0
LINE
8
0
6
CONTINUOUS
10
118.454000
20
-71.500000
30
0.0
11
118.454000
21
-73.500000
31
0.0
0
LINE
8
0
6
CONTINUOUS
10
116.289000
20
-73.500000
30
0.0
11
116.289000
21
-71.500000
31
0.0
0
LINE
8
0
6
CONTINUOUS
10
118.454000
20
-73.500000
30
0.0
11
116.289000
21
-73.500000
31
0.0
0
LINE
8
0
6
CONTINUOUS
10
119.704000
20
-71.500000
30
0.0
11
119.704000
21
-73.500000
31
0.0
0
LINE
8
0
6
CONTINUOUS
10
118.454000
20
-73.500000
30
0.0
11
118.454000
21
-71.500000
31
0.0
0
LINE
8
0
6
CONTINUOUS
10
119.704000
20
-73.500000
30
0.0
11
118.454000
21
-73.500000
31
0.0
0
LINE
8
0
6
CONTINUOUS
10
119.704000
20
-73.500000
30
0.0
11
119.704000
21
-71.500000
31
0.0
0
LINE
8
0
6
CONTINUOUS
10
75.744000
20
-71.500000
30
0.0
11
75.744000
21
-73.500000
31
0.0
0
LINE
8
0
6
CONTINUOUS
10
76.390000
20
-71.500000
30
0.0
11
75.744000
21
-71.500000
31
0.0
0
LINE
8
0
6
CONTINUOUS
10
78.158000
20
-73.500000
30
0.0
11
78.805000
21
-73.500000
31
0.0
0
LINE
8
0
6
CONTINUOUS
10
75.744000
20
-73.500000
30
0.0
11
78.158000
21
-73.500000
31
0.0
0
LINE
8
0
6
CONTINUOUS
10
78.158000
20
-71.500000
30
0.0
11
78.158000
21
-73.500000
31
0.0
0
LINE
8
0
6
CONTINUOUS
10
75.744000
20
-71.500000
30
0.0
11
78.158000
21
-71.500000
31
0.0
0
LINE
8
0
6
CONTINUOUS
10
75.744000
20
-73.500000
30
0.0
11
75.744000
21
-71.500000
31
0.0
0
LINE
8
0
6
CONTINUOUS
10
78.158000
20
-73.500000
30
0.0
11
75.744000
21
-73.500000
31
0.0
0
LINE
8
0
6
CONTINUOUS
10
78.805000
20
-71.500000
30
0.0
11
78.805000
21
-73.500000
31
0.0
0
LINE
8
0
6
CONTINUOUS
10
78.158000
20
-71.500000
30
0.0
11
78.805000
21
-71.500000
31
0.0
0
LINE
8
0
6
CONTINUOUS
10
78.158000
20
-73.500000
30
0.0
11
78.158000
21
-71.500000
31
0.0
0
LINE
8
0
6
CONTINUOUS
10
78.805000
20
-73.500000
30
0.0
11
78.158000
21
-73.500000
31
0.0
0
LINE
8
0
6
CONTINUOUS
10
78.805000
20
-71.500000
30
0.0
11
76.390000
21
-71.500000
31
0.0
0
LINE
8
0
6
CONTINUOUS
10
78.805000
20
-73.500000
30
0.0
11
78.805000
21
-71.500000
31
0.0
0
LINE
8
0
6
CONTINUOUS
10
22.056000
20
-71.500000
30
0.0
11
21.410000
21
-71.500000
31
0.0
0
LINE
8
0
6
CONTINUOUS
10
23.825000
20
-71.500000
30
0.0
11
23.825000
21
-73.500000
31
0.0
0
LINE
8
0
6
CONTINUOUS
10
21.410000
20
-71.500000
30
0.0
11
23.825000
21
-71.500000
31
0.0
0
LINE
8
0
6
CONTINUOUS
10
23.825000
20
-71.500000
30
0.0
11
24.471000
21
-71.500000
31
0.0
0
LINE
8
0
6
CONTINUOUS
10
23.825000
20
-73.500000
30
0.0
11
23.825000
21
-71.500000
31
0.0
0
LINE
8
0
6
CONTINUOUS
10
24.471000
20
-71.500000
30
0.0
11
22.056000
21
-71.500000
31
0.0
0
LINE
8
0
6
CONTINUOUS
10
18.860000
20
-71.500000
30
0.0
11
18.860000
21
-73.500000
31
0.0
0
LINE
8
0
6
CONTINUOUS
10
20.110000
20
-71.500000
30
0.0
11
18.860000
21
-71.500000
31
0.0
0
LINE
8
0
6
CONTINUOUS
10
18.860000
20
-71.500000
30
0.0
11
21.026000
21
-71.500000
31
0.0
0
LINE
8
0
6
CONTINUOUS
10
18.860000
20
-73.500000
30
0.0
11
18.860000
21
-71.500000
31
0.0
0
LINE
8
0
6
CONTINUOUS
10
21.026000
20
-71.500000
30
0.0
11
22.276000
21
-71.500000
31
0.0
0
LINE
8
0
6
CONTINUOUS
10
22.276000
20
-71.500000
30
0.0
11
20.110000
21
-71.500000
31
0.0
0
LINE
8
0
6
CONTINUOUS
10
60.694000
20
-71.500000
30
0.0
11
60.694000
21
-73.500000
31
0.0
0
LINE
8
0
6
CONTINUOUS
10
60.694000
20
-73.500000
30
0.0
11
60.694000
21
-71.500000
31
0.0
0
LINE
8
0
6
CONTINUOUS
10
93.854000
20
-71.500000
30
0.0
11
93.854000
21
-73.500000
31
0.0
0
LINE
8
0
6
CONTINUOUS
10
93.854000
20
-73.500000
30
0.0
11
93.854000
21
-71.500000
31
0.0
0
LINE
8
0
6
CONTINUOUS
10
85.063000
20
-71.500000
30
0.0
11
83.813000
21
-71.500000
31
0.0
0
LINE
8
0
6
CONTINUOUS
10
85.977000
20
-73.500000
30
0.0
11
87.227000
21
-73.500000
31
0.0
0
LINE
8
0
6
CONTINUOUS
10
83.813000
20
-73.500000
30
0.0
11
85.977000
21
-73.500000
31
0.0
0
LINE
8
0
6
CONTINUOUS
10
85.977000
20
-71.500000
30
0.0
11
85.977000
21
-73.500000
31
0.0
0
LINE
8
0
6
CONTINUOUS
10
83.813000
20
-71.500000
30
0.0
11
85.977000
21
-71.500000
31
0.0
0
LINE
8
0
6
CONTINUOUS
10
85.977000
20
-73.500000
30
0.0
11
83.813000
21
-73.500000
31
0.0
0
LINE
8
0
6
CONTINUOUS
10
87.227000
20
-71.500000
30
0.0
11
87.227000
21
-73.500000
31
0.0
0
LINE
8
0
6
CONTINUOUS
10
85.977000
20
-71.500000
30
0.0
11
87.227000
21
-71.500000
31
0.0
0
LINE
8
0
6
CONTINUOUS
10
85.977000
20
-73.500000
30
0.0
11
85.977000
21
-71.500000
31
0.0
0
LINE
8
0
6
CONTINUOUS
10
87.227000
20
-73.500000
30
0.0
11
85.977000
21
-73.500000
31
0.0
0
LINE
8
0
6
CONTINUOUS
10
87.227000
20
-71.500000
30
0.0
11
85.063000
21
-71.500000
31
0.0
0
LINE
8
0
6
CONTINUOUS
10
87.227000
20
-73.500000
30
0.0
11
87.227000
21
-71.500000
31
0.0
0
LINE
8
0
6
CONTINUOUS
10
69.826000
20
-73.500000
30
0.0
11
71.595000
21
-73.500000
31
0.0
0
LINE
8
0
6
CONTINUOUS
10
71.595000
20
-71.500000
30
0.0
11
71.595000
21
-73.500000
31
0.0
0
LINE
8
0
6
CONTINUOUS
10
71.595000
20
-73.500000
30
0.0
11
69.826000
21
-73.500000
31
0.0
0
LINE
8
0
6
CONTINUOUS
10
71.595000
20
-73.500000
30
0.0
11
71.595000
21
-71.500000
31
0.0
0
LINE
8
0
6
CONTINUOUS
10
51.336000
20
-71.500000
30
0.0
11
51.336000
21
-73.500000
31
0.0
0
LINE
8
0
6
CONTINUOUS
10
53.501000
20
-73.500000
30
0.0
11
54.751000
21
-73.500000
31
0.0
0
LINE
8
0
6
CONTINUOUS
10
51.336000
20
-73.500000
30
0.0
11
53.501000
21
-73.500000
31
0.0
0
LINE
8
0
6
CONTINUOUS
10
53.501000
20
-71.500000
30
0.0
11
53.501000
21
-73.500000
31
0.0
0
LINE
8
0
6
CONTINUOUS
10
51.336000
20
-73.500000
30
0.0
11
51.336000
21
-71.500000
31
0.0
0
LINE
8
0
6
CONTINUOUS
10
53.501000
20
-73.500000
30
0.0
11
51.336000
21
-73.500000
31
0.0
0
LINE
8
0
6
CONTINUOUS
10
54.751000
20
-71.500000
30
0.0
11
54.751000
21
-73.500000
31
0.0
0
LINE
8
0
6
CONTINUOUS
10
53.501000
20
-73.500000
30
0.0
11
53.501000
21
-71.500000
31
0.0
0
LINE
8
0
6
CONTINUOUS
10
54.751000
20
-73.500000
30
0.0
11
53.501000
21
-73.500000
31
0.0
0
LINE
8
0
6
CONTINUOUS
10
54.751000
20
-73.500000
30
0.0
11
54.751000
21
-71.500000
31
0.0
0
LINE
8
0
6
CONTINUOUS
10
43.310000
20
-73.500000
30
0.0
11
45.077000
21
-73.500000
31
0.0
0
LINE
8
0
6
CONTINUOUS
10
41.542000
20
-73.500000
30
0.0
11
43.310000
21
-73.500000
31
0.0
0
LINE
8
0
6
CONTINUOUS
10
43.310000
20
-71.500000
30
0.0
11
43.310000
21
-73.500000
31
0.0
0
LINE
8
0
6
CONTINUOUS
10
43.310000
20
-73.500000
30
0.0
11
41.542000
21
-73.500000
31
0.0
0
LINE
8
0
6
CONTINUOUS
10
45.077000
20
-71.500000
30
0.0
11
45.077000
21
-73.500000
31
0.0
0
LINE
8
0
6
CONTINUOUS
10
43.310000
20
-73.500000
30
0.0
11
43.310000
21
-71.500000
31
0.0
0
LINE
8
0
6
CONTINUOUS
10
45.077000
20
-73.500000
30
0.0
11
43.310000
21
-73.500000
31
0.0
0
LINE
8
0
6
CONTINUOUS
10
45.077000
20
-73.500000
30
0.0
11
45.077000
21
-71.500000
31
0.0
0
LINE
8
0
6
CONTINUOUS
10
28.284000
20
-71.500000
30
0.0
11
28.284000
21
-73.500000
31
0.0
0
LINE
8
0
6
CONTINUOUS
10
30.053000
20
-71.500000
30
0.0
11
28.284000
21
-71.500000
31
0.0
0
LINE
8
0
6
CONTINUOUS
10
28.284000
20
-71.500000
30
0.0
11
30.053000
21
-71.500000
31
0.0
0
LINE
8
0
6
CONTINUOUS
10
28.284000
20
-73.500000
30
0.0
11
28.284000
21
-71.500000
31
0.0
0
LINE
8
0
6
CONTINUOUS
10
30.053000
20
-71.500000
30
0.0
11
31.820000
21
-71.500000
31
0.0
0
LINE
8
0
6
CONTINUOUS
10
31.820000
20
-71.500000
30
0.0
11
30.053000
21
-71.500000
31
0.0
0
LINE
8
0
6
CONTINUOUS
10
54.801000
20
-71.500000
30
0.0
11
54.801000
21
-73.500000
31
0.0
0
LINE
8
0
6
CONTINUOUS
10
54.801000
20
-73.500000
30
0.0
11
56.569000
21
-73.500000
31
0.0
0
LINE
8
0
6
CONTINUOUS
10
56.569000
20
-71.500000
30
0.0
11
56.569000
21
-73.500000
31
0.0
0
LINE
8
0
6
CONTINUOUS
10
54.801000
20
-73.500000
30
0.0
11
54.801000
21
-71.500000
31
0.0
0
LINE
8
0
6
CONTINUOUS
10
56.569000
20
-73.500000
30
0.0
11
54.801000
21
-73.500000
31
0.0
0
LINE
8
0
6
CONTINUOUS
10
56.569000
20
-73.500000
30
0.0
11
56.569000
21
-71.500000
31
0.0
0
LINE
8
0
6
CONTINUOUS
10
36.349000
20
-71.500000
30
0.0
11
35.099000
21
-71.500000
31
0.0
0
LINE
8
0
6
CONTINUOUS
10
37.264000
20
-73.500000
30
0.0
11
38.514000
21
-73.500000
31
0.0
0
LINE
8
0
6
CONTINUOUS
10
37.264000
20
-71.500000
30
0.0
11
37.264000
21
-73.500000
31
0.0
0
LINE
8
0
6
CONTINUOUS
10
35.099000
20
-71.500000
30
0.0
11
37.264000
21
-71.500000
31
0.0
0
LINE
8
0
6
CONTINUOUS
10
37.264000
20
-73.500000
30
0.0
11
37.264000
21
-71.500000
31
0.0
0
LINE
8
0
6
CONTINUOUS
10
38.514000
20
-73.500000
30
0.0
11
37.264000
21
-73.500000
31
0.0
0
LINE
8
0
6
CONTINUOUS
10
100.050000
20
-71.500000
30
0.0
11
100.050000
21
-73.500000
31
0.0
0
LINE
8
0
6
CONTINUOUS
10
102.215000
20
-73.500000
30
0.0
11
103.465000
21
-73.500000
31
0.0
0
LINE
8
0
6
CONTINUOUS
10
100.050000
20
-73.500000
30
0.0
11
102.215000
21
-73.500000
31
0.0
0
LINE
8
0
6
CONTINUOUS
10
102.215000
20
-71.500000
30
0.0
11
102.215000
21
-73.500000
31
0.0
0
LINE
8
0
6
CONTINUOUS
10
100.050000
20
-73.500000
30
0.0
11
100.050000
21
-71.500000
31
0.0
0
LINE
8
0
6
CONTINUOUS
10
102.215000
20
-73.500000
30
0.0
11
100.050000
21
-73.500000
31
0.0
0
LINE
8
0
6
CONTINUOUS
10
103.465000
20
-71.500000
30
0.0
11
103.465000
21
-73.500000
31
0.0
0
LINE
8
0
6
CONTINUOUS
10
102.215000
20
-73.500000
30
0.0
11
102.215000
21
-71.500000
31
0.0
0
LINE
8
0
6
CONTINUOUS
10
103.465000
20
-73.500000
30
0.0
11
102.215000
21
-73.500000
31
0.0
0
LINE
8
0
6
CONTINUOUS
10
103.465000
20
-73.500000
30
0.0
11
103.465000
21
-71.500000
31
0.0
0
LINE
8
0
6
CONTINUOUS
10
81.318000
20
-71.500000
30
0.0
11
81.318000
21
-73.500000
31
0.0
0
LINE
8
0
6
CONTINUOUS
10
83.085000
20
-71.500000
30
0.0
11
81.318000
21
-71.500000
31
0.0
0
LINE
8
0
6
CONTINUOUS
10
83.085000
20
-73.500000
30
0.0
11
84.852000
21
-73.500000
31
0.0
0
LINE
8
0
6
CONTINUOUS
10
81.318000
20
-73.500000
30
0.0
11
83.085000
21
-73.500000
31
0.0
0
LINE
8
0
6
CONTINUOUS
10
83.085000
20
-71.500000
30
0.0
11
83.085000
21
-73.500000
31
0.0
0
LINE
8
0
6
CONTINUOUS
10
81.318000
20
-71.500000
30
0.0
11
83.085000
21
-71.500000
31
0.0
0
LINE
8
0
6
CONTINUOUS
10
81.318000
20
-73.500000
30
0.0
11
81.318000
21
-71.500000
31
0.0
0
LINE
8
0
6
CONTINUOUS
10
83.085000
20
-73.500000
30
0.0
11
81.318000
21
-73.500000
31
0.0
0
LINE
8
0
6
CONTINUOUS
10
84.852000
20
-71.500000
30
0.0
11
84.852000
21
-73.500000
31
0.0
0
LINE
8
0
6
CONTINUOUS
10
83.085000
20
-71.500000
30
0.0
11
84.852000
21
-71.500000
31
0.0
0
LINE
8
0
6
CONTINUOUS
10
83.085000
20
-73.500000
30
0.0
11
83.085000
21
-71.500000
31
0.0
0
LINE
8
0
6
CONTINUOUS
10
84.852000
20
-73.500000
30
0.0
11
83.085000
21
-73.500000
31
0.0
0
LINE
8
0
6
CONTINUOUS
10
84.852000
20
-71.500000
30
0.0
11
83.085000
21
-71.500000
31
0.0
0
LINE
8
0
6
CONTINUOUS
10
84.852000
20
-73.500000
30
0.0
11
84.852000
21
-71.500000
31
0.0
0
LINE
8
0
6
CONTINUOUS
10
94.575000
20
-71.500000
30
0.0
11
94.575000
21
-73.500000
31
0.0
0
LINE
8
0
6
CONTINUOUS
10
96.344000
20
-73.500000
30
0.0
11
98.111000
21
-73.500000
31
0.0
0
LINE
8
0
6
CONTINUOUS
10
94.575000
20
-73.500000
30
0.0
11
96.344000
21
-73.500000
31
0.0
0
LINE
8
0
6
CONTINUOUS
10
96.344000
20
-71.500000
30
0.0
11
96.344000
21
-73.500000
31
0.0
0
LINE
8
0
6
CONTINUOUS
10
94.575000
20
-73.500000
30
0.0
11
94.575000
21
-71.500000
31
0.0
0
LINE
8
0
6
CONTINUOUS
10
96.344000
20
-73.500000
30
0.0
11
94.575000
21
-73.500000
31
0.0
0
LINE
8
0
6
CONTINUOUS
10
98.111000
20
-71.500000
30
0.0
11
98.111000
21
-73.500000
31
0.0
0
LINE
8
0
6
CONTINUOUS
10
96.344000
20
-73.500000
30
0.0
11
96.344000
21
-71.500000
31
0.0
0
LINE
8
0
6
CONTINUOUS
10
98.111000
20
-73.500000
30
0.0
11
96.344000
21
-73.500000
31
0.0
0
LINE
8
0
6
CONTINUOUS
10
98.111000
20
-73.500000
30
0.0
11
98.111000
21
-71.500000
31
0.0
0
LINE
8
0
6
CONTINUOUS
10
16.794000
20
-73.500000
30
0.0
11
18.561000
21
-73.500000
31
0.0
0
LINE
8
0
6
CONTINUOUS
10
18.561000
20
-71.500000
30
0.0
11
18.561000
21
-73.500000
31
0.0
0
LINE
8
0
6
CONTINUOUS
10
18.561000
20
-73.500000
30
0.0
11
16.794000
21
-73.500000
31
0.0
0
LINE
8
0
6
CONTINUOUS
10
18.561000
20
-73.500000
30
0.0
11
18.561000
21
-71.500000
31
0.0
0
LINE
8
0
6
CONTINUOUS
10
-39.521000
20
-71.500000
30
0.0
11
-40.168000
21
-71.500000
31
0.0
0
LINE
8
0
6
CONTINUOUS
10
-40.168000
20
-71.500000
30
0.0
11
-42.583000
21
-71.500000
31
0.0
0
LINE
8
0
6
CONTINUOUS
10
-42.583000
20
-71.500000
30
0.0
11
-41.936000
21
-71.500000
31
0.0
0
LINE
8
0
6
CONTINUOUS
10
-41.936000
20
-71.500000
30
0.0
11
-39.521000
21
-71.500000
31
0.0
0
LINE
8
0
6
CONTINUOUS
10
-51.336500
20
-71.500000
30
0.0
11
-52.586500
21
-71.500000
31
0.0
0
LINE
8
0
6
CONTINUOUS
10
-52.586500
20
-71.500000
30
0.0
11
-54.751600
21
-71.500000
31
0.0
0
LINE
8
0
6
CONTINUOUS
10
-54.751600
20
-71.500000
30
0.0
11
-53.501600
21
-71.500000
31
0.0
0
LINE
8
0
6
CONTINUOUS
10
-53.501600
20
-71.500000
30
0.0
11
-51.336500
21
-71.500000
31
0.0
0
LINE
8
0
6
CONTINUOUS
10
-18.860000
20
-71.500000
30
0.0
11
-20.110000
21
-71.500000
31
0.0
0
LINE
8
0
6
CONTINUOUS
10
-40.457000
20
-71.500000
30
0.0
11
-41.707000
21
-71.500000
31
0.0
0
LINE
8
0
6
CONTINUOUS
10
-41.707000
20
-71.500000
30
0.0
11
-39.543000
21
-71.500000
31
0.0
0
LINE
8
0
6
CONTINUOUS
10
-47.668000
20
-71.500000
30
0.0
11
-49.832000
21
-71.500000
31
0.0
0
LINE
8
0
6
CONTINUOUS
10
-49.832000
20
-71.500000
30
0.0
11
-51.082500
21
-71.500000
31
0.0
0
LINE
8
0
6
CONTINUOUS
10
-51.082500
20
-71.500000
30
0.0
11
-48.918000
21
-71.500000
31
0.0
0
LINE
8
0
6
CONTINUOUS
10
-48.918000
20
-71.500000
30
0.0
11
-47.668000
21
-71.500000
31
0.0
0
LINE
8
0
6
CONTINUOUS
10
21.708000
20
-71.500000
30
0.0
11
19.542000
21
-71.500000
31
0.0
0
LINE
8
0
6
CONTINUOUS
10
19.542000
20
-71.500000
30
0.0
11
20.792000
21
-71.500000
31
0.0
0
LINE
8
0
6
CONTINUOUS
10
22.958000
20
-71.500000
30
0.0
11
22.958000
21
-73.500000
31
0.0
0
LINE
8
0
6
CONTINUOUS
10
20.792000
20
-71.500000
30
0.0
11
22.958000
21
-71.500000
31
0.0
0
LINE
8
0
6
CONTINUOUS
10
22.958000
20
-71.500000
30
0.0
11
21.708000
21
-71.500000
31
0.0
0
LINE
8
0
6
CONTINUOUS
10
22.958000
20
-73.500000
30
0.0
11
22.958000
21
-71.500000
31
0.0
0
LINE
8
0
6
CONTINUOUS
10
19.175000
20
-71.500000
30
0.0
11
19.175000
21
-73.500000
31
0.0
0
LINE
8
0
6
CONTINUOUS
10
21.590000
20
-71.500000
30
0.0
11
19.175000
21
-71.500000
31
0.0
0
LINE
8
0
6
CONTINUOUS
10
19.821000
20
-73.500000
30
0.0
11
22.236000
21
-73.500000
31
0.0
0
LINE
8
0
6
CONTINUOUS
10
19.175000
20
-73.500000
30
0.0
11
19.821000
21
-73.500000
31
0.0
0
LINE
8
0
6
CONTINUOUS
10
19.821000
20
-71.500000
30
0.0
11
19.821000
21
-73.500000
31
0.0
0
LINE
8
0
6
CONTINUOUS
10
19.175000
20
-73.500000
30
0.0
11
19.175000
21
-71.500000
31
0.0
0
LINE
8
0
6
CONTINUOUS
10
19.821000
20
-73.500000
30
0.0
11
19.175000
21
-73.500000
31
0.0
0
LINE
8
0
6
CONTINUOUS
10
22.236000
20
-71.500000
30
0.0
11
22.236000
21
-73.500000
31
0.0
0
LINE
8
0
6
CONTINUOUS
10
19.821000
20
-71.500000
30
0.0
11
22.236000
21
-71.500000
31
0.0
0
LINE
8
0
6
CONTINUOUS
10
19.821000
20
-73.500000
30
0.0
11
19.821000
21
-71.500000
31
0.0
0
LINE
8
0
6
CONTINUOUS
10
22.236000
20
-73.500000
30
0.0
11
19.821000
21
-73.500000
31
0.0
0
LINE
8
0
6
CONTINUOUS
10
22.236000
20
-71.500000
30
0.0
11
21.590000
21
-71.500000
31
0.0
0
LINE
8
0
6
CONTINUOUS
10
22.236000
20
-73.500000
30
0.0
11
22.236000
21
-71.500000
31
0.0
0
LINE
8
0
6
CONTINUOUS
10
38.292000
20
-71.500000
30
0.0
11
38.292000
21
-73.500000
31
0.0
0
LINE
8
0
6
CONTINUOUS
10
39.542000
20
-73.500000
30
0.0
11
41.708000
21
-73.500000
31
0.0
0
LINE
8
0
6
CONTINUOUS
10
38.292000
20
-73.500000
30
0.0
11
39.542000
21
-73.500000
31
0.0
0
LINE
8
0
6
CONTINUOUS
10
39.542000
20
-71.500000
30
0.0
11
39.542000
21
-73.500000
31
0.0
0
LINE
8
0
6
CONTINUOUS
10
38.292000
20
-73.500000
30
0.0
11
38.292000
21
-71.500000
31
0.0
0
LINE
8
0
6
CONTINUOUS
10
39.542000
20
-73.500000
30
0.0
11
38.292000
21
-73.500000
31
0.0
0
LINE
8
0
6
CONTINUOUS
10
41.708000
20
-71.500000
30
0.0
11
41.708000
21
-73.500000
31
0.0
0
LINE
8
0
6
CONTINUOUS
10
39.542000
20
-73.500000
30
0.0
11
39.542000
21
-71.500000
31
0.0
0
LINE
8
0
6
CONTINUOUS
10
41.708000
20
-73.500000
30
0.0
11
39.542000
21
-73.500000
31
0.0
0
LINE
8
0
6
CONTINUOUS
10
41.708000
20
-73.500000
30
0.0
11
41.708000
21
-71.500000
31
0.0
0
LINE
8
0
6
CONTINUOUS
10
31.083000
20
-71.500000
30
0.0
11
28.917000
21
-71.500000
31
0.0
0
LINE
8
0
6
CONTINUOUS
10
28.917000
20
-71.500000
30
0.0
11
30.167000
21
-71.500000
31
0.0
0
LINE
8
0
6
CONTINUOUS
10
32.333000
20
-71.500000
30
0.0
11
32.333000
21
-73.500000
31
0.0
0
LINE
8
0
6
CONTINUOUS
10
30.167000
20
-71.500000
30
0.0
11
32.333000
21
-71.500000
31
0.0
0
LINE
8
0
6
CONTINUOUS
10
32.333000
20
-71.500000
30
0.0
11
31.083000
21
-71.500000
31
0.0
0
LINE
8
0
6
CONTINUOUS
10
32.333000
20
-73.500000
30
0.0
11
32.333000
21
-71.500000
31
0.0
0
LINE
8
0
6
CONTINUOUS
10
66.417000
20
-71.500000
30
0.0
11
66.417000
21
-73.500000
31
0.0
0
LINE
8
0
6
CONTINUOUS
10
67.667000
20
-73.500000
30
0.0
11
69.833000
21
-73.500000
31
0.0
0
LINE
8
0
6
CONTINUOUS
10
66.417000
20
-73.500000
30
0.0
11
67.667000
21
-73.500000
31
0.0
0
LINE
8
0
6
CONTINUOUS
10
67.667000
20
-71.500000
30
0.0
11
67.667000
21
-73.500000
31
0.0
0
LINE
8
0
6
CONTINUOUS
10
66.417000
20
-73.500000
30
0.0
11
66.417000
21
-71.500000
31
0.0
0
LINE
8
0
6
CONTINUOUS
10
67.667000
20
-73.500000
30
0.0
11
66.417000
21
-73.500000
31
0.0
0
LINE
8
0
6
CONTINUOUS
10
69.833000
20
-71.500000
30
0.0
11
69.833000
21
-73.500000
31
0.0
0
LINE
8
0
6
CONTINUOUS
10
67.667000
20
-73.500000
30
0.0
11
67.667000
21
-71.500000
31
0.0
0
LINE
8
0
6
CONTINUOUS
10
69.833000
20
-73.500000
30
0.0
11
67.667000
21
-73.500000
31
0.0
0
LINE
8
0
6
CONTINUOUS
10
69.833000
20
-73.500000
30
0.0
11
69.833000
21
-71.500000
31
0.0
0
LINE
8
0
6
CONTINUOUS
10
47.667000
20
-71.500000
30
0.0
11
47.667000
21
-73.500000
31
0.0
0
LINE
8
0
6
CONTINUOUS
10
48.917000
20
-73.500000
30
0.0
11
51.083000
21
-73.500000
31
0.0
0
LINE
8
0
6
CONTINUOUS
10
47.667000
20
-73.500000
30
0.0
11
48.917000
21
-73.500000
31
0.0
0
LINE
8
0
6
CONTINUOUS
10
48.917000
20
-71.500000
30
0.0
11
48.917000
21
-73.500000
31
0.0
0
LINE
8
0
6
CONTINUOUS
10
47.667000
20
-73.500000
30
0.0
11
47.667000
21
-71.500000
31
0.0
0
LINE
8
0
6
CONTINUOUS
10
48.917000
20
-73.500000
30
0.0
11
47.667000
21
-73.500000
31
0.0
0
LINE
8
0
6
CONTINUOUS
10
51.083000
20
-71.500000
30
0.0
11
51.083000
21
-73.500000
31
0.0
0
LINE
8
0
6
CONTINUOUS
10
48.917000
20
-73.500000
30
0.0
11
48.917000
21
-71.500000
31
0.0
0
LINE
8
0
6
CONTINUOUS
10
51.083000
20
-73.500000
30
0.0
11
48.917000
21
-73.500000
31
0.0
0
LINE
8
0
6
CONTINUOUS
10
51.083000
20
-73.500000
30
0.0
11
51.083000
21
-71.500000
31
0.0
0
LINE
8
0
6
CONTINUOUS
10
24.027000
20
-71.500000
30
0.0
11
24.027000
21
-73.500000
31
0.0
0
LINE
8
0
6
CONTINUOUS
10
26.443000
20
-71.500000
30
0.0
11
24.027000
21
-71.500000
31
0.0
0
LINE
8
0
6
CONTINUOUS
10
24.675000
20
-73.500000
30
0.0
11
27.089000
21
-73.500000
31
0.0
0
LINE
8
0
6
CONTINUOUS
10
24.027000
20
-73.500000
30
0.0
11
24.675000
21
-73.500000
31
0.0
0
LINE
8
0
6
CONTINUOUS
10
24.675000
20
-71.500000
30
0.0
11
24.675000
21
-73.500000
31
0.0
0
LINE
8
0
6
CONTINUOUS
10
24.027000
20
-71.500000
30
0.0
11
24.675000
21
-71.500000
31
0.0
0
LINE
8
0
6
CONTINUOUS
10
24.027000
20
-73.500000
30
0.0
11
24.027000
21
-71.500000
31
0.0
0
LINE
8
0
6
CONTINUOUS
10
24.675000
20
-73.500000
30
0.0
11
24.027000
21
-73.500000
31
0.0
0
LINE
8
0
6
CONTINUOUS
10
27.089000
20
-71.500000
30
0.0
11
27.089000
21
-73.500000
31
0.0
0
LINE
8
0
6
CONTINUOUS
10
24.675000
20
-71.500000
30
0.0
11
27.089000
21
-71.500000
31
0.0
0
LINE
8
0
6
CONTINUOUS
10
24.675000
20
-73.500000
30
0.0
11
24.675000
21
-71.500000
31
0.0
0
LINE
8
0
6
CONTINUOUS
10
27.089000
20
-73.500000
30
0.0
11
24.675000
21
-73.500000
31
0.0
0
LINE
8
0
6
CONTINUOUS
10
27.089000
20
-71.500000
30
0.0
11
26.443000
21
-71.500000
31
0.0
0
LINE
8
0
6
CONTINUOUS
10
27.089000
20
-73.500000
30
0.0
11
27.089000
21
-71.500000
31
0.0
0
LINE
8
0
6
CONTINUOUS
10
28.880000
20
-71.500000
30
0.0
11
28.880000
21
-73.500000
31
0.0
0
LINE
8
0
6
CONTINUOUS
10
31.295000
20
-71.500000
30
0.0
11
28.880000
21
-71.500000
31
0.0
0
LINE
8
0
6
CONTINUOUS
10
29.527000
20
-73.500000
30
0.0
11
31.943000
21
-73.500000
31
0.0
0
LINE
8
0
6
CONTINUOUS
10
28.880000
20
-73.500000
30
0.0
11
29.527000
21
-73.500000
31
0.0
0
LINE
8
0
6
CONTINUOUS
10
29.527000
20
-71.500000
30
0.0
11
29.527000
21
-73.500000
31
0.0
0
LINE
8
0
6
CONTINUOUS
10
28.880000
20
-71.500000
30
0.0
11
29.527000
21
-71.500000
31
0.0
0
LINE
8
0
6
CONTINUOUS
10
28.880000
20
-73.500000
30
0.0
11
28.880000
21
-71.500000
31
0.0
0
LINE
8
0
6
CONTINUOUS
10
29.527000
20
-73.500000
30
0.0
11
28.880000
21
-73.500000
31
0.0
0
LINE
8
0
6
CONTINUOUS
10
31.943000
20
-71.500000
30
0.0
11
31.943000
21
-73.500000
31
0.0
0
LINE
8
0
6
CONTINUOUS
10
29.527000
20
-71.500000
30
0.0
11
31.943000
21
-71.500000
31
0.0
0
LINE
8
0
6
CONTINUOUS
10
29.527000
20
-73.500000
30
0.0
11
29.527000
21
-71.500000
31
0.0
0
LINE
8
0
6
CONTINUOUS
10
31.943000
20
-73.500000
30
0.0
11
29.527000
21
-73.500000
31
0.0
0
LINE
8
0
6
CONTINUOUS
10
31.943000
20
-71.500000
30
0.0
11
31.295000
21
-71.500000
31
0.0
0
LINE
8
0
6
CONTINUOUS
10
31.943000
20
-73.500000
30
0.0
11
31.943000
21
-71.500000
31
0.0
0
LINE
8
0
6
CONTINUOUS
10
33.734000
20
-71.500000
30
0.0
11
33.734000
21
-73.500000
31
0.0
0
LINE
8
0
6
CONTINUOUS
10
36.148000
20
-71.500000
30
0.0
11
33.734000
21
-71.500000
31
0.0
0
LINE
8
0
6
CONTINUOUS
10
34.380000
20
-73.500000
30
0.0
11
36.795000
21
-73.500000
31
0.0
0
LINE
8
0
6
CONTINUOUS
10
33.734000
20
-73.500000
30
0.0
11
34.380000
21
-73.500000
31
0.0
0
LINE
8
0
6
CONTINUOUS
10
34.380000
20
-71.500000
30
0.0
11
34.380000
21
-73.500000
31
0.0
0
LINE
8
0
6
CONTINUOUS
10
33.734000
20
-71.500000
30
0.0
11
34.380000
21
-71.500000
31
0.0
0
LINE
8
0
6
CONTINUOUS
10
33.734000
20
-73.500000
30
0.0
11
33.734000
21
-71.500000
31
0.0
0
LINE
8
0
6
CONTINUOUS
10
34.380000
20
-73.500000
30
0.0
11
33.734000
21
-73.500000
31
0.0
0
LINE
8
0
6
CONTINUOUS
10
36.795000
20
-71.500000
30
0.0
11
36.795000
21
-73.500000
31
0.0
0
LINE
8
0
6
CONTINUOUS
10
34.380000
20
-71.500000
30
0.0
11
36.795000
21
-71.500000
31
0.0
0
LINE
8
0
6
CONTINUOUS
10
34.380000
20
-73.500000
30
0.0
11
34.380000
21
-71.500000
31
0.0
0
LINE
8
0
6
CONTINUOUS
10
36.795000
20
-73.500000
30
0.0
11
34.380000
21
-73.500000
31
0.0
0
LINE
8
0
6
CONTINUOUS
10
36.795000
20
-71.500000
30
0.0
11
36.148000
21
-71.500000
31
0.0
0
LINE
8
0
6
CONTINUOUS
10
36.795000
20
-73.500000
30
0.0
11
36.795000
21
-71.500000
31
0.0
0
LINE
8
0
6
CONTINUOUS
10
57.042000
20
-71.500000
30
0.0
11
57.042000
21
-73.500000
31
0.0
0
LINE
8
0
6
CONTINUOUS
10
58.292000
20
-73.500000
30
0.0
11
60.458000
21
-73.500000
31
0.0
0
LINE
8
0
6
CONTINUOUS
10
57.042000
20
-73.500000
30
0.0
11
58.292000
21
-73.500000
31
0.0
0
LINE
8
0
6
CONTINUOUS
10
58.292000
20
-71.500000
30
0.0
11
58.292000
21
-73.500000
31
0.0
0
LINE
8
0
6
CONTINUOUS
10
57.042000
20
-73.500000
30
0.0
11
57.042000
21
-71.500000
31
0.0
0
LINE
8
0
6
CONTINUOUS
10
58.292000
20
-73.500000
30
0.0
11
57.042000
21
-73.500000
31
0.0
0
LINE
8
0
6
CONTINUOUS
10
60.458000
20
-71.500000
30
0.0
11
60.458000
21
-73.500000
31
0.0
0
LINE
8
0
6
CONTINUOUS
10
58.292000
20
-73.500000
30
0.0
11
58.292000
21
-71.500000
31
0.0
0
LINE
8
0
6
CONTINUOUS
10
60.458000
20
-73.500000
30
0.0
11
58.292000
21
-73.500000
31
0.0
0
LINE
8
0
6
CONTINUOUS
10
60.458000
20
-73.500000
30
0.0
11
60.458000
21
-71.500000
31
0.0
0
LINE
8
0
6
CONTINUOUS
10
13.583000
20
-71.500000
30
0.0
11
13.583000
21
-73.500000
31
0.0
0
LINE
8
0
6
CONTINUOUS
10
13.583000
20
-73.500000
30
0.0
11
13.583000
21
-71.500000
31
0.0
0
LINE
8
0
6
CONTINUOUS
10
9.469000
20
-71.500000
30
0.0
11
9.469000
21
-73.500000
31
0.0
0
LINE
8
0
6
CONTINUOUS
10
10.116000
20
-73.500000
30
0.0
11
12.531000
21
-73.500000
31
0.0
0
LINE
8
0
6
CONTINUOUS
10
9.469000
20
-73.500000
30
0.0
11
10.116000
21
-73.500000
31
0.0
0
LINE
8
0
6
CONTINUOUS
10
10.116000
20
-71.500000
30
0.0
11
10.116000
21
-73.500000
31
0.0
0
LINE
8
0
6
CONTINUOUS
10
9.469000
20
-73.500000
30
0.0
11
9.469000
21
-71.500000
31
0.0
0
LINE
8
0
6
CONTINUOUS
10
10.116000
20
-73.500000
30
0.0
11
9.469000
21
-73.500000
31
0.0
0
LINE
8
0
6
CONTINUOUS
10
12.531000
20
-71.500000
30
0.0
11
12.531000
21
-73.500000
31
0.0
0
LINE
8
0
6
CONTINUOUS
10
10.116000
20
-73.500000
30
0.0
11
10.116000
21
-71.500000
31
0.0
0
LINE
8
0
6
CONTINUOUS
10
12.531000
20
-73.500000
30
0.0
11
10.116000
21
-73.500000
31
0.0
0
LINE
8
0
6
CONTINUOUS
10
12.531000
20
-73.500000
30
0.0
11
12.531000
21
-71.500000
31
0.0
0
LINE
8
0
6
CONTINUOUS
10
14.321000
20
-71.500000
30
0.0
11
14.321000
21
-73.500000
31
0.0
0
LINE
8
0
6
CONTINUOUS
10
14.969000
20
-73.500000
30
0.0
11
17.384000
21
-73.500000
31
0.0
0
LINE
8
0
6
CONTINUOUS
10
14.321000
20
-73.500000
30
0.0
11
14.969000
21
-73.500000
31
0.0
0
LINE
8
0
6
CONTINUOUS
10
14.969000
20
-71.500000
30
0.0
11
14.969000
21
-73.500000
31
0.0
0
LINE
8
0
6
CONTINUOUS
10
14.321000
20
-73.500000
30
0.0
11
14.321000
21
-71.500000
31
0.0
0
LINE
8
0
6
CONTINUOUS
10
14.969000
20
-73.500000
30
0.0
11
14.321000
21
-73.500000
31
0.0
0
LINE
8
0
6
CONTINUOUS
10
17.384000
20
-71.500000
30
0.0
11
17.384000
21
-73.500000
31
0.0
0
LINE
8
0
6
CONTINUOUS
10
14.969000
20
-73.500000
30
0.0
11
14.969000
21
-71.500000
31
0.0
0
LINE
8
0
6
CONTINUOUS
10
17.384000
20
-73.500000
30
0.0
11
14.969000
21
-73.500000
31
0.0
0
LINE
8
0
6
CONTINUOUS
10
17.384000
20
-73.500000
30
0.0
11
17.384000
21
-71.500000
31
0.0
0
LINE
8
0
6
CONTINUOUS
10
4.616000
20
-71.500000
30
0.0
11
4.616000
21
-73.500000
31
0.0
0
LINE
8
0
6
CONTINUOUS
10
5.262000
20
-73.500000
30
0.0
11
7.678000
21
-73.500000
31
0.0
0
LINE
8
0
6
CONTINUOUS
10
4.616000
20
-73.500000
30
0.0
11
5.262000
21
-73.500000
31
0.0
0
LINE
8
0
6
CONTINUOUS
10
5.262000
20
-71.500000
30
0.0
11
5.262000
21
-73.500000
31
0.0
0
LINE
8
0
6
CONTINUOUS
10
4.616000
20
-73.500000
30
0.0
11
4.616000
21
-71.500000
31
0.0
0
LINE
8
0
6
CONTINUOUS
10
5.262000
20
-73.500000
30
0.0
11
4.616000
21
-73.500000
31
0.0
0
LINE
8
0
6
CONTINUOUS
10
7.678000
20
-71.500000
30
0.0
11
7.678000
21
-73.500000
31
0.0
0
LINE
8
0
6
CONTINUOUS
10
5.262000
20
-73.500000
30
0.0
11
5.262000
21
-71.500000
31
0.0
0
LINE
8
0
6
CONTINUOUS
10
7.678000
20
-73.500000
30
0.0
11
5.262000
21
-73.500000
31
0.0
0
LINE
8
0
6
CONTINUOUS
10
7.678000
20
-73.500000
30
0.0
11
7.678000
21
-71.500000
31
0.0
0
LINE
8
0
6
CONTINUOUS
10
-1.250000
20
-73.500000
30
0.0
11
1.250000
21
-73.500000
31
0.0
0
LINE
8
0
6
CONTINUOUS
10
-1.250000
20
-71.500000
30
0.0
11
-1.250000
21
-73.500000
31
0.0
0
LINE
8
0
6
CONTINUOUS
10
1.250000
20
-71.500000
30
0.0
11
1.250000
21
-73.500000
31
0.0
0
LINE
8
0
6
CONTINUOUS
10
-1.250000
20
-73.500000
30
0.0
11
-1.250000
21
-71.500000
31
0.0
0
LINE
8
0
6
CONTINUOUS
10
1.250000
20
-73.500000
30
0.0
11
-1.250000
21
-73.500000
31
0.0
0
LINE
8
0
6
CONTINUOUS
10
1.250000
20
-73.500000
30
0.0
11
1.250000
21
-71.500000
31
0.0
0
LINE
8
0
6
CONTINUOUS
10
36.148000
20
-71.500000
30
0.0
11
33.734000
21
-71.500000
31
0.0
0
LINE
8
0
6
CONTINUOUS
10
33.734000
20
-71.500000
30
0.0
11
34.380000
21
-71.500000
31
0.0
0
LINE
8
0
6
CONTINUOUS
10
34.380000
20
-71.500000
30
0.0
11
36.795000
21
-71.500000
31
0.0
0
LINE
8
0
6
CONTINUOUS
10
36.795000
20
-71.500000
30
0.0
11
36.148000
21
-71.500000
31
0.0
0
LINE
8
0
6
CONTINUOUS
10
31.295000
20
-71.500000
30
0.0
11
28.880000
21
-71.500000
31
0.0
0
LINE
8
0
6
CONTINUOUS
10
28.880000
20
-71.500000
30
0.0
11
29.527000
21
-71.500000
31
0.0
0
LINE
8
0
6
CONTINUOUS
10
29.527000
20
-71.500000
30
0.0
11
31.943000
21
-71.500000
31
0.0
0
LINE
8
0
6
CONTINUOUS
10
31.943000
20
-71.500000
30
0.0
11
31.295000
21
-71.500000
31
0.0
0
LINE
8
0
6
CONTINUOUS
10
26.443000
20
-71.500000
30
0.0
11
24.027000
21
-71.500000
31
0.0
0
LINE
8
0
6
CONTINUOUS
10
24.027000
20
-71.500000
30
0.0
11
24.675000
21
-71.500000
31
0.0
0
LINE
8
0
6
CONTINUOUS
10
24.675000
20
-71.500000
30
0.0
11
27.089000
21
-71.500000
31
0.0
0
LINE
8
0
6
CONTINUOUS
10
27.089000
20
-71.500000
30
0.0
11
26.443000
21
-71.500000
31
0.0
0
LINE
8
0
6
CONTINUOUS
10
83.085000
20
-71.500000
30
0.0
11
81.318000
21
-71.500000
31
0.0
0
LINE
8
0
6
CONTINUOUS
10
81.318000
20
-71.500000
30
0.0
11
83.085000
21
-71.500000
31
0.0
0
LINE
8
0
6
CONTINUOUS
10
83.085000
20
-71.500000
30
0.0
11
84.852000
21
-71.500000
31
0.0
0
LINE
8
0
6
CONTINUOUS
10
84.852000
20
-71.500000
30
0.0
11
83.085000
21
-71.500000
31
0.0
0
LINE
8
0
6
CONTINUOUS
10
21.590000
20
-71.500000
30
0.0
11
19.175000
21
-71.500000
31
0.0
0
LINE
8
0
6
CONTINUOUS
10
19.821000
20
-71.500000
30
0.0
11
22.236000
21
-71.500000
31
0.0
0
LINE
8
0
6
CONTINUOUS
10
22.236000
20
-71.500000
30
0.0
11
21.590000
21
-71.500000
31
0.0
0
LINE
8
0
6
CONTINUOUS
10
31.083000
20
-71.500000
30
0.0
11
28.917000
21
-71.500000
31
0.0
0
LINE
8
0
6
CONTINUOUS
10
28.917000
20
-71.500000
30
0.0
11
30.167000
21
-71.500000
31
0.0
0
LINE
8
0
6
CONTINUOUS
10
30.167000
20
-71.500000
30
0.0
11
32.333000
21
-71.500000
31
0.0
0
LINE
8
0
6
CONTINUOUS
10
32.333000
20
-71.500000
30
0.0
11
31.083000
21
-71.500000
31
0.0
0
LINE
8
0
6
CONTINUOUS
10
30.053000
20
-71.500000
30
0.0
11
28.284000
21
-71.500000
31
0.0
0
LINE
8
0
6
CONTINUOUS
10
28.284000
20
-71.500000
30
0.0
11
30.053000
21
-71.500000
31
0.0
0
LINE
8
0
6
CONTINUOUS
10
30.053000
20
-71.500000
30
0.0
11
31.820000
21
-71.500000
31
0.0
0
LINE
8
0
6
CONTINUOUS
10
31.820000
20
-71.500000
30
0.0
11
30.053000
21
-71.500000
31
0.0
0
LINE
8
0
6
CONTINUOUS
10
-18.561000
20
-73.500000
30
0.0
11
-16.794000
21
-73.500000
31
0.0
0
LINE
8
0
6
CONTINUOUS
10
-18.561000
20
-71.500000
30
0.0
11
-18.561000
21
-73.500000
31
0.0
0
LINE
8
0
6
CONTINUOUS
10
-18.561000
20
-73.500000
30
0.0
11
-18.561000
21
-71.500000
31
0.0
0
LINE
8
0
6
CONTINUOUS
10
-16.794000
20
-73.500000
30
0.0
11
-18.561000
21
-73.500000
31
0.0
0
LINE
8
0
6
CONTINUOUS
10
-13.583000
20
-71.500000
30
0.0
11
-13.583000
21
-73.500000
31
0.0
0
LINE
8
0
6
CONTINUOUS
10
-13.583000
20
-73.500000
30
0.0
11
-13.583000
21
-71.500000
31
0.0
0
LINE
8
0
6
CONTINUOUS
10
-9.469000
20
-73.500000
30
0.0
11
-9.469000
21
-71.500000
31
0.0
0
LINE
8
0
6
CONTINUOUS
10
-12.531000
20
-73.500000
30
0.0
11
-10.116000
21
-73.500000
31
0.0
0
LINE
8
0
6
CONTINUOUS
10
-10.116000
20
-73.500000
30
0.0
11
-9.469000
21
-73.500000
31
0.0
0
LINE
8
0
6
CONTINUOUS
10
-12.531000
20
-71.500000
30
0.0
11
-12.531000
21
-73.500000
31
0.0
0
LINE
8
0
6
CONTINUOUS
10
-10.116000
20
-71.500000
30
0.0
11
-10.116000
21
-73.500000
31
0.0
0
LINE
8
0
6
CONTINUOUS
10
-12.531000
20
-73.500000
30
0.0
11
-12.531000
21
-71.500000
31
0.0
0
LINE
8
0
6
CONTINUOUS
10
-10.116000
20
-73.500000
30
0.0
11
-12.531000
21
-73.500000
31
0.0
0
LINE
8
0
6
CONTINUOUS
10
-9.469000
20
-71.500000
30
0.0
11
-9.469000
21
-73.500000
31
0.0
0
LINE
8
0
6
CONTINUOUS
10
-10.116000
20
-73.500000
30
0.0
11
-10.116000
21
-71.500000
31
0.0
0
LINE
8
0
6
CONTINUOUS
10
-9.469000
20
-73.500000
30
0.0
11
-10.116000
21
-73.500000
31
0.0
0
LINE
8
0
6
CONTINUOUS
10
-14.321000
20
-73.500000
30
0.0
11
-14.321000
21
-71.500000
31
0.0
0
LINE
8
0
6
CONTINUOUS
10
-17.384000
20
-73.500000
30
0.0
11
-14.969000
21
-73.500000
31
0.0
0
LINE
8
0
6
CONTINUOUS
10
-14.969000
20
-73.500000
30
0.0
11
-14.321000
21
-73.500000
31
0.0
0
LINE
8
0
6
CONTINUOUS
10
-17.384000
20
-71.500000
30
0.0
11
-17.384000
21
-73.500000
31
0.0
0
LINE
8
0
6
CONTINUOUS
10
-14.969000
20
-71.500000
30
0.0
11
-14.969000
21
-73.500000
31
0.0
0
LINE
8
0
6
CONTINUOUS
10
-17.384000
20
-73.500000
30
0.0
11
-17.384000
21
-71.500000
31
0.0
0
LINE
8
0
6
CONTINUOUS
10
-14.969000
20
-73.500000
30
0.0
11
-17.384000
21
-73.500000
31
0.0
0
LINE
8
0
6
CONTINUOUS
10
-14.321000
20
-71.500000
30
0.0
11
-14.321000
21
-73.500000
31
0.0
0
LINE
8
0
6
CONTINUOUS
10
-14.969000
20
-73.500000
30
0.0
11
-14.969000
21
-71.500000
31
0.0
0
LINE
8
0
6
CONTINUOUS
10
-14.321000
20
-73.500000
30
0.0
11
-14.969000
21
-73.500000
31
0.0
0
LINE
8
0
6
CONTINUOUS
10
-19.175000
20
-73.500000
30
0.0
11
-19.175000
21
-71.500000
31
0.0
0
LINE
8
0
6
CONTINUOUS
10
-22.236000
20
-73.500000
30
0.0
11
-19.821000
21
-73.500000
31
0.0
0
LINE
8
0
6
CONTINUOUS
10
-19.821000
20
-73.500000
30
0.0
11
-19.175000
21
-73.500000
31
0.0
0
LINE
8
0
6
CONTINUOUS
10
-22.236000
20
-71.500000
30
0.0
11
-22.236000
21
-73.500000
31
0.0
0
LINE
8
0
6
CONTINUOUS
10
-19.821000
20
-71.500000
30
0.0
11
-19.821000
21
-73.500000
31
0.0
0
LINE
8
0
6
CONTINUOUS
10
-22.236000
20
-73.500000
30
0.0
11
-22.236000
21
-71.500000
31
0.0
0
LINE
8
0
6
CONTINUOUS
10
-19.821000
20
-73.500000
30
0.0
11
-22.236000
21
-73.500000
31
0.0
0
LINE
8
0
6
CONTINUOUS
10
-19.175000
20
-71.500000
30
0.0
11
-19.175000
21
-73.500000
31
0.0
0
LINE
8
0
6
CONTINUOUS
10
-19.821000
20
-73.500000
30
0.0
11
-19.821000
21
-71.500000
31
0.0
0
LINE
8
0
6
CONTINUOUS
10
-19.175000
20
-73.500000
30
0.0
11
-19.821000
21
-73.500000
31
0.0
0
LINE
8
0
6
CONTINUOUS
10
-28.284000
20
-73.500000
30
0.0
11
-28.284000
21
-71.500000
31
0.0
0
LINE
8
0
6
CONTINUOUS
10
-28.284000
20
-71.500000
30
0.0
11
-28.284000
21
-73.500000
31
0.0
0
LINE
8
0
6
CONTINUOUS
10
-41.543000
20
-71.500000
30
0.0
11
-43.310000
21
-71.500000
31
0.0
0
LINE
8
0
6
CONTINUOUS
10
-45.078000
20
-73.500000
30
0.0
11
-43.310000
21
-73.500000
31
0.0
0
LINE
8
0
6
CONTINUOUS
10
-43.310000
20
-73.500000
30
0.0
11
-41.543000
21
-73.500000
31
0.0
0
LINE
8
0
6
CONTINUOUS
10
-45.078000
20
-71.500000
30
0.0
11
-45.078000
21
-73.500000
31
0.0
0
LINE
8
0
6
CONTINUOUS
10
-43.310000
20
-71.500000
30
0.0
11
-45.078000
21
-71.500000
31
0.0
0
LINE
8
0
6
CONTINUOUS
10
-43.310000
20
-71.500000
30
0.0
11
-43.310000
21
-73.500000
31
0.0
0
LINE
8
0
6
CONTINUOUS
10
-45.078000
20
-71.500000
30
0.0
11
-43.310000
21
-71.500000
31
0.0
0
LINE
8
0
6
CONTINUOUS
10
-45.078000
20
-73.500000
30
0.0
11
-45.078000
21
-71.500000
31
0.0
0
LINE
8
0
6
CONTINUOUS
10
-43.310000
20
-73.500000
30
0.0
11
-45.078000
21
-73.500000
31
0.0
0
LINE
8
0
6
CONTINUOUS
10
-43.310000
20
-71.500000
30
0.0
11
-41.543000
21
-71.500000
31
0.0
0
LINE
8
0
6
CONTINUOUS
10
-43.310000
20
-73.500000
30
0.0
11
-43.310000
21
-71.500000
31
0.0
0
LINE
8
0
6
CONTINUOUS
10
-41.543000
20
-73.500000
30
0.0
11
-43.310000
21
-73.500000
31
0.0
0
LINE
8
0
6
CONTINUOUS
10
-38.293000
20
-71.500000
30
0.0
11
-40.457000
21
-71.500000
31
0.0
0
LINE
8
0
6
CONTINUOUS
10
-38.293000
20
-73.500000
30
0.0
11
-38.293000
21
-71.500000
31
0.0
0
LINE
8
0
6
CONTINUOUS
10
-41.707000
20
-73.500000
30
0.0
11
-39.543000
21
-73.500000
31
0.0
0
LINE
8
0
6
CONTINUOUS
10
-39.543000
20
-73.500000
30
0.0
11
-38.293000
21
-73.500000
31
0.0
0
LINE
8
0
6
CONTINUOUS
10
-41.707000
20
-71.500000
30
0.0
11
-41.707000
21
-73.500000
31
0.0
0
LINE
8
0
6
CONTINUOUS
10
-40.457000
20
-71.500000
30
0.0
11
-41.707000
21
-71.500000
31
0.0
0
LINE
8
0
6
CONTINUOUS
10
-39.543000
20
-71.500000
30
0.0
11
-39.543000
21
-73.500000
31
0.0
0
LINE
8
0
6
CONTINUOUS
10
-41.707000
20
-71.500000
30
0.0
11
-39.543000
21
-71.500000
31
0.0
0
LINE
8
0
6
CONTINUOUS
10
-41.707000
20
-73.500000
30
0.0
11
-41.707000
21
-71.500000
31
0.0
0
LINE
8
0
6
CONTINUOUS
10
-39.543000
20
-73.500000
30
0.0
11
-41.707000
21
-73.500000
31
0.0
0
LINE
8
0
6
CONTINUOUS
10
-38.293000
20
-71.500000
30
0.0
11
-38.293000
21
-73.500000
31
0.0
0
LINE
8
0
6
CONTINUOUS
10
-39.543000
20
-73.500000
30
0.0
11
-39.543000
21
-71.500000
31
0.0
0
LINE
8
0
6
CONTINUOUS
10
-38.293000
20
-73.500000
30
0.0
11
-39.543000
21
-73.500000
31
0.0
0
LINE
8
0
6
CONTINUOUS
10
-54.800800
20
-71.500000
30
0.0
11
-56.568500
21
-71.500000
31
0.0
0
LINE
8
0
6
CONTINUOUS
10
-54.800800
20
-73.500000
30
0.0
11
-54.800800
21
-71.500000
31
0.0
0
LINE
8
0
6
CONTINUOUS
10
-56.568500
20
-73.500000
30
0.0
11
-54.800800
21
-73.500000
31
0.0
0
LINE
8
0
6
CONTINUOUS
10
-56.568500
20
-71.500000
30
0.0
11
-56.568500
21
-73.500000
31
0.0
0
LINE
8
0
6
CONTINUOUS
10
-54.800800
20
-71.500000
30
0.0
11
-54.800800
21
-73.500000
31
0.0
0
LINE
8
0
6
CONTINUOUS
10
-56.568500
20
-71.500000
30
0.0
11
-54.800800
21
-71.500000
31
0.0
0
LINE
8
0
6
CONTINUOUS
10
-56.568500
20
-73.500000
30
0.0
11
-56.568500
21
-71.500000
31
0.0
0
LINE
8
0
6
CONTINUOUS
10
-54.800800
20
-73.500000
30
0.0
11
-56.568500
21
-73.500000
31
0.0
0
LINE
8
0
6
CONTINUOUS
10
-32.332000
20
-71.500000
30
0.0
11
-32.332000
21
-73.500000
31
0.0
0
LINE
8
0
6
CONTINUOUS
10
-32.332000
20
-73.500000
30
0.0
11
-32.332000
21
-71.500000
31
0.0
0
LINE
8
0
6
CONTINUOUS
10
-22.957000
20
-71.500000
30
0.0
11
-22.957000
21
-73.500000
31
0.0
0
LINE
8
0
6
CONTINUOUS
10
-22.957000
20
-73.500000
30
0.0
11
-22.957000
21
-71.500000
31
0.0
0
LINE
8
0
6
CONTINUOUS
10
-4.616000
20
-73.500000
30
0.0
11
-4.616000
21
-71.500000
31
0.0
0
LINE
8
0
6
CONTINUOUS
10
-7.678000
20
-73.500000
30
0.0
11
-5.262000
21
-73.500000
31
0.0
0
LINE
8
0
6
CONTINUOUS
10
-5.262000
20
-73.500000
30
0.0
11
-4.616000
21
-73.500000
31
0.0
0
LINE
8
0
6
CONTINUOUS
10
-7.678000
20
-71.500000
30
0.0
11
-7.678000
21
-73.500000
31
0.0
0
LINE
8
0
6
CONTINUOUS
10
-5.262000
20
-71.500000
30
0.0
11
-5.262000
21
-73.500000
31
0.0
0
LINE
8
0
6
CONTINUOUS
10
-7.678000
20
-73.500000
30
0.0
11
-7.678000
21
-71.500000
31
0.0
0
LINE
8
0
6
CONTINUOUS
10
-5.262000
20
-73.500000
30
0.0
11
-7.678000
21
-73.500000
31
0.0
0
LINE
8
0
6
CONTINUOUS
10
-4.616000
20
-71.500000
30
0.0
11
-4.616000
21
-73.500000
31
0.0
0
LINE
8
0
6
CONTINUOUS
10
-5.262000
20
-73.500000
30
0.0
11
-5.262000
21
-71.500000
31
0.0
0
LINE
8
0
6
CONTINUOUS
10
-4.616000
20
-73.500000
30
0.0
11
-5.262000
21
-73.500000
31
0.0
0
LINE
8
0
6
CONTINUOUS
10
-71.594600
20
-73.500000
30
0.0
11
-69.826800
21
-73.500000
31
0.0
0
LINE
8
0
6
CONTINUOUS
10
-71.594600
20
-71.500000
30
0.0
11
-71.594600
21
-73.500000
31
0.0
0
LINE
8
0
6
CONTINUOUS
10
-71.594600
20
-73.500000
30
0.0
11
-71.594600
21
-71.500000
31
0.0
0
LINE
8
0
6
CONTINUOUS
10
-69.826800
20
-73.500000
30
0.0
11
-71.594600
21
-73.500000
31
0.0
0
LINE
8
0
6
CONTINUOUS
10
-24.027000
20
-73.500000
30
0.0
11
-24.027000
21
-71.500000
31
0.0
0
LINE
8
0
6
CONTINUOUS
10
-27.089000
20
-73.500000
30
0.0
11
-24.675000
21
-73.500000
31
0.0
0
LINE
8
0
6
CONTINUOUS
10
-24.675000
20
-73.500000
30
0.0
11
-24.027000
21
-73.500000
31
0.0
0
LINE
8
0
6
CONTINUOUS
10
-27.089000
20
-71.500000
30
0.0
11
-27.089000
21
-73.500000
31
0.0
0
LINE
8
0
6
CONTINUOUS
10
-24.675000
20
-71.500000
30
0.0
11
-24.675000
21
-73.500000
31
0.0
0
LINE
8
0
6
CONTINUOUS
10
-27.089000
20
-73.500000
30
0.0
11
-27.089000
21
-71.500000
31
0.0
0
LINE
8
0
6
CONTINUOUS
10
-24.675000
20
-73.500000
30
0.0
11
-27.089000
21
-73.500000
31
0.0
0
LINE
8
0
6
CONTINUOUS
10
-24.027000
20
-71.500000
30
0.0
11
-24.027000
21
-73.500000
31
0.0
0
LINE
8
0
6
CONTINUOUS
10
-24.675000
20
-73.500000
30
0.0
11
-24.675000
21
-71.500000
31
0.0
0
LINE
8
0
6
CONTINUOUS
10
-24.027000
20
-73.500000
30
0.0
11
-24.675000
21
-73.500000
31
0.0
0
LINE
8
0
6
CONTINUOUS
10
-47.668000
20
-71.500000
30
0.0
11
-49.832000
21
-71.500000
31
0.0
0
LINE
8
0
6
CONTINUOUS
10
-47.668000
20
-73.500000
30
0.0
11
-47.668000
21
-71.500000
31
0.0
0
LINE
8
0
6
CONTINUOUS
10
-51.082500
20
-73.500000
30
0.0
11
-48.918000
21
-73.500000
31
0.0
0
LINE
8
0
6
CONTINUOUS
10
-48.918000
20
-73.500000
30
0.0
11
-47.668000
21
-73.500000
31
0.0
0
LINE
8
0
6
CONTINUOUS
10
-51.082500
20
-71.500000
30
0.0
11
-51.082500
21
-73.500000
31
0.0
0
LINE
8
0
6
CONTINUOUS
10
-49.832000
20
-71.500000
30
0.0
11
-51.082500
21
-71.500000
31
0.0
0
LINE
8
0
6
CONTINUOUS
10
-48.918000
20
-71.500000
30
0.0
11
-48.918000
21
-73.500000
31
0.0
0
LINE
8
0
6
CONTINUOUS
10
-51.082500
20
-71.500000
30
0.0
11
-48.918000
21
-71.500000
31
0.0
0
LINE
8
0
6
CONTINUOUS
10
-51.082500
20
-73.500000
30
0.0
11
-51.082500
21
-71.500000
31
0.0
0
LINE
8
0
6
CONTINUOUS
10
-48.918000
20
-73.500000
30
0.0
11
-51.082500
21
-73.500000
31
0.0
0
LINE
8
0
6
CONTINUOUS
10
-47.668000
20
-71.500000
30
0.0
11
-47.668000
21
-73.500000
31
0.0
0
LINE
8
0
6
CONTINUOUS
10
-48.918000
20
-71.500000
30
0.0
11
-47.668000
21
-71.500000
31
0.0
0
LINE
8
0
6
CONTINUOUS
10
-48.918000
20
-73.500000
30
0.0
11
-48.918000
21
-71.500000
31
0.0
0
LINE
8
0
6
CONTINUOUS
10
-47.668000
20
-73.500000
30
0.0
11
-48.918000
21
-73.500000
31
0.0
0
LINE
8
0
6
CONTINUOUS
10
-57.042500
20
-73.500000
30
0.0
11
-57.042500
21
-71.500000
31
0.0
0
LINE
8
0
6
CONTINUOUS
10
-60.457500
20
-73.500000
30
0.0
11
-58.292500
21
-73.500000
31
0.0
0
LINE
8
0
6
CONTINUOUS
10
-58.292500
20
-73.500000
30
0.0
11
-57.042500
21
-73.500000
31
0.0
0
LINE
8
0
6
CONTINUOUS
10
-60.457500
20
-71.500000
30
0.0
11
-60.457500
21
-73.500000
31
0.0
0
LINE
8
0
6
CONTINUOUS
10
-58.292500
20
-71.500000
30
0.0
11
-58.292500
21
-73.500000
31
0.0
0
LINE
8
0
6
CONTINUOUS
10
-60.457500
20
-73.500000
30
0.0
11
-60.457500
21
-71.500000
31
0.0
0
LINE
8
0
6
CONTINUOUS
10
-58.292500
20
-73.500000
30
0.0
11
-60.457500
21
-73.500000
31
0.0
0
LINE
8
0
6
CONTINUOUS
10
-57.042500
20
-71.500000
30
0.0
11
-57.042500
21
-73.500000
31
0.0
0
LINE
8
0
6
CONTINUOUS
10
-58.292500
20
-73.500000
30
0.0
11
-58.292500
21
-71.500000
31
0.0
0
LINE
8
0
6
CONTINUOUS
10
-57.042500
20
-73.500000
30
0.0
11
-58.292500
21
-73.500000
31
0.0
0
LINE
8
0
6
CONTINUOUS
10
-28.880000
20
-73.500000
30
0.0
11
-28.880000
21
-71.500000
31
0.0
0
LINE
8
0
6
CONTINUOUS
10
-31.942000
20
-73.500000
30
0.0
11
-29.527000
21
-73.500000
31
0.0
0
LINE
8
0
6
CONTINUOUS
10
-29.527000
20
-73.500000
30
0.0
11
-28.880000
21
-73.500000
31
0.0
0
LINE
8
0
6
CONTINUOUS
10
-31.942000
20
-71.500000
30
0.0
11
-31.942000
21
-73.500000
31
0.0
0
LINE
8
0
6
CONTINUOUS
10
-29.527000
20
-71.500000
30
0.0
11
-29.527000
21
-73.500000
31
0.0
0
LINE
8
0
6
CONTINUOUS
10
-31.942000
20
-73.500000
30
0.0
11
-31.942000
21
-71.500000
31
0.0
0
LINE
8
0
6
CONTINUOUS
10
-29.527000
20
-73.500000
30
0.0
11
-31.942000
21
-73.500000
31
0.0
0
LINE
8
0
6
CONTINUOUS
10
-28.880000
20
-71.500000
30
0.0
11
-28.880000
21
-73.500000
31
0.0
0
LINE
8
0
6
CONTINUOUS
10
-29.527000
20
-73.500000
30
0.0
11
-29.527000
21
-71.500000
31
0.0
0
LINE
8
0
6
CONTINUOUS
10
-28.880000
20
-73.500000
30
0.0
11
-29.527000
21
-73.500000
31
0.0
0
LINE
8
0
6
CONTINUOUS
10
-33.733000
20
-73.500000
30
0.0
11
-33.733000
21
-71.500000
31
0.0
0
LINE
8
0
6
CONTINUOUS
10
-36.795000
20
-73.500000
30
0.0
11
-34.380000
21
-73.500000
31
0.0
0
LINE
8
0
6
CONTINUOUS
10
-34.380000
20
-73.500000
30
0.0
11
-33.733000
21
-73.500000
31
0.0
0
LINE
8
0
6
CONTINUOUS
10
-36.795000
20
-71.500000
30
0.0
11
-36.795000
21
-73.500000
31
0.0
0
LINE
8
0
6
CONTINUOUS
10
-34.380000
20
-71.500000
30
0.0
11
-34.380000
21
-73.500000
31
0.0
0
LINE
8
0
6
CONTINUOUS
10
-36.795000
20
-73.500000
30
0.0
11
-36.795000
21
-71.500000
31
0.0
0
LINE
8
0
6
CONTINUOUS
10
-34.380000
20
-73.500000
30
0.0
11
-36.795000
21
-73.500000
31
0.0
0
LINE
8
0
6
CONTINUOUS
10
-33.733000
20
-71.500000
30
0.0
11
-33.733000
21
-73.500000
31
0.0
0
LINE
8
0
6
CONTINUOUS
10
-34.380000
20
-73.500000
30
0.0
11
-34.380000
21
-71.500000
31
0.0
0
LINE
8
0
6
CONTINUOUS
10
-33.733000
20
-73.500000
30
0.0
11
-34.380000
21
-73.500000
31
0.0
0
LINE
8
0
6
CONTINUOUS
10
-94.575500
20
-73.500000
30
0.0
11
-94.575500
21
-71.500000
31
0.0
0
LINE
8
0
6
CONTINUOUS
10
-98.111100
20
-73.500000
30
0.0
11
-96.343300
21
-73.500000
31
0.0
0
LINE
8
0
6
CONTINUOUS
10
-96.343300
20
-73.500000
30
0.0
11
-94.575500
21
-73.500000
31
0.0
0
LINE
8
0
6
CONTINUOUS
10
-98.111100
20
-71.500000
30
0.0
11
-98.111100
21
-73.500000
31
0.0
0
LINE
8
0
6
CONTINUOUS
10
-96.343300
20
-71.500000
30
0.0
11
-96.343300
21
-73.500000
31
0.0
0
LINE
8
0
6
CONTINUOUS
10
-98.111100
20
-73.500000
30
0.0
11
-98.111100
21
-71.500000
31
0.0
0
LINE
8
0
6
CONTINUOUS
10
-96.343300
20
-73.500000
30
0.0
11
-98.111100
21
-73.500000
31
0.0
0
LINE
8
0
6
CONTINUOUS
10
-94.575500
20
-71.500000
30
0.0
11
-94.575500
21
-73.500000
31
0.0
0
LINE
8
0
6
CONTINUOUS
10
-96.343300
20
-73.500000
30
0.0
11
-96.343300
21
-71.500000
31
0.0
0
LINE
8
0
6
CONTINUOUS
10
-94.575500
20
-73.500000
30
0.0
11
-96.343300
21
-73.500000
31
0.0
0
LINE
8
0
6
CONTINUOUS
10
-81.317300
20
-73.500000
30
0.0
11
-81.317300
21
-71.500000
31
0.0
0
LINE
8
0
6
CONTINUOUS
10
-84.852900
20
-73.500000
30
0.0
11
-83.085000
21
-73.500000
31
0.0
0
LINE
8
0
6
CONTINUOUS
10
-83.085000
20
-73.500000
30
0.0
11
-81.317300
21
-73.500000
31
0.0
0
LINE
8
0
6
CONTINUOUS
10
-84.852900
20
-71.500000
30
0.0
11
-84.852900
21
-73.500000
31
0.0
0
LINE
8
0
6
CONTINUOUS
10
-83.085000
20
-71.500000
30
0.0
11
-83.085000
21
-73.500000
31
0.0
0
LINE
8
0
6
CONTINUOUS
10
-84.852900
20
-73.500000
30
0.0
11
-84.852900
21
-71.500000
31
0.0
0
LINE
8
0
6
CONTINUOUS
10
-83.085000
20
-73.500000
30
0.0
11
-84.852900
21
-73.500000
31
0.0
0
LINE
8
0
6
CONTINUOUS
10
-81.317300
20
-71.500000
30
0.0
11
-81.317300
21
-73.500000
31
0.0
0
LINE
8
0
6
CONTINUOUS
10
-83.085000
20
-73.500000
30
0.0
11
-83.085000
21
-71.500000
31
0.0
0
LINE
8
0
6
CONTINUOUS
10
-81.317300
20
-73.500000
30
0.0
11
-83.085000
21
-73.500000
31
0.0
0
LINE
8
0
6
CONTINUOUS
10
-66.417500
20
-73.500000
30
0.0
11
-66.417500
21
-71.500000
31
0.0
0
LINE
8
0
6
CONTINUOUS
10
-69.832500
20
-73.500000
30
0.0
11
-67.667500
21
-73.500000
31
0.0
0
LINE
8
0
6
CONTINUOUS
10
-67.667500
20
-73.500000
30
0.0
11
-66.417500
21
-73.500000
31
0.0
0
LINE
8
0
6
CONTINUOUS
10
-69.832500
20
-71.500000
30
0.0
11
-69.832500
21
-73.500000
31
0.0
0
LINE
8
0
6
CONTINUOUS
10
-67.667500
20
-71.500000
30
0.0
11
-67.667500
21
-73.500000
31
0.0
0
LINE
8
0
6
CONTINUOUS
10
-69.832500
20
-73.500000
30
0.0
11
-69.832500
21
-71.500000
31
0.0
0
LINE
8
0
6
CONTINUOUS
10
-67.667500
20
-73.500000
30
0.0
11
-69.832500
21
-73.500000
31
0.0
0
LINE
8
0
6
CONTINUOUS
10
-66.417500
20
-71.500000
30
0.0
11
-66.417500
21
-73.500000
31
0.0
0
LINE
8
0
6
CONTINUOUS
10
-67.667500
20
-73.500000
30
0.0
11
-67.667500
21
-71.500000
31
0.0
0
LINE
8
0
6
CONTINUOUS
10
-66.417500
20
-73.500000
30
0.0
11
-67.667500
21
-73.500000
31
0.0
0
LINE
8
0
6
CONTINUOUS
10
21.708000
20
-71.500000
30
0.0
11
19.542000
21
-71.500000
31
0.0
0
LINE
8
0
6
CONTINUOUS
10
19.542000
20
-71.500000
30
0.0
11
20.792000
21
-71.500000
31
0.0
0
LINE
8
0
6
CONTINUOUS
10
20.792000
20
-71.500000
30
0.0
11
22.958000
21
-71.500000
31
0.0
0
LINE
8
0
6
CONTINUOUS
10
22.958000
20
-71.500000
30
0.0
11
21.708000
21
-71.500000
31
0.0
0
LINE
8
0
6
CONTINUOUS
10
85.063000
20
-71.500000
30
0.0
11
83.813000
21
-71.500000
31
0.0
0
LINE
8
0
6
CONTINUOUS
10
83.813000
20
-71.500000
30
0.0
11
85.977000
21
-71.500000
31
0.0
0
LINE
8
0
6
CONTINUOUS
10
85.977000
20
-71.500000
30
0.0
11
87.227000
21
-71.500000
31
0.0
0
LINE
8
0
6
CONTINUOUS
10
87.227000
20
-71.500000
30
0.0
11
85.063000
21
-71.500000
31
0.0
0
LINE
8
0
6
CONTINUOUS
10
36.349000
20
-71.500000
30
0.0
11
35.099000
21
-71.500000
31
0.0
0
LINE
8
0
6
CONTINUOUS
10
35.099000
20
-71.500000
30
0.0
11
37.264000
21
-71.500000
31
0.0
0
LINE
8
0
6
CONTINUOUS
10
20.110000
20
-71.500000
30
0.0
11
18.860000
21
-71.500000
31
0.0
0
LINE
8
0
6
CONTINUOUS
10
18.860000
20
-71.500000
30
0.0
11
21.026000
21
-71.500000
31
0.0
0
LINE
8
0
6
CONTINUOUS
10
21.026000
20
-71.500000
30
0.0
11
22.276000
21
-71.500000
31
0.0
0
LINE
8
0
6
CONTINUOUS
10
22.276000
20
-71.500000
30
0.0
11
20.110000
21
-71.500000
31
0.0
0
LINE
8
0
6
CONTINUOUS
10
-18.860000
20
-71.500000
30
0.0
11
-20.110000
21
-71.500000
31
0.0
0
LINE
8
0
6
CONTINUOUS
10
-18.860000
20
-73.500000
30
0.0
11
-18.860000
21
-71.500000
31
0.0
0
LINE
8
0
6
CONTINUOUS
10
-18.860000
20
-71.500000
30
0.0
11
-18.860000
21
-73.500000
31
0.0
0
LINE
8
0
6
CONTINUOUS
10
-51.336500
20
-71.500000
30
0.0
11
-52.586500
21
-71.500000
31
0.0
0
LINE
8
0
6
CONTINUOUS
10
-51.336500
20
-73.500000
30
0.0
11
-51.336500
21
-71.500000
31
0.0
0
LINE
8
0
6
CONTINUOUS
10
-54.751600
20
-73.500000
30
0.0
11
-53.501600
21
-73.500000
31
0.0
0
LINE
8
0
6
CONTINUOUS
10
-53.501600
20
-73.500000
30
0.0
11
-51.336500
21
-73.500000
31
0.0
0
LINE
8
0
6
CONTINUOUS
10
-54.751600
20
-71.500000
30
0.0
11
-54.751600
21
-73.500000
31
0.0
0
LINE
8
0
6
CONTINUOUS
10
-52.586500
20
-71.500000
30
0.0
11
-54.751600
21
-71.500000
31
0.0
0
LINE
8
0
6
CONTINUOUS
10
-53.501600
20
-71.500000
30
0.0
11
-53.501600
21
-73.500000
31
0.0
0
LINE
8
0
6
CONTINUOUS
10
-54.751600
20
-71.500000
30
0.0
11
-53.501600
21
-71.500000
31
0.0
0
LINE
8
0
6
CONTINUOUS
10
-54.751600
20
-73.500000
30
0.0
11
-54.751600
21
-71.500000
31
0.0
0
LINE
8
0
6
CONTINUOUS
10
-53.501600
20
-73.500000
30
0.0
11
-54.751600
21
-73.500000
31
0.0
0
LINE
8
0
6
CONTINUOUS
10
-51.336500
20
-71.500000
30
0.0
11
-51.336500
21
-73.500000
31
0.0
0
LINE
8
0
6
CONTINUOUS
10
-53.501600
20
-71.500000
30
0.0
11
-51.336500
21
-71.500000
31
0.0
0
LINE
8
0
6
CONTINUOUS
10
-53.501600
20
-73.500000
30
0.0
11
-53.501600
21
-71.500000
31
0.0
0
LINE
8
0
6
CONTINUOUS
10
-51.336500
20
-73.500000
30
0.0
11
-53.501600
21
-73.500000
31
0.0
0
LINE
8
0
6
CONTINUOUS
10
-38.514000
20
-73.500000
30
0.0
11
-37.264000
21
-73.500000
31
0.0
0
LINE
8
0
6
CONTINUOUS
10
-37.264000
20
-71.500000
30
0.0
11
-37.264000
21
-73.500000
31
0.0
0
LINE
8
0
6
CONTINUOUS
10
-37.264000
20
-73.500000
30
0.0
11
-38.514000
21
-73.500000
31
0.0
0
LINE
8
0
6
CONTINUOUS
10
-37.264000
20
-73.500000
30
0.0
11
-37.264000
21
-71.500000
31
0.0
0
LINE
8
0
6
CONTINUOUS
10
-87.227500
20
-73.500000
30
0.0
11
-85.977500
21
-73.500000
31
0.0
0
LINE
8
0
6
CONTINUOUS
10
-85.977500
20
-73.500000
30
0.0
11
-83.812500
21
-73.500000
31
0.0
0
LINE
8
0
6
CONTINUOUS
10
-87.227500
20
-71.500000
30
0.0
11
-87.227500
21
-73.500000
31
0.0
0
LINE
8
0
6
CONTINUOUS
10
-85.977500
20
-71.500000
30
0.0
11
-85.977500
21
-73.500000
31
0.0
0
LINE
8
0
6
CONTINUOUS
10
-87.227500
20
-73.500000
30
0.0
11
-87.227500
21
-71.500000
31
0.0
0
LINE
8
0
6
CONTINUOUS
10
-85.977500
20
-73.500000
30
0.0
11
-87.227500
21
-73.500000
31
0.0
0
LINE
8
0
6
CONTINUOUS
10
-85.977500
20
-73.500000
30
0.0
11
-85.977500
21
-71.500000
31
0.0
0
LINE
8
0
6
CONTINUOUS
10
-83.812500
20
-73.500000
30
0.0
11
-85.977500
21
-73.500000
31
0.0
0
LINE
8
0
6
CONTINUOUS
10
-100.050500
20
-73.500000
30
0.0
11
-100.050500
21
-71.500000
31
0.0
0
LINE
8
0
6
CONTINUOUS
10
-103.465500
20
-73.500000
30
0.0
11
-102.215500
21
-73.500000
31
0.0
0
LINE
8
0
6
CONTINUOUS
10
-102.215500
20
-73.500000
30
0.0
11
-100.050500
21
-73.500000
31
0.0
0
LINE
8
0
6
CONTINUOUS
10
-103.465500
20
-71.500000
30
0.0
11
-103.465500
21
-73.500000
31
0.0
0
LINE
8
0
6
CONTINUOUS
10
-102.215500
20
-71.500000
30
0.0
11
-102.215500
21
-73.500000
31
0.0
0
LINE
8
0
6
CONTINUOUS
10
-103.465500
20
-73.500000
30
0.0
11
-103.465500
21
-71.500000
31
0.0
0
LINE
8
0
6
CONTINUOUS
10
-102.215500
20
-73.500000
30
0.0
11
-103.465500
21
-73.500000
31
0.0
0
LINE
8
0
6
CONTINUOUS
10
-100.050500
20
-71.500000
30
0.0
11
-100.050500
21
-73.500000
31
0.0
0
LINE
8
0
6
CONTINUOUS
10
-102.215500
20
-73.500000
30
0.0
11
-102.215500
21
-71.500000
31
0.0
0
LINE
8
0
6
CONTINUOUS
10
-100.050500
20
-73.500000
30
0.0
11
-102.215500
21
-73.500000
31
0.0
0
LINE
8
0
6
CONTINUOUS
10
-116.288400
20
-73.500000
30
0.0
11
-116.288400
21
-71.500000
31
0.0
0
LINE
8
0
6
CONTINUOUS
10
-119.703500
20
-73.500000
30
0.0
11
-118.453500
21
-73.500000
31
0.0
0
LINE
8
0
6
CONTINUOUS
10
-118.453500
20
-73.500000
30
0.0
11
-116.288400
21
-73.500000
31
0.0
0
LINE
8
0
6
CONTINUOUS
10
-119.703500
20
-71.500000
30
0.0
11
-119.703500
21
-73.500000
31
0.0
0
LINE
8
0
6
CONTINUOUS
10
-118.453500
20
-71.500000
30
0.0
11
-118.453500
21
-73.500000
31
0.0
0
LINE
8
0
6
CONTINUOUS
10
-119.703500
20
-73.500000
30
0.0
11
-119.703500
21
-71.500000
31
0.0
0
LINE
8
0
6
CONTINUOUS
10
-118.453500
20
-73.500000
30
0.0
11
-119.703500
21
-73.500000
31
0.0
0
LINE
8
0
6
CONTINUOUS
10
-116.288400
20
-71.500000
30
0.0
11
-116.288400
21
-73.500000
31
0.0
0
LINE
8
0
6
CONTINUOUS
10
-118.453500
20
-73.500000
30
0.0
11
-118.453500
21
-71.500000
31
0.0
0
LINE
8
0
6
CONTINUOUS
10
-116.288400
20
-73.500000
30
0.0
11
-118.453500
21
-73.500000
31
0.0
0
LINE
8
0
6
CONTINUOUS
10
76.390000
20
-71.500000
30
0.0
11
75.744000
21
-71.500000
31
0.0
0
LINE
8
0
6
CONTINUOUS
10
75.744000
20
-71.500000
30
0.0
11
78.158000
21
-71.500000
31
0.0
0
LINE
8
0
6
CONTINUOUS
10
78.158000
20
-71.500000
30
0.0
11
78.805000
21
-71.500000
31
0.0
0
LINE
8
0
6
CONTINUOUS
10
78.805000
20
-71.500000
30
0.0
11
76.390000
21
-71.500000
31
0.0
0
LINE
8
0
6
CONTINUOUS
10
22.056000
20
-71.500000
30
0.0
11
21.410000
21
-71.500000
31
0.0
0
LINE
8
0
6
CONTINUOUS
10
21.410000
20
-71.500000
30
0.0
11
23.825000
21
-71.500000
31
0.0
0
LINE
8
0
6
CONTINUOUS
10
23.825000
20
-71.500000
30
0.0
11
24.471000
21
-71.500000
31
0.0
0
LINE
8
0
6
CONTINUOUS
10
24.471000
20
-71.500000
30
0.0
11
22.056000
21
-71.500000
31
0.0
0
LINE
8
0
6
CONTINUOUS
10
-23.825000
20
-71.500000
30
0.0
11
-23.825000
21
-73.500000
31
0.0
0
LINE
8
0
6
CONTINUOUS
10
-23.825000
20
-73.500000
30
0.0
11
-23.825000
21
-71.500000
31
0.0
0
LINE
8
0
6
CONTINUOUS
10
-39.521000
20
-71.500000
30
0.0
11
-40.168000
21
-71.500000
31
0.0
0
LINE
8
0
6
CONTINUOUS
10
-40.168000
20
-71.500000
30
0.0
11
-42.583000
21
-71.500000
31
0.0
0
LINE
8
0
6
CONTINUOUS
10
-42.583000
20
-71.500000
30
0.0
11
-41.936000
21
-71.500000
31
0.0
0
LINE
8
0
6
CONTINUOUS
10
-41.936000
20
-71.500000
30
0.0
11
-39.521000
21
-71.500000
31
0.0
0
LINE
8
0
6
CONTINUOUS
10
-60.693900
20
-71.500000
30
0.0
11
-60.693900
21
-73.500000
31
0.0
0
LINE
8
0
6
CONTINUOUS
10
-60.693900
20
-73.500000
30
0.0
11
-60.693900
21
-71.500000
31
0.0
0
LINE
8
0
6
CONTINUOUS
10
-75.743100
20
-73.500000
30
0.0
11
-75.743100
21
-71.500000
31
0.0
0
LINE
8
0
6
CONTINUOUS
10
-78.805000
20
-73.500000
30
0.0
11
-78.158000
21
-73.500000
31
0.0
0
LINE
8
0
6
CONTINUOUS
10
-78.158000
20
-73.500000
30
0.0
11
-75.743100
21
-73.500000
31
0.0
0
LINE
8
0
6
CONTINUOUS
10
-78.805000
20
-71.500000
30
0.0
11
-78.805000
21
-73.500000
31
0.0
0
LINE
8
0
6
CONTINUOUS
10
-78.158000
20
-71.500000
30
0.0
11
-78.158000
21
-73.500000
31
0.0
0
LINE
8
0
6
CONTINUOUS
10
-78.805000
20
-73.500000
30
0.0
11
-78.805000
21
-71.500000
31
0.0
0
LINE
8
0
6
CONTINUOUS
10
-78.158000
20
-73.500000
30
0.0
11
-78.805000
21
-73.500000
31
0.0
0
LINE
8
0
6
CONTINUOUS
10
-75.743100
20
-71.500000
30
0.0
11
-75.743100
21
-73.500000
31
0.0
0
LINE
8
0
6
CONTINUOUS
10
-78.158000
20
-73.500000
30
0.0
11
-78.158000
21
-71.500000
31
0.0
0
LINE
8
0
6
CONTINUOUS
10
-75.743100
20
-73.500000
30
0.0
11
-78.158000
21
-73.500000
31
0.0
0
LINE
8
0
6
CONTINUOUS
10
-93.854300
20
-73.500000
30
0.0
11
-93.854300
21
-71.500000
31
0.0
0
LINE
8
0
6
CONTINUOUS
10
-93.854300
20
-71.500000
30
0.0
11
-93.854300
21
-73.500000
31
0.0
0
LINE
8
0
6
CONTINUOUS
10
-111.965400
20
-73.500000
30
0.0
11
-111.965400
21
-71.500000
31
0.0
0
LINE
8
0
6
CONTINUOUS
10
-115.027200
20
-73.500000
30
0.0
11
-114.380100
21
-73.500000
31
0.0
0
LINE
8
0
6
CONTINUOUS
10
-114.380100
20
-73.500000
30
0.0
11
-111.965400
21
-73.500000
31
0.0
0
LINE
8
0
6
CONTINUOUS
10
-115.027200
20
-71.500000
30
0.0
11
-115.027200
21
-73.500000
31
0.0
0
LINE
8
0
6
CONTINUOUS
10
-114.380100
20
-71.500000
30
0.0
11
-114.380100
21
-73.500000
31
0.0
0
LINE
8
0
6
CONTINUOUS
10
-115.027200
20
-73.500000
30
0.0
11
-115.027200
21
-71.500000
31
0.0
0
LINE
8
0
6
CONTINUOUS
10
-114.380100
20
-73.500000
30
0.0
11
-115.027200
21
-73.500000
31
0.0
0
LINE
8
0
6
CONTINUOUS
10
-111.965400
20
-71.500000
30
0.0
11
-111.965400
21
-73.500000
31
0.0
0
LINE
8
0
6
CONTINUOUS
10
-114.380100
20
-73.500000
30
0.0
11
-114.380100
21
-71.500000
31
0.0
0
LINE
8
0
6
CONTINUOUS
10
-111.965400
20
-73.500000
30
0.0
11
-114.380100
21
-73.500000
31
0.0
0
LINE
8
0
6
CONTINUOUS
10
-130.076500
20
-73.500000
30
0.0
11
-130.076500
21
-71.500000
31
0.0
0
LINE
8
0
6
CONTINUOUS
10
-133.138400
20
-73.500000
30
0.0
11
-132.491200
21
-73.500000
31
0.0
0
LINE
8
0
6
CONTINUOUS
10
-132.491200
20
-73.500000
30
0.0
11
-130.076500
21
-73.500000
31
0.0
0
LINE
8
0
6
CONTINUOUS
10
-133.138400
20
-71.500000
30
0.0
11
-133.138400
21
-73.500000
31
0.0
0
LINE
8
0
6
CONTINUOUS
10
-132.491200
20
-71.500000
30
0.0
11
-132.491200
21
-73.500000
31
0.0
0
LINE
8
0
6
CONTINUOUS
10
-133.138400
20
-73.500000
30
0.0
11
-133.138400
21
-71.500000
31
0.0
0
LINE
8
0
6
CONTINUOUS
10
-132.491200
20
-73.500000
30
0.0
11
-133.138400
21
-73.500000
31
0.0
0
LINE
8
0
6
CONTINUOUS
10
-130.076500
20
-71.500000
30
0.0
11
-130.076500
21
-73.500000
31
0.0
0
LINE
8
0
6
CONTINUOUS
10
-132.491200
20
-73.500000
30
0.0
11
-132.491200
21
-71.500000
31
0.0
0
LINE
8
0
6
CONTINUOUS
10
-130.076500
20
-73.500000
30
0.0
11
-132.491200
21
-73.500000
31
0.0
0
LINE
8
0
6
CONTINUOUS
10
116.250000
20
-73.500000
30
0.0
11
116.250000
21
-71.500000
31
0.0
0
LINE
8
0
6
CONTINUOUS
10
116.250000
20
-71.500000
30
0.0
11
116.250000
21
-73.500000
31
0.0
0
LINE
8
0
6
CONTINUOUS
10
135.000000
20
-73.500000
30
0.0
11
135.000000
21
-71.500000
31
0.0
0
LINE
8
0
6
CONTINUOUS
10
137.500000
20
-73.500000
30
0.0
11
135.000000
21
-73.500000
31
0.0
0
LINE
8
0
6
CONTINUOUS
10
137.500000
20
-71.500000
30
0.0
11
137.500000
21
-73.500000
31
0.0
0
LINE
8
0
6
CONTINUOUS
10
135.000000
20
-71.500000
30
0.0
11
135.000000
21
-73.500000
31
0.0
0
LINE
8
0
6
CONTINUOUS
10
137.500000
20
-73.500000
30
0.0
11
137.500000
21
-71.500000
31
0.0
0
LINE
8
0
6
CONTINUOUS
10
135.000000
20
-73.500000
30
0.0
11
137.500000
21
-73.500000
31
0.0
0
LINE
8
0
6
CONTINUOUS
10
-135.000000
20
-73.500000
30
0.0
11
-135.000000
21
-71.500000
31
0.0
0
LINE
8
0
6
CONTINUOUS
10
-137.500000
20
-73.500000
30
0.0
11
-135.000000
21
-73.500000
31
0.0
0
LINE
8
0
6
CONTINUOUS
10
-137.500000
20
-71.500000
30
0.0
11
-137.500000
21
-73.500000
31
0.0
0
LINE
8
0
6
CONTINUOUS
10
-135.000000
20
-71.500000
30
0.0
11
-135.000000
21
-73.500000
31
0.0
0
LINE
8
0
6
CONTINUOUS
10
-137.500000
20
-73.500000
30
0.0
11
-137.500000
21
-71.500000
31
0.0
0
LINE
8
0
6
CONTINUOUS
10
-135.000000
20
-73.500000
30
0.0
11
-137.500000
21
-73.500000
31
0.0
0
LINE
8
0
6
CONTINUOUS
10
-116.250000
20
-73.500000
30
0.0
11
-116.250000
21
-71.500000
31
0.0
0
LINE
8
0
6
CONTINUOUS
10
-116.250000
20
-71.500000
30
0.0
11
-116.250000
21
-73.500000
31
0.0
0
LINE
8
0
6
CONTINUOUS
10
62.500000
20
-73.500000
30
0.0
11
60.000000
21
-73.500000
31
0.0
0
LINE
8
0
6
CONTINUOUS
10
62.500000
20
-71.500000
30
0.0
11
62.500000
21
-73.500000
31
0.0
0
LINE
8
0
6
CONTINUOUS
10
62.500000
20
-73.500000
30
0.0
11
62.500000
21
-71.500000
31
0.0
0
LINE
8
0
6
CONTINUOUS
10
60.000000
20
-73.500000
30
0.0
11
62.500000
21
-73.500000
31
0.0
0
LINE
8
0
6
CONTINUOUS
10
22.500000
20
-71.500000
30
0.0
11
25.000000
21
-71.500000
31
0.0
0
LINE
8
0
6
CONTINUOUS
10
25.000000
20
-71.500000
30
0.0
11
22.500000
21
-71.500000
31
0.0
0
LINE
8
0
6
CONTINUOUS
10
100.000000
20
-73.500000
30
0.0
11
97.500000
21
-73.500000
31
0.0
0
LINE
8
0
6
CONTINUOUS
10
100.000000
20
-71.500000
30
0.0
11
100.000000
21
-73.500000
31
0.0
0
LINE
8
0
6
CONTINUOUS
10
100.000000
20
-73.500000
30
0.0
11
100.000000
21
-71.500000
31
0.0
0
LINE
8
0
6
CONTINUOUS
10
97.500000
20
-73.500000
30
0.0
11
100.000000
21
-73.500000
31
0.0
0
LINE
8
0
6
CONTINUOUS
10
81.250000
20
-73.500000
30
0.0
11
78.750000
21
-73.500000
31
0.0
0
LINE
8
0
6
CONTINUOUS
10
78.750000
20
-71.500000
30
0.0
11
81.250000
21
-71.500000
31
0.0
0
LINE
8
0
6
CONTINUOUS
10
81.250000
20
-71.500000
30
0.0
11
81.250000
21
-73.500000
31
0.0
0
LINE
8
0
6
CONTINUOUS
10
81.250000
20
-71.500000
30
0.0
11
78.750000
21
-71.500000
31
0.0
0
LINE
8
0
6
CONTINUOUS
10
81.250000
20
-73.500000
30
0.0
11
81.250000
21
-71.500000
31
0.0
0
LINE
8
0
6
CONTINUOUS
10
78.750000
20
-73.500000
30
0.0
11
81.250000
21
-73.500000
31
0.0
0
LINE
8
0
6
CONTINUOUS
10
-41.250000
20
-71.500000
30
0.0
11
-43.750000
21
-71.500000
31
0.0
0
LINE
8
0
6
CONTINUOUS
10
-43.750000
20
-71.500000
30
0.0
11
-41.250000
21
-71.500000
31
0.0
0
LINE
8
0
6
CONTINUOUS
10
-62.500000
20
-73.500000
30
0.0
11
-60.000000
21
-73.500000
31
0.0
0
LINE
8
0
6
CONTINUOUS
10
-62.500000
20
-71.500000
30
0.0
11
-62.500000
21
-73.500000
31
0.0
0
LINE
8
0
6
CONTINUOUS
10
-62.500000
20
-73.500000
30
0.0
11
-62.500000
21
-71.500000
31
0.0
0
LINE
8
0
6
CONTINUOUS
10
-60.000000
20
-73.500000
30
0.0
11
-62.500000
21
-73.500000
31
0.0
0
LINE
8
0
6
CONTINUOUS
10
-81.250000
20
-73.500000
30
0.0
11
-78.750000
21
-73.500000
31
0.0
0
LINE
8
0
6
CONTINUOUS
10
-81.250000
20
-71.500000
30
0.0
11
-81.250000
21
-73.500000
31
0.0
0
LINE
8
0
6
CONTINUOUS
10
-81.250000
20
-73.500000
30
0.0
11
-81.250000
21
-71.500000
31
0.0
0
LINE
8
0
6
CONTINUOUS
10
-78.750000
20
-73.500000
30
0.0
11
-81.250000
21
-73.500000
31
0.0
0
LINE
8
0
6
CONTINUOUS
10
-100.000000
20
-73.500000
30
0.0
11
-97.500000
21
-73.500000
31
0.0
0
LINE
8
0
6
CONTINUOUS
10
-100.000000
20
-71.500000
30
0.0
11
-100.000000
21
-73.500000
31
0.0
0
LINE
8
0
6
CONTINUOUS
10
-100.000000
20
-73.500000
30
0.0
11
-100.000000
21
-71.500000
31
0.0
0
LINE
8
0
6
CONTINUOUS
10
-97.500000
20
-73.500000
30
0.0
11
-100.000000
21
-73.500000
31
0.0
0
LINE
8
0
6
CONTINUOUS
10
12.000000
20
19.500000
30
0.0
11
12.000000
21
25.300000
31
0.0
0
LINE
8
0
6
CONTINUOUS
10
12.000000
20
12.700000
30
0.0
11
12.000000
21
19.500000
31
0.0
0
LINE
8
0
6
CONTINUOUS
10
12.000000
20
5.500000
30
0.0
11
12.000000
21
12.700000
31
0.0
0
LINE
8
0
6
CONTINUOUS
10
12.000000
20
1.500000
30
0.0
11
12.000000
21
5.500000
31
0.0
0
LINE
8
0
6
CONTINUOUS
10
12.000000
20
25.300000
30
0.0
11
12.000000
21
29.800000
31
0.0
0
LINE
8
0
6
CONTINUOUS
10
12.000000
20
29.800000
30
0.0
11
12.000000
21
32.500000
31
0.0
0
LINE
8
0
6
CONTINUOUS
10
12.000000
20
32.500000
30
0.0
11
12.000000
21
33.500000
31
0.0
0
LINE
8
0
6
CONTINUOUS
10
12.000000
20
33.500000
30
0.0
11
11.600000
21
36.600000
31
0.0
0
LINE
8
0
6
CONTINUOUS
10
11.600000
20
36.600000
30
0.0
11
12.000000
21
33.500000
31
0.0
0
LINE
8
0
6
CONTINUOUS
10
11.600000
20
36.600000
30
0.0
11
10.400000
21
39.500000
31
0.0
0
LINE
8
0
6
CONTINUOUS
10
10.400000
20
39.500000
30
0.0
11
11.600000
21
36.600000
31
0.0
0
LINE
8
0
6
CONTINUOUS
10
8.500000
20
42.000000
30
0.0
11
10.400000
21
39.500000
31
0.0
0
LINE
8
0
6
CONTINUOUS
10
8.500000
20
42.000000
30
0.0
11
6.000000
21
43.900000
31
0.0
0
LINE
8
0
6
CONTINUOUS
10
6.000000
20
43.900000
30
0.0
11
8.500000
21
42.000000
31
0.0
0
LINE
8
0
6
CONTINUOUS
10
3.100000
20
45.100000
30
0.0
11
6.000000
21
43.900000
31
0.0
0
LINE
8
0
6
CONTINUOUS
10
3.100000
20
45.100000
30
0.0
11
0.000000
21
45.500000
31
0.0
0
LINE
8
0
6
CONTINUOUS
10
0.000000
20
45.500000
30
0.0
11
3.100000
21
45.100000
31
0.0
0
LINE
8
0
6
CONTINUOUS
10
-12.000000
20
29.800000
30
0.0
11
-12.000000
21
25.300000
31
0.0
0
LINE
8
0
6
CONTINUOUS
10
-12.000000
20
32.500000
30
0.0
11
-12.000000
21
29.800000
31
0.0
0
LINE
8
0
6
CONTINUOUS
10
-12.000000
20
33.500000
30
0.0
11
-12.000000
21
32.500000
31
0.0
0
LINE
8
0
6
CONTINUOUS
10
-12.000000
20
33.500000
30
0.0
11
-11.600000
21
36.600000
31
0.0
0
LINE
8
0
6
CONTINUOUS
10
-11.600000
20
36.600000
30
0.0
11
-10.400000
21
39.500000
31
0.0
0
LINE
8
0
6
CONTINUOUS
10
-8.500000
20
42.000000
30
0.0
11
-10.400000
21
39.500000
31
0.0
0
LINE
8
0
6
CONTINUOUS
10
-10.400000
20
39.500000
30
0.0
11
-8.500000
21
42.000000
31
0.0
0
LINE
8
0
6
CONTINUOUS
10
-8.500000
20
42.000000
30
0.0
11
-6.000000
21
43.900000
31
0.0
0
LINE
8
0
6
CONTINUOUS
10
-3.100000
20
45.100000
30
0.0
11
-6.000000
21
43.900000
31
0.0
0
LINE
8
0
6
CONTINUOUS
10
-6.000000
20
43.900000
30
0.0
11
-3.100000
21
45.100000
31
0.0
0
LINE
8
0
6
CONTINUOUS
10
-3.100000
20
45.100000
30
0.0
11
0.000000
21
45.500000
31
0.0
0
LINE
8
0
6
CONTINUOUS
10
-12.000000
20
25.300000
30
0.0
11
-12.000000
21
19.500000
31
0.0
0
LINE
8
0
6
CONTINUOUS
10
-12.000000
20
19.500000
30
0.0
11
-12.000000
21
12.700000
31
0.0
0
LINE
8
0
6
CONTINUOUS
10
-12.000000
20
12.700000
30
0.0
11
-12.000000
21
5.500000
31
0.0
0
LINE
8
0
6
CONTINUOUS
10
-12.000000
20
5.500000
30
0.0
11
-12.000000
21
1.500000
31
0.0
0
LINE
8
0
6
CONTINUOUS
10
12.000000
20
-10.500000
30
0.0
11
12.000000
21
1.500000
31
0.0
0
LINE
8
0
6
CONTINUOUS
10
-12.000000
20
1.500000
30
0.0
11
-12.000000
21
-10.500000
31
0.0
0
LINE
8
0
6
CONTINUOUS
10
-39.040000
20
33.500000
30
0.0
11
-37.600000
21
23.420000
31
0.0
0
LINE
8
0
6
CONTINUOUS
10
-37.600000
20
23.420000
30
0.0
11
-33.760000
21
14.140000
31
0.0
0
LINE
8
0
6
CONTINUOUS
10
-40.000000
20
33.500000
30
0.0
11
-38.560000
21
23.260000
31
0.0
0
LINE
8
0
6
CONTINUOUS
10
-37.600000
20
23.420000
30
0.0
11
-39.040000
21
33.500000
31
0.0
0
LINE
8
0
6
CONTINUOUS
10
-38.560000
20
23.260000
30
0.0
11
-34.720000
21
13.660000
31
0.0
0
LINE
8
0
6
CONTINUOUS
10
-33.760000
20
14.140000
30
0.0
11
-37.600000
21
23.420000
31
0.0
0
LINE
8
0
6
CONTINUOUS
10
-34.720000
20
13.660000
30
0.0
11
-28.320000
21
5.180000
31
0.0
0
LINE
8
0
6
CONTINUOUS
10
-28.320000
20
5.180000
30
0.0
11
-19.840000
21
-1.220000
31
0.0
0
LINE
8
0
6
CONTINUOUS
10
-19.840000
20
-1.220000
30
0.0
11
-12.000000
21
-4.356000
31
0.0
0
LINE
8
0
6
CONTINUOUS
10
-12.000000
20
-3.305517
30
0.0
11
-19.360000
21
-0.260000
31
0.0
0
LINE
8
0
6
CONTINUOUS
10
-38.560000
20
23.260000
30
0.0
11
-40.000000
21
33.500000
31
0.0
0
LINE
8
0
6
CONTINUOUS
10
-34.720000
20
13.660000
30
0.0
11
-38.560000
21
23.260000
31
0.0
0
LINE
8
0
6
CONTINUOUS
10
-28.320000
20
5.180000
30
0.0
11
-34.720000
21
13.660000
31
0.0
0
LINE
8
0
6
CONTINUOUS
10
-37.600000
20
43.580000
30
0.0
11
-39.040000
21
33.500000
31
0.0
0
LINE
8
0
6
CONTINUOUS
10
-10.080000
20
71.100000
30
0.0
11
-19.360000
21
67.260000
31
0.0
0
LINE
8
0
6
CONTINUOUS
10
0.000000
20
72.540000
30
0.0
11
-10.080000
21
71.100000
31
0.0
0
LINE
8
0
6
CONTINUOUS
10
-39.040000
20
33.500000
30
0.0
11
-37.600000
21
43.580000
31
0.0
0
LINE
8
0
6
CONTINUOUS
10
-38.560000
20
43.740000
30
0.0
11
-40.000000
21
33.500000
31
0.0
0
LINE
8
0
6
CONTINUOUS
10
-37.600000
20
43.580000
30
0.0
11
-33.760000
21
52.860000
31
0.0
0
LINE
8
0
6
CONTINUOUS
10
-34.720000
20
53.340000
30
0.0
11
-38.560000
21
43.740000
31
0.0
0
LINE
8
0
6
CONTINUOUS
10
-28.320000
20
61.820000
30
0.0
11
-34.720000
21
53.340000
31
0.0
0
LINE
8
0
6
CONTINUOUS
10
-19.840000
20
68.220000
30
0.0
11
-28.320000
21
61.820000
31
0.0
0
LINE
8
0
6
CONTINUOUS
10
-19.360000
20
67.260000
30
0.0
11
-10.080000
21
71.100000
31
0.0
0
LINE
8
0
6
CONTINUOUS
10
-10.240000
20
72.060000
30
0.0
11
-19.840000
21
68.220000
31
0.0
0
LINE
8
0
6
CONTINUOUS
10
-10.080000
20
71.100000
30
0.0
11
0.000000
21
72.540000
31
0.0
0
LINE
8
0
6
CONTINUOUS
10
0.000000
20
73.500000
30
0.0
11
-10.240000
21
72.060000
31
0.0
0
LINE
8
0
6
CONTINUOUS
10
-40.000000
20
33.500000
30
0.0
11
-38.560000
21
43.740000
31
0.0
0
LINE
8
0
6
CONTINUOUS
10
-28.320000
20
61.820000
30
0.0
11
-19.840000
21
68.220000
31
0.0
0
LINE
8
0
6
CONTINUOUS
10
-19.840000
20
68.220000
30
0.0
11
-10.240000
21
72.060000
31
0.0
0
LINE
8
0
6
CONTINUOUS
10
-10.240000
20
72.060000
30
0.0
11
0.000000
21
73.500000
31
0.0
0
LINE
8
0
6
CONTINUOUS
10
39.040000
20
33.500000
30
0.0
11
37.600000
21
43.580000
31
0.0
0
LINE
8
0
6
CONTINUOUS
10
37.600000
20
43.580000
30
0.0
11
33.760000
21
52.860000
31
0.0
0
LINE
8
0
6
CONTINUOUS
10
10.080000
20
71.100000
30
0.0
11
0.000000
21
72.540000
31
0.0
0
LINE
8
0
6
CONTINUOUS
10
40.000000
20
33.500000
30
0.0
11
38.560000
21
43.740000
31
0.0
0
LINE
8
0
6
CONTINUOUS
10
37.600000
20
43.580000
30
0.0
11
39.040000
21
33.500000
31
0.0
0
LINE
8
0
6
CONTINUOUS
10
38.560000
20
43.740000
30
0.0
11
34.720000
21
53.340000
31
0.0
0
LINE
8
0
6
CONTINUOUS
10
33.760000
20
52.860000
30
0.0
11
37.600000
21
43.580000
31
0.0
0
LINE
8
0
6
CONTINUOUS
10
34.720000
20
53.340000
30
0.0
11
28.320000
21
61.820000
31
0.0
0
LINE
8
0
6
CONTINUOUS
10
28.320000
20
61.820000
30
0.0
11
19.840000
21
68.220000
31
0.0
0
LINE
8
0
6
CONTINUOUS
10
19.840000
20
68.220000
30
0.0
11
10.240000
21
72.060000
31
0.0
0
LINE
8
0
6
CONTINUOUS
10
10.080000
20
71.100000
30
0.0
11
19.360000
21
67.260000
31
0.0
0
LINE
8
0
6
CONTINUOUS
10
10.240000
20
72.060000
30
0.0
11
0.000000
21
73.500000
31
0.0
0
LINE
8
0
6
CONTINUOUS
10
0.000000
20
72.540000
30
0.0
11
10.080000
21
71.100000
31
0.0
0
LINE
8
0
6
CONTINUOUS
10
38.560000
20
43.740000
30
0.0
11
40.000000
21
33.500000
31
0.0
0
LINE
8
0
6
CONTINUOUS
10
34.720000
20
53.340000
30
0.0
11
38.560000
21
43.740000
31
0.0
0
LINE
8
0
6
CONTINUOUS
10
28.320000
20
61.820000
30
0.0
11
34.720000
21
53.340000
31
0.0
0
LINE
8
0
6
CONTINUOUS
10
0.000000
20
73.500000
30
0.0
11
10.240000
21
72.060000
31
0.0
0
LINE
8
0
6
CONTINUOUS
10
37.600000
20
23.420000
30
0.0
11
39.040000
21
33.500000
31
0.0
0
LINE
8
0
6
CONTINUOUS
10
12.000000
20
-3.305517
30
0.0
11
19.360000
21
-0.260000
31
0.0
0
LINE
8
0
6
CONTINUOUS
10
39.040000
20
33.500000
30
0.0
11
37.600000
21
23.420000
31
0.0
0
LINE
8
0
6
CONTINUOUS
10
38.560000
20
23.260000
30
0.0
11
40.000000
21
33.500000
31
0.0
0
LINE
8
0
6
CONTINUOUS
10
37.600000
20
23.420000
30
0.0
11
33.760000
21
14.140000
31
0.0
0
LINE
8
0
6
CONTINUOUS
10
34.720000
20
13.660000
30
0.0
11
38.560000
21
23.260000
31
0.0
0
LINE
8
0
6
CONTINUOUS
10
28.320000
20
5.180000
30
0.0
11
34.720000
21
13.660000
31
0.0
0
LINE
8
0
6
CONTINUOUS
10
19.840000
20
-1.220000
30
0.0
11
28.320000
21
5.180000
31
0.0
0
LINE
8
0
6
CONTINUOUS
10
19.360000
20
-0.260000
30
0.0
11
12.000000
21
-3.305517
31
0.0
0
LINE
8
0
6
CONTINUOUS
10
12.000000
20
-4.356000
30
0.0
11
19.840000
21
-1.220000
31
0.0
0
LINE
8
0
6
CONTINUOUS
10
40.000000
20
33.500000
30
0.0
11
38.560000
21
23.260000
31
0.0
0
LINE
8
0
6
CONTINUOUS
10
28.320000
20
5.180000
30
0.0
11
19.840000
21
-1.220000
31
0.0
0
LINE
8
0
6
CONTINUOUS
10
19.840000
20
-1.220000
30
0.0
11
12.000000
21
-4.356000
31
0.0
0
LINE
8
0
6
CONTINUOUS
10
-4.786000
20
-33.029100
30
0.0
11
-6.362000
21
-33.029100
31
0.0
0
LINE
8
0
6
CONTINUOUS
10
-1.512000
20
-33.029100
30
0.0
11
-3.164000
21
-33.029100
31
0.0
0
LINE
8
0
6
CONTINUOUS
10
-11.911000
20
-33.029100
30
0.0
11
-13.043000
21
-33.029100
31
0.0
0
LINE
8
0
6
CONTINUOUS
10
-10.665000
20
-33.029100
30
0.0
11
-11.911000
21
-33.029100
31
0.0
0
LINE
8
0
6
CONTINUOUS
10
-9.316000
20
-33.029100
30
0.0
11
-10.665000
21
-33.029100
31
0.0
0
LINE
8
0
6
CONTINUOUS
10
-7.878000
20
-33.029100
30
0.0
11
-9.316000
21
-33.029100
31
0.0
0
LINE
8
0
6
CONTINUOUS
10
-6.362000
20
-33.029100
30
0.0
11
-7.878000
21
-33.029100
31
0.0
0
LINE
8
0
6
CONTINUOUS
10
0.000000
20
-10.500000
30
0.0
11
0.754000
21
-10.500000
31
0.0
0
LINE
8
0
6
CONTINUOUS
10
0.754000
20
-10.500000
30
0.0
11
2.531000
21
-10.500000
31
0.0
0
LINE
8
0
6
CONTINUOUS
10
1.122000
20
-27.130800
30
0.0
11
2.159000
21
-24.255000
31
0.0
0
LINE
8
0
6
CONTINUOUS
10
0.429000
20
-24.255000
30
0.0
11
1.122000
21
-27.130800
31
0.0
0
LINE
8
0
6
CONTINUOUS
10
2.159000
20
-24.255000
30
0.0
11
0.429000
21
-24.255000
31
0.0
0
LINE
8
0
6
CONTINUOUS
10
1.756000
20
-28.883200
30
0.0
11
1.605000
21
-28.605900
31
0.0
0
LINE
8
0
6
CONTINUOUS
10
0.298000
20
-28.605900
30
0.0
11
1.756000
21
-28.883200
31
0.0
0
LINE
8
0
6
CONTINUOUS
10
1.605000
20
-28.605900
30
0.0
11
0.298000
21
-28.605900
31
0.0
0
LINE
8
0
6
CONTINUOUS
10
0.754000
20
-10.500000
30
0.0
11
0.000000
21
-10.500000
31
0.0
0
LINE
8
0
6
CONTINUOUS
10
2.531000
20
-10.500000
30
0.0
11
0.754000
21
-10.500000
31
0.0
0
LINE
8
0
6
CONTINUOUS
10
5.910000
20
-10.500000
30
0.0
11
7.451000
21
-10.500000
31
0.0
0
LINE
8
0
6
CONTINUOUS
10
5.910000
20
-10.500000
30
0.0
11
4.260000
21
-10.500000
31
0.0
0
LINE
8
0
6
CONTINUOUS
10
7.451000
20
-10.500000
30
0.0
11
5.910000
21
-10.500000
31
0.0
0
LINE
8
0
6
CONTINUOUS
10
2.531000
20
-10.500000
30
0.0
11
4.260000
21
-10.500000
31
0.0
0
LINE
8
0
6
CONTINUOUS
10
4.260000
20
-10.500000
30
0.0
11
5.910000
21
-10.500000
31
0.0
0
LINE
8
0
6
CONTINUOUS
10
4.260000
20
-10.500000
30
0.0
11
2.531000
21
-10.500000
31
0.0
0
LINE
8
0
6
CONTINUOUS
10
2.597000
20
-32.111700
30
0.0
11
0.943000
21
-32.111700
31
0.0
0
LINE
8
0
6
CONTINUOUS
10
0.943000
20
-32.892600
30
0.0
11
2.597000
21
-32.892600
31
0.0
0
LINE
8
0
6
CONTINUOUS
10
0.943000
20
-32.111700
30
0.0
11
2.597000
21
-32.111700
31
0.0
0
LINE
8
0
6
CONTINUOUS
10
2.507000
20
-31.601900
30
0.0
11
0.909000
21
-31.601900
31
0.0
0
LINE
8
0
6
CONTINUOUS
10
1.512000
20
-33.029100
30
0.0
11
2.597000
21
-32.892600
31
0.0
0
LINE
8
0
6
CONTINUOUS
10
0.943000
20
-32.892600
30
0.0
11
1.512000
21
-33.029100
31
0.0
0
LINE
8
0
6
CONTINUOUS
10
2.597000
20
-32.892600
30
0.0
11
0.943000
21
-32.892600
31
0.0
0
LINE
8
0
6
CONTINUOUS
10
2.597000
20
-32.892600
30
0.0
11
0.943000
21
-32.892600
31
0.0
0
LINE
8
0
6
CONTINUOUS
10
1.512000
20
-40.980600
30
0.0
11
3.164000
21
-40.980600
31
0.0
0
LINE
8
0
6
CONTINUOUS
10
3.164000
20
-33.029100
30
0.0
11
1.512000
21
-33.029100
31
0.0
0
LINE
8
0
6
CONTINUOUS
10
0.000000
20
-33.029100
30
0.0
11
1.512000
21
-33.029100
31
0.0
0
LINE
8
0
6
CONTINUOUS
10
0.943000
20
-32.892600
30
0.0
11
0.000000
21
-32.892600
31
0.0
0
LINE
8
0
6
CONTINUOUS
10
0.943000
20
-32.111700
30
0.0
11
0.000000
21
-32.111700
31
0.0
0
LINE
8
0
6
CONTINUOUS
10
0.000000
20
-32.892600
30
0.0
11
0.943000
21
-32.892600
31
0.0
0
LINE
8
0
6
CONTINUOUS
10
0.000000
20
-32.111700
30
0.0
11
0.943000
21
-32.111700
31
0.0
0
LINE
8
0
6
CONTINUOUS
10
0.909000
20
-31.601900
30
0.0
11
0.000000
21
-31.601900
31
0.0
0
LINE
8
0
6
CONTINUOUS
10
1.512000
20
-40.980600
30
0.0
11
0.000000
21
-40.980600
31
0.0
0
LINE
8
0
6
CONTINUOUS
10
3.164000
20
-40.980600
30
0.0
11
1.512000
21
-40.980600
31
0.0
0
LINE
8
0
6
CONTINUOUS
10
1.512000
20
-33.029100
30
0.0
11
0.000000
21
-33.029100
31
0.0
0
LINE
8
0
6
CONTINUOUS
10
0.000000
20
-40.980600
30
0.0
11
1.512000
21
-40.980600
31
0.0
0
LINE
8
0
6
CONTINUOUS
10
3.143000
20
-51.990300
30
0.0
11
1.502000
21
-51.990300
31
0.0
0
LINE
8
0
6
CONTINUOUS
10
1.502000
20
-51.990300
30
0.0
11
0.000000
21
-51.990300
31
0.0
0
LINE
8
0
6
CONTINUOUS
10
0.000000
20
-51.990300
30
0.0
11
1.502000
21
-51.990300
31
0.0
0
LINE
8
0
6
CONTINUOUS
10
1.502000
20
-51.990300
30
0.0
11
3.143000
21
-51.990300
31
0.0
0
LINE
8
0
6
CONTINUOUS
10
4.225000
20
-32.111700
30
0.0
11
5.810000
21
-32.111700
31
0.0
0
LINE
8
0
6
CONTINUOUS
10
5.608000
20
-31.601900
30
0.0
11
4.078000
21
-31.601900
31
0.0
0
LINE
8
0
6
CONTINUOUS
10
5.810000
20
-32.111700
30
0.0
11
4.225000
21
-32.111700
31
0.0
0
LINE
8
0
6
CONTINUOUS
10
4.225000
20
-32.892600
30
0.0
11
5.810000
21
-32.892600
31
0.0
0
LINE
8
0
6
CONTINUOUS
10
7.878000
20
-33.029100
30
0.0
11
6.362000
21
-33.029100
31
0.0
0
LINE
8
0
6
CONTINUOUS
10
6.362000
20
-40.980600
30
0.0
11
7.878000
21
-40.980600
31
0.0
0
LINE
8
0
6
CONTINUOUS
10
7.335000
20
-32.111700
30
0.0
11
5.810000
21
-32.111700
31
0.0
0
LINE
8
0
6
CONTINUOUS
10
5.810000
20
-32.892600
30
0.0
11
7.335000
21
-32.892600
31
0.0
0
LINE
8
0
6
CONTINUOUS
10
4.786000
20
-33.029100
30
0.0
11
6.362000
21
-33.029100
31
0.0
0
LINE
8
0
6
CONTINUOUS
10
7.335000
20
-32.892600
30
0.0
11
5.810000
21
-32.892600
31
0.0
0
LINE
8
0
6
CONTINUOUS
10
5.810000
20
-32.111700
30
0.0
11
7.335000
21
-32.111700
31
0.0
0
LINE
8
0
6
CONTINUOUS
10
7.080000
20
-31.601900
30
0.0
11
5.608000
21
-31.601900
31
0.0
0
LINE
8
0
6
CONTINUOUS
10
6.362000
20
-33.029100
30
0.0
11
4.786000
21
-33.029100
31
0.0
0
LINE
8
0
6
CONTINUOUS
10
4.786000
20
-40.980600
30
0.0
11
6.362000
21
-40.980600
31
0.0
0
LINE
8
0
6
CONTINUOUS
10
7.878000
20
-40.980600
30
0.0
11
6.362000
21
-40.980600
31
0.0
0
LINE
8
0
6
CONTINUOUS
10
7.824000
20
-51.990300
30
0.0
11
6.320000
21
-51.990300
31
0.0
0
LINE
8
0
6
CONTINUOUS
10
6.320000
20
-51.990300
30
0.0
11
4.755000
21
-51.990300
31
0.0
0
LINE
8
0
6
CONTINUOUS
10
4.755000
20
-51.990300
30
0.0
11
6.320000
21
-51.990300
31
0.0
0
LINE
8
0
6
CONTINUOUS
10
6.320000
20
-51.990300
30
0.0
11
7.824000
21
-51.990300
31
0.0
0
LINE
8
0
6
CONTINUOUS
10
5.608000
20
-31.601900
30
0.0
11
7.080000
21
-31.601900
31
0.0
0
LINE
8
0
6
CONTINUOUS
10
4.078000
20
-31.601900
30
0.0
11
5.608000
21
-31.601900
31
0.0
0
LINE
8
0
6
CONTINUOUS
10
2.507000
20
-31.601900
30
0.0
11
4.078000
21
-31.601900
31
0.0
0
LINE
8
0
6
CONTINUOUS
10
1.512000
20
-33.029100
30
0.0
11
3.164000
21
-33.029100
31
0.0
0
LINE
8
0
6
CONTINUOUS
10
4.225000
20
-32.892600
30
0.0
11
2.597000
21
-32.892600
31
0.0
0
LINE
8
0
6
CONTINUOUS
10
4.225000
20
-32.111700
30
0.0
11
2.597000
21
-32.111700
31
0.0
0
LINE
8
0
6
CONTINUOUS
10
2.597000
20
-32.892600
30
0.0
11
4.225000
21
-32.892600
31
0.0
0
LINE
8
0
6
CONTINUOUS
10
2.597000
20
-32.111700
30
0.0
11
4.225000
21
-32.111700
31
0.0
0
LINE
8
0
6
CONTINUOUS
10
4.078000
20
-31.601900
30
0.0
11
2.507000
21
-31.601900
31
0.0
0
LINE
8
0
6
CONTINUOUS
10
3.164000
20
-33.029100
30
0.0
11
4.786000
21
-33.029100
31
0.0
0
LINE
8
0
6
CONTINUOUS
10
5.810000
20
-32.892600
30
0.0
11
4.225000
21
-32.892600
31
0.0
0
LINE
8
0
6
CONTINUOUS
10
6.362000
20
-40.980600
30
0.0
11
4.786000
21
-40.980600
31
0.0
0
LINE
8
0
6
CONTINUOUS
10
4.786000
20
-40.980600
30
0.0
11
3.164000
21
-40.980600
31
0.0
0
LINE
8
0
6
CONTINUOUS
10
3.164000
20
-40.980600
30
0.0
11
4.786000
21
-40.980600
31
0.0
0
LINE
8
0
6
CONTINUOUS
10
4.786000
20
-33.029100
30
0.0
11
3.164000
21
-33.029100
31
0.0
0
LINE
8
0
6
CONTINUOUS
10
4.755000
20
-51.990300
30
0.0
11
3.143000
21
-51.990300
31
0.0
0
LINE
8
0
6
CONTINUOUS
10
3.143000
20
-51.990300
30
0.0
11
4.755000
21
-51.990300
31
0.0
0
LINE
8
0
6
CONTINUOUS
10
7.080000
20
-31.601900
30
0.0
11
8.480000
21
-31.601900
31
0.0
0
LINE
8
0
6
CONTINUOUS
10
0.909000
20
-31.601900
30
0.0
11
2.507000
21
-31.601900
31
0.0
0
LINE
8
0
6
CONTINUOUS
10
0.000000
20
-31.601900
30
0.0
11
0.909000
21
-31.601900
31
0.0
0
LINE
8
0
6
CONTINUOUS
10
9.603000
20
-23.534200
30
0.0
11
9.604000
21
-23.848200
31
0.0
0
LINE
8
0
6
CONTINUOUS
10
9.603000
20
-22.023500
30
0.0
11
9.603000
21
-23.534200
31
0.0
0
LINE
8
0
6
CONTINUOUS
10
9.606000
20
-24.129600
30
0.0
11
9.604000
21
-23.848200
31
0.0
0
LINE
8
0
6
CONTINUOUS
10
10.089000
20
-10.500000
30
0.0
11
11.137000
21
-10.500000
31
0.0
0
LINE
8
0
6
CONTINUOUS
10
11.978000
20
-10.500000
30
0.0
11
12.596000
21
-10.500000
31
0.0
0
LINE
8
0
6
CONTINUOUS
10
11.137000
20
-10.500000
30
0.0
11
11.978000
21
-10.500000
31
0.0
0
LINE
8
0
6
CONTINUOUS
10
12.596000
20
-10.500000
30
0.0
11
12.979000
21
-10.500000
31
0.0
0
LINE
8
0
6
CONTINUOUS
10
9.687000
20
-26.965600
30
0.0
11
9.672000
21
-26.752600
31
0.0
0
LINE
8
0
6
CONTINUOUS
10
10.086000
20
-29.021500
30
0.0
11
9.597000
21
-28.605900
31
0.0
0
LINE
8
0
6
CONTINUOUS
10
9.597000
20
-28.605900
30
0.0
11
9.314000
21
-28.274600
31
0.0
0
LINE
8
0
6
CONTINUOUS
10
9.652000
20
-27.052000
30
0.0
11
9.699000
21
-27.003700
31
0.0
0
LINE
8
0
6
CONTINUOUS
10
9.561000
20
-27.130800
30
0.0
11
9.652000
21
-27.052000
31
0.0
0
LINE
8
0
6
CONTINUOUS
10
9.314000
20
-28.274600
30
0.0
11
9.211000
21
-27.876000
31
0.0
0
LINE
8
0
6
CONTINUOUS
10
9.293000
20
-27.473300
30
0.0
11
9.455000
21
-27.268700
31
0.0
0
LINE
8
0
6
CONTINUOUS
10
9.455000
20
-27.268700
30
0.0
11
9.561000
21
-27.130800
31
0.0
0
LINE
8
0
6
CONTINUOUS
10
9.211000
20
-27.876000
30
0.0
11
9.293000
21
-27.473300
31
0.0
0
LINE
8
0
6
CONTINUOUS
10
11.316000
20
-30.272600
30
0.0
11
10.086000
21
-29.021500
31
0.0
0
LINE
8
0
6
CONTINUOUS
10
9.672000
20
-26.752600
30
0.0
11
9.654000
21
-26.303000
31
0.0
0
LINE
8
0
6
CONTINUOUS
10
12.596000
20
-10.500000
30
0.0
11
11.978000
21
-10.500000
31
0.0
0
LINE
8
0
6
CONTINUOUS
10
12.290000
20
-21.391400
30
0.0
11
12.737000
21
-21.287400
31
0.0
0
LINE
8
0
6
CONTINUOUS
10
13.121000
20
-10.500000
30
0.0
11
12.979000
21
-10.500000
31
0.0
0
LINE
8
0
6
CONTINUOUS
10
13.121000
20
-21.203900
30
0.0
11
13.121000
21
-10.500000
31
0.0
0
LINE
8
0
6
CONTINUOUS
10
13.017000
20
-21.225300
30
0.0
11
13.121000
21
-21.203900
31
0.0
0
LINE
8
0
6
CONTINUOUS
10
12.737000
20
-21.287400
30
0.0
11
13.017000
21
-21.225300
31
0.0
0
LINE
8
0
6
CONTINUOUS
10
12.979000
20
-10.500000
30
0.0
11
12.596000
21
-10.500000
31
0.0
0
LINE
8
0
6
CONTINUOUS
10
11.137000
20
-10.500000
30
0.0
11
10.089000
21
-10.500000
31
0.0
0
LINE
8
0
6
CONTINUOUS
10
10.382000
20
-21.839000
30
0.0
11
11.077000
21
-21.675900
31
0.0
0
LINE
8
0
6
CONTINUOUS
10
11.680000
20
-21.534200
30
0.0
11
12.290000
21
-21.391400
31
0.0
0
LINE
8
0
6
CONTINUOUS
10
11.978000
20
-10.500000
30
0.0
11
11.137000
21
-10.500000
31
0.0
0
LINE
8
0
6
CONTINUOUS
10
11.077000
20
-21.675900
30
0.0
11
11.680000
21
-21.534200
31
0.0
0
LINE
8
0
6
CONTINUOUS
10
9.603000
20
-22.023500
30
0.0
11
10.382000
21
-21.839000
31
0.0
0
LINE
8
0
6
CONTINUOUS
10
10.089000
20
-10.500000
30
0.0
11
8.852000
21
-10.500000
31
0.0
0
LINE
8
0
6
CONTINUOUS
10
9.699000
20
-22.023500
30
0.0
11
10.111000
21
-21.924900
31
0.0
0
LINE
8
0
6
CONTINUOUS
10
9.603000
20
-22.023500
30
0.0
11
9.699000
21
-22.023500
31
0.0
0
LINE
8
0
6
CONTINUOUS
10
10.111000
20
-21.924900
30
0.0
11
10.945000
21
-21.725300
31
0.0
0
LINE
8
0
6
CONTINUOUS
10
10.945000
20
-21.725300
30
0.0
11
12.025000
21
-21.466500
31
0.0
0
LINE
8
0
6
CONTINUOUS
10
12.290000
20
-21.391400
30
0.0
11
11.680000
21
-21.534200
31
0.0
0
LINE
8
0
6
CONTINUOUS
10
12.737000
20
-21.287400
30
0.0
11
12.290000
21
-21.391400
31
0.0
0
LINE
8
0
6
CONTINUOUS
10
12.025000
20
-21.466500
30
0.0
11
13.114000
21
-21.205900
31
0.0
0
LINE
8
0
6
CONTINUOUS
10
13.017000
20
-21.225300
30
0.0
11
12.737000
21
-21.287400
31
0.0
0
LINE
8
0
6
CONTINUOUS
10
9.635000
20
-25.571000
30
0.0
11
9.654000
21
-26.303000
31
0.0
0
LINE
8
0
6
CONTINUOUS
10
9.622000
20
-24.990000
30
0.0
11
9.635000
21
-25.571000
31
0.0
0
LINE
8
0
6
CONTINUOUS
10
9.699000
20
-23.108800
30
0.0
11
9.699000
21
-22.951100
31
0.0
0
LINE
8
0
6
CONTINUOUS
10
9.699000
20
-27.003700
30
0.0
11
9.699000
21
-26.901500
31
0.0
0
LINE
8
0
6
CONTINUOUS
10
9.699000
20
-24.026400
30
0.0
11
9.699000
21
-23.108800
31
0.0
0
LINE
8
0
6
CONTINUOUS
10
9.699000
20
-22.951100
30
0.0
11
9.699000
21
-22.023500
31
0.0
0
LINE
8
0
6
CONTINUOUS
10
9.699000
20
-22.023500
30
0.0
11
9.603000
21
-22.023500
31
0.0
0
LINE
8
0
6
CONTINUOUS
10
9.672000
20
-26.752600
30
0.0
11
9.687000
21
-26.965600
31
0.0
0
LINE
8
0
6
CONTINUOUS
10
9.654000
20
-26.303000
30
0.0
11
9.672000
21
-26.752600
31
0.0
0
LINE
8
0
6
CONTINUOUS
10
9.699000
20
-26.901500
30
0.0
11
9.699000
21
-25.497800
31
0.0
0
LINE
8
0
6
CONTINUOUS
10
9.699000
20
-25.497800
30
0.0
11
9.699000
21
-24.026400
31
0.0
0
LINE
8
0
6
CONTINUOUS
10
11.077000
20
-21.675900
30
0.0
11
10.382000
21
-21.839000
31
0.0
0
LINE
8
0
6
CONTINUOUS
10
11.680000
20
-21.534200
30
0.0
11
11.077000
21
-21.675900
31
0.0
0
LINE
8
0
6
CONTINUOUS
10
10.382000
20
-21.839000
30
0.0
11
9.603000
21
-22.023500
31
0.0
0
LINE
8
0
6
CONTINUOUS
10
9.609000
20
-24.255000
30
0.0
11
9.622000
21
-24.990000
31
0.0
0
LINE
8
0
6
CONTINUOUS
10
9.609000
20
-24.255000
30
0.0
11
9.606000
21
-24.129600
31
0.0
0
LINE
8
0
6
CONTINUOUS
10
9.606000
20
-24.129600
30
0.0
11
9.609000
21
-24.255000
31
0.0
0
LINE
8
0
6
CONTINUOUS
10
9.604000
20
-23.848200
30
0.0
11
9.606000
21
-24.129600
31
0.0
0
LINE
8
0
6
CONTINUOUS
10
13.548000
20
-32.111700
30
0.0
11
12.539000
21
-32.111700
31
0.0
0
LINE
8
0
6
CONTINUOUS
10
12.539000
20
-32.892600
30
0.0
11
13.548000
21
-32.892600
31
0.0
0
LINE
8
0
6
CONTINUOUS
10
12.539000
20
-32.111700
30
0.0
11
13.548000
21
-32.111700
31
0.0
0
LINE
8
0
6
CONTINUOUS
10
13.078000
20
-31.601900
30
0.0
11
12.103000
21
-31.601900
31
0.0
0
LINE
8
0
6
CONTINUOUS
10
11.911000
20
-33.029100
30
0.0
11
13.043000
21
-33.029100
31
0.0
0
LINE
8
0
6
CONTINUOUS
10
13.548000
20
-32.892600
30
0.0
11
12.539000
21
-32.892600
31
0.0
0
LINE
8
0
6
CONTINUOUS
10
12.539000
20
-32.111700
30
0.0
11
11.400000
21
-32.111700
31
0.0
0
LINE
8
0
6
CONTINUOUS
10
11.400000
20
-32.892600
30
0.0
11
12.539000
21
-32.892600
31
0.0
0
LINE
8
0
6
CONTINUOUS
10
13.043000
20
-40.980600
30
0.0
11
11.911000
21
-40.980600
31
0.0
0
LINE
8
0
6
CONTINUOUS
10
13.043000
20
-33.029100
30
0.0
11
11.911000
21
-33.029100
31
0.0
0
LINE
8
0
6
CONTINUOUS
10
11.911000
20
-40.980600
30
0.0
11
13.043000
21
-40.980600
31
0.0
0
LINE
8
0
6
CONTINUOUS
10
11.911000
20
-33.029100
30
0.0
11
10.665000
21
-33.029100
31
0.0
0
LINE
8
0
6
CONTINUOUS
10
10.665000
20
-40.980600
30
0.0
11
11.911000
21
-40.980600
31
0.0
0
LINE
8
0
6
CONTINUOUS
10
11.400000
20
-32.111700
30
0.0
11
10.144000
21
-32.111700
31
0.0
0
LINE
8
0
6
CONTINUOUS
10
10.144000
20
-32.892600
30
0.0
11
11.400000
21
-32.892600
31
0.0
0
LINE
8
0
6
CONTINUOUS
10
10.144000
20
-32.111700
30
0.0
11
11.400000
21
-32.111700
31
0.0
0
LINE
8
0
6
CONTINUOUS
10
11.004000
20
-31.601900
30
0.0
11
9.792000
21
-31.601900
31
0.0
0
LINE
8
0
6
CONTINUOUS
10
10.665000
20
-33.029100
30
0.0
11
11.911000
21
-33.029100
31
0.0
0
LINE
8
0
6
CONTINUOUS
10
12.539000
20
-32.892600
30
0.0
11
11.400000
21
-32.892600
31
0.0
0
LINE
8
0
6
CONTINUOUS
10
11.911000
20
-40.980600
30
0.0
11
10.665000
21
-40.980600
31
0.0
0
LINE
8
0
6
CONTINUOUS
10
11.400000
20
-32.111700
30
0.0
11
12.539000
21
-32.111700
31
0.0
0
LINE
8
0
6
CONTINUOUS
10
12.103000
20
-31.601900
30
0.0
11
11.004000
21
-31.601900
31
0.0
0
LINE
8
0
6
CONTINUOUS
10
9.316000
20
-33.029100
30
0.0
11
10.665000
21
-33.029100
31
0.0
0
LINE
8
0
6
CONTINUOUS
10
11.400000
20
-32.892600
30
0.0
11
10.144000
21
-32.892600
31
0.0
0
LINE
8
0
6
CONTINUOUS
10
10.665000
20
-33.029100
30
0.0
11
9.316000
21
-33.029100
31
0.0
0
LINE
8
0
6
CONTINUOUS
10
9.316000
20
-40.980600
30
0.0
11
10.665000
21
-40.980600
31
0.0
0
LINE
8
0
6
CONTINUOUS
10
10.665000
20
-40.980600
30
0.0
11
9.316000
21
-40.980600
31
0.0
0
LINE
8
0
6
CONTINUOUS
10
10.144000
20
-32.111700
30
0.0
11
8.785000
21
-32.111700
31
0.0
0
LINE
8
0
6
CONTINUOUS
10
8.785000
20
-32.892600
30
0.0
11
10.144000
21
-32.892600
31
0.0
0
LINE
8
0
6
CONTINUOUS
10
12.956000
20
-51.990300
30
0.0
11
11.831000
21
-51.990300
31
0.0
0
LINE
8
0
6
CONTINUOUS
10
11.831000
20
-51.990300
30
0.0
11
10.593000
21
-51.990300
31
0.0
0
LINE
8
0
6
CONTINUOUS
10
10.593000
20
-51.990300
30
0.0
11
9.254000
21
-51.990300
31
0.0
0
LINE
8
0
6
CONTINUOUS
10
9.254000
20
-51.990300
30
0.0
11
10.593000
21
-51.990300
31
0.0
0
LINE
8
0
6
CONTINUOUS
10
11.831000
20
-51.990300
30
0.0
11
12.956000
21
-51.990300
31
0.0
0
LINE
8
0
6
CONTINUOUS
10
10.593000
20
-51.990300
30
0.0
11
11.831000
21
-51.990300
31
0.0
0
LINE
8
0
6
CONTINUOUS
10
13.043000
20
-33.029100
30
0.0
11
14.049000
21
-33.029100
31
0.0
0
LINE
8
0
6
CONTINUOUS
10
14.049000
20
-40.980600
30
0.0
11
13.043000
21
-40.980600
31
0.0
0
LINE
8
0
6
CONTINUOUS
10
14.049000
20
-33.029100
30
0.0
11
13.043000
21
-33.029100
31
0.0
0
LINE
8
0
6
CONTINUOUS
10
13.043000
20
-40.980600
30
0.0
11
14.049000
21
-40.980600
31
0.0
0
LINE
8
0
6
CONTINUOUS
10
13.955000
20
-51.990300
30
0.0
11
12.956000
21
-51.990300
31
0.0
0
LINE
8
0
6
CONTINUOUS
10
12.956000
20
-51.990300
30
0.0
11
13.955000
21
-51.990300
31
0.0
0
LINE
8
0
6
CONTINUOUS
10
14.616000
20
-31.601900
30
0.0
11
13.918000
21
-31.601900
31
0.0
0
LINE
8
0
6
CONTINUOUS
10
14.419000
20
-32.111700
30
0.0
11
15.143000
21
-32.111700
31
0.0
0
LINE
8
0
6
CONTINUOUS
10
14.920000
20
-33.029100
30
0.0
11
15.647000
21
-33.029100
31
0.0
0
LINE
8
0
6
CONTINUOUS
10
15.143000
20
-32.892600
30
0.0
11
14.419000
21
-32.892600
31
0.0
0
LINE
8
0
6
CONTINUOUS
10
15.143000
20
-32.111700
30
0.0
11
14.419000
21
-32.111700
31
0.0
0
LINE
8
0
6
CONTINUOUS
10
14.419000
20
-32.892600
30
0.0
11
15.143000
21
-32.892600
31
0.0
0
LINE
8
0
6
CONTINUOUS
10
16.117000
20
-32.111700
30
0.0
11
15.710000
21
-32.111700
31
0.0
0
LINE
8
0
6
CONTINUOUS
10
15.710000
20
-32.892600
30
0.0
11
16.116000
21
-32.892600
31
0.0
0
LINE
8
0
6
CONTINUOUS
10
15.143000
20
-32.111700
30
0.0
11
15.710000
21
-32.111700
31
0.0
0
LINE
8
0
6
CONTINUOUS
10
15.164000
20
-31.601900
30
0.0
11
14.616000
21
-31.601900
31
0.0
0
LINE
8
0
6
CONTINUOUS
10
15.647000
20
-33.029100
30
0.0
11
16.223000
21
-33.029100
31
0.0
0
LINE
8
0
6
CONTINUOUS
10
15.710000
20
-32.892600
30
0.0
11
15.143000
21
-32.892600
31
0.0
0
LINE
8
0
6
CONTINUOUS
10
15.710000
20
-32.111700
30
0.0
11
15.143000
21
-32.111700
31
0.0
0
LINE
8
0
6
CONTINUOUS
10
15.143000
20
-32.892600
30
0.0
11
15.710000
21
-32.892600
31
0.0
0
LINE
8
0
6
CONTINUOUS
10
15.647000
20
-40.980600
30
0.0
11
14.920000
21
-40.980600
31
0.0
0
LINE
8
0
6
CONTINUOUS
10
16.223000
20
-40.980600
30
0.0
11
15.647000
21
-40.980600
31
0.0
0
LINE
8
0
6
CONTINUOUS
10
16.223000
20
-33.029100
30
0.0
11
15.647000
21
-33.029100
31
0.0
0
LINE
8
0
6
CONTINUOUS
10
15.647000
20
-40.980600
30
0.0
11
16.223000
21
-40.980600
31
0.0
0
LINE
8
0
6
CONTINUOUS
10
15.647000
20
-33.029100
30
0.0
11
14.920000
21
-33.029100
31
0.0
0
LINE
8
0
6
CONTINUOUS
10
14.920000
20
-40.980600
30
0.0
11
15.647000
21
-40.980600
31
0.0
0
LINE
8
0
6
CONTINUOUS
10
16.644000
20
-40.980600
30
0.0
11
16.223000
21
-40.980600
31
0.0
0
LINE
8
0
6
CONTINUOUS
10
16.223000
20
-33.029100
30
0.0
11
16.643000
21
-33.029100
31
0.0
0
LINE
8
0
6
CONTINUOUS
10
16.116000
20
-32.892600
30
0.0
11
15.710000
21
-32.892600
31
0.0
0
LINE
8
0
6
CONTINUOUS
10
16.643000
20
-33.029100
30
0.0
11
16.223000
21
-33.029100
31
0.0
0
LINE
8
0
6
CONTINUOUS
10
16.223000
20
-40.980600
30
0.0
11
16.644000
21
-40.980600
31
0.0
0
LINE
8
0
6
CONTINUOUS
10
16.426000
20
-32.111700
30
0.0
11
16.358000
21
-32.111700
31
0.0
0
LINE
8
0
6
CONTINUOUS
10
16.425000
20
-32.892600
30
0.0
11
16.426000
21
-32.111700
31
0.0
0
LINE
8
0
6
CONTINUOUS
10
16.357000
20
-32.892600
30
0.0
11
16.425000
21
-32.892600
31
0.0
0
LINE
8
0
6
CONTINUOUS
10
16.426000
20
-32.111700
30
0.0
11
15.855000
21
-31.601900
31
0.0
0
LINE
8
0
6
CONTINUOUS
10
16.358000
20
-32.111700
30
0.0
11
16.426000
21
-32.111700
31
0.0
0
LINE
8
0
6
CONTINUOUS
10
15.855000
20
-31.601900
30
0.0
11
15.789000
21
-31.601900
31
0.0
0
LINE
8
0
6
CONTINUOUS
10
16.426000
20
-41.694200
30
0.0
11
16.426000
21
-40.980600
31
0.0
0
LINE
8
0
6
CONTINUOUS
10
17.000000
20
-33.029100
30
0.0
11
16.667000
21
-32.949400
31
0.0
0
LINE
8
0
6
CONTINUOUS
10
16.903000
20
-33.029100
30
0.0
11
17.000000
21
-33.029100
31
0.0
0
LINE
8
0
6
CONTINUOUS
10
16.886000
20
-42.400600
30
0.0
11
16.621000
21
-41.989600
31
0.0
0
LINE
8
0
6
CONTINUOUS
10
17.000000
20
-33.029100
30
0.0
11
16.903000
21
-33.029100
31
0.0
0
LINE
8
0
6
CONTINUOUS
10
16.903000
20
-40.980600
30
0.0
11
17.000000
21
-40.980600
31
0.0
0
LINE
8
0
6
CONTINUOUS
10
17.000000
20
-33.029100
30
0.0
11
17.000000
21
-40.980600
31
0.0
0
LINE
8
0
6
CONTINUOUS
10
16.667000
20
-32.949400
30
0.0
11
16.425000
21
-32.892600
31
0.0
0
LINE
8
0
6
CONTINUOUS
10
16.357000
20
-32.892600
30
0.0
11
16.667000
21
-32.949400
31
0.0
0
LINE
8
0
6
CONTINUOUS
10
16.425000
20
-32.892600
30
0.0
11
16.357000
21
-32.892600
31
0.0
0
LINE
8
0
6
CONTINUOUS
10
16.667000
20
-32.949400
30
0.0
11
16.425000
21
-32.892600
31
0.0
0
LINE
8
0
6
CONTINUOUS
10
16.425000
20
-32.892600
30
0.0
11
16.357000
21
-32.892600
31
0.0
0
LINE
8
0
6
CONTINUOUS
10
16.621000
20
-41.989600
30
0.0
11
16.426000
21
-41.694200
31
0.0
0
LINE
8
0
6
CONTINUOUS
10
16.358000
20
-41.694200
30
0.0
11
16.621000
21
-41.989600
31
0.0
0
LINE
8
0
6
CONTINUOUS
10
16.621000
20
-41.989600
30
0.0
11
16.426000
21
-41.694200
31
0.0
0
LINE
8
0
6
CONTINUOUS
10
16.426000
20
-41.694200
30
0.0
11
16.358000
21
-41.694200
31
0.0
0
LINE
8
0
6
CONTINUOUS
10
16.903000
20
-40.980600
30
0.0
11
16.644000
21
-40.980600
31
0.0
0
LINE
8
0
6
CONTINUOUS
10
16.643000
20
-33.029100
30
0.0
11
16.903000
21
-33.029100
31
0.0
0
LINE
8
0
6
CONTINUOUS
10
16.357000
20
-32.892600
30
0.0
11
16.116000
21
-32.892600
31
0.0
0
LINE
8
0
6
CONTINUOUS
10
17.000000
20
-40.980600
30
0.0
11
16.903000
21
-40.980600
31
0.0
0
LINE
8
0
6
CONTINUOUS
10
16.903000
20
-33.029100
30
0.0
11
16.643000
21
-33.029100
31
0.0
0
LINE
8
0
6
CONTINUOUS
10
16.644000
20
-40.980600
30
0.0
11
16.903000
21
-40.980600
31
0.0
0
LINE
8
0
6
CONTINUOUS
10
15.710000
20
-32.111700
30
0.0
11
16.117000
21
-32.111700
31
0.0
0
LINE
8
0
6
CONTINUOUS
10
15.557000
20
-31.601900
30
0.0
11
15.164000
21
-31.601900
31
0.0
0
LINE
8
0
6
CONTINUOUS
10
16.117000
20
-32.111700
30
0.0
11
16.358000
21
-32.111700
31
0.0
0
LINE
8
0
6
CONTINUOUS
10
15.789000
20
-31.601900
30
0.0
11
15.557000
21
-31.601900
31
0.0
0
LINE
8
0
6
CONTINUOUS
10
16.358000
20
-32.111700
30
0.0
11
16.117000
21
-32.111700
31
0.0
0
LINE
8
0
6
CONTINUOUS
10
16.116000
20
-32.892600
30
0.0
11
16.357000
21
-32.892600
31
0.0
0
LINE
8
0
6
CONTINUOUS
10
15.542000
20
-51.990300
30
0.0
11
14.820000
21
-51.990300
31
0.0
0
LINE
8
0
6
CONTINUOUS
10
16.115000
20
-51.990300
30
0.0
11
15.542000
21
-51.990300
31
0.0
0
LINE
8
0
6
CONTINUOUS
10
16.553000
20
-52.288200
30
0.0
11
16.886000
21
-51.990300
31
0.0
0
LINE
8
0
6
CONTINUOUS
10
16.312000
20
-52.500000
30
0.0
11
16.553000
21
-52.288200
31
0.0
0
LINE
8
0
6
CONTINUOUS
10
16.886000
20
-51.990300
30
0.0
11
16.790000
21
-51.990300
31
0.0
0
LINE
8
0
6
CONTINUOUS
10
16.790000
20
-51.990300
30
0.0
11
16.243000
21
-52.500000
31
0.0
0
LINE
8
0
6
CONTINUOUS
10
16.886000
20
-51.990300
30
0.0
11
16.790000
21
-51.990300
31
0.0
0
LINE
8
0
6
CONTINUOUS
10
16.243000
20
-52.500000
30
0.0
11
16.886000
21
-51.990300
31
0.0
0
LINE
8
0
6
CONTINUOUS
10
16.532000
20
-51.990300
30
0.0
11
16.115000
21
-51.990300
31
0.0
0
LINE
8
0
6
CONTINUOUS
10
16.790000
20
-51.990300
30
0.0
11
16.532000
21
-51.990300
31
0.0
0
LINE
8
0
6
CONTINUOUS
10
16.115000
20
-51.990300
30
0.0
11
16.532000
21
-51.990300
31
0.0
0
LINE
8
0
6
CONTINUOUS
10
16.532000
20
-51.990300
30
0.0
11
16.790000
21
-51.990300
31
0.0
0
LINE
8
0
6
CONTINUOUS
10
16.790000
20
-51.990300
30
0.0
11
16.886000
21
-51.990300
31
0.0
0
LINE
8
0
6
CONTINUOUS
10
16.886000
20
-42.400600
30
0.0
11
16.886000
21
-51.990300
31
0.0
0
LINE
8
0
6
CONTINUOUS
10
14.820000
20
-51.990300
30
0.0
11
15.542000
21
-51.990300
31
0.0
0
LINE
8
0
6
CONTINUOUS
10
15.542000
20
-51.990300
30
0.0
11
16.115000
21
-51.990300
31
0.0
0
LINE
8
0
6
CONTINUOUS
10
14.419000
20
-32.111700
30
0.0
11
13.548000
21
-32.111700
31
0.0
0
LINE
8
0
6
CONTINUOUS
10
13.548000
20
-32.892600
30
0.0
11
14.419000
21
-32.892600
31
0.0
0
LINE
8
0
6
CONTINUOUS
10
13.548000
20
-32.111700
30
0.0
11
14.419000
21
-32.111700
31
0.0
0
LINE
8
0
6
CONTINUOUS
10
13.918000
20
-31.601900
30
0.0
11
13.078000
21
-31.601900
31
0.0
0
LINE
8
0
6
CONTINUOUS
10
14.419000
20
-32.892600
30
0.0
11
13.548000
21
-32.892600
31
0.0
0
LINE
8
0
6
CONTINUOUS
10
14.049000
20
-33.029100
30
0.0
11
14.920000
21
-33.029100
31
0.0
0
LINE
8
0
6
CONTINUOUS
10
14.920000
20
-40.980600
30
0.0
11
14.049000
21
-40.980600
31
0.0
0
LINE
8
0
6
CONTINUOUS
10
14.820000
20
-51.990300
30
0.0
11
13.955000
21
-51.990300
31
0.0
0
LINE
8
0
6
CONTINUOUS
10
13.955000
20
-51.990300
30
0.0
11
14.820000
21
-51.990300
31
0.0
0
LINE
8
0
6
CONTINUOUS
10
14.920000
20
-33.029100
30
0.0
11
14.049000
21
-33.029100
31
0.0
0
LINE
8
0
6
CONTINUOUS
10
14.049000
20
-40.980600
30
0.0
11
14.920000
21
-40.980600
31
0.0
0
LINE
8
0
6
CONTINUOUS
10
12.352000
20
-31.656200
30
0.0
11
11.316000
21
-30.272600
31
0.0
0
LINE
8
0
6
CONTINUOUS
10
9.316000
20
-33.029100
30
0.0
11
7.878000
21
-33.029100
31
0.0
0
LINE
8
0
6
CONTINUOUS
10
7.878000
20
-40.980600
30
0.0
11
9.316000
21
-40.980600
31
0.0
0
LINE
8
0
6
CONTINUOUS
10
8.852000
20
-10.500000
30
0.0
11
10.089000
21
-10.500000
31
0.0
0
LINE
8
0
6
CONTINUOUS
10
7.451000
20
-10.500000
30
0.0
11
8.852000
21
-10.500000
31
0.0
0
LINE
8
0
6
CONTINUOUS
10
9.654000
20
-26.303000
30
0.0
11
9.635000
21
-25.571000
31
0.0
0
LINE
8
0
6
CONTINUOUS
10
9.604000
20
-23.848200
30
0.0
11
9.603000
21
-23.534200
31
0.0
0
LINE
8
0
6
CONTINUOUS
10
8.785000
20
-32.111700
30
0.0
11
10.144000
21
-32.111700
31
0.0
0
LINE
8
0
6
CONTINUOUS
10
9.792000
20
-31.601900
30
0.0
11
8.480000
21
-31.601900
31
0.0
0
LINE
8
0
6
CONTINUOUS
10
9.635000
20
-25.571000
30
0.0
11
9.622000
21
-24.990000
31
0.0
0
LINE
8
0
6
CONTINUOUS
10
9.622000
20
-24.990000
30
0.0
11
9.609000
21
-24.255000
31
0.0
0
LINE
8
0
6
CONTINUOUS
10
7.878000
20
-33.029100
30
0.0
11
9.316000
21
-33.029100
31
0.0
0
LINE
8
0
6
CONTINUOUS
10
10.144000
20
-32.892600
30
0.0
11
8.785000
21
-32.892600
31
0.0
0
LINE
8
0
6
CONTINUOUS
10
6.362000
20
-33.029100
30
0.0
11
7.878000
21
-33.029100
31
0.0
0
LINE
8
0
6
CONTINUOUS
10
8.785000
20
-32.892600
30
0.0
11
7.335000
21
-32.892600
31
0.0
0
LINE
8
0
6
CONTINUOUS
10
9.316000
20
-40.980600
30
0.0
11
7.878000
21
-40.980600
31
0.0
0
LINE
8
0
6
CONTINUOUS
10
8.785000
20
-32.111700
30
0.0
11
7.335000
21
-32.111700
31
0.0
0
LINE
8
0
6
CONTINUOUS
10
7.335000
20
-32.892600
30
0.0
11
8.785000
21
-32.892600
31
0.0
0
LINE
8
0
6
CONTINUOUS
10
7.335000
20
-32.111700
30
0.0
11
8.785000
21
-32.111700
31
0.0
0
LINE
8
0
6
CONTINUOUS
10
8.480000
20
-31.601900
30
0.0
11
7.080000
21
-31.601900
31
0.0
0
LINE
8
0
6
CONTINUOUS
10
9.254000
20
-51.990300
30
0.0
11
7.824000
21
-51.990300
31
0.0
0
LINE
8
0
6
CONTINUOUS
10
7.824000
20
-51.990300
30
0.0
11
9.254000
21
-51.990300
31
0.0
0
LINE
8
0
6
CONTINUOUS
10
9.603000
20
-23.534200
30
0.0
11
9.603000
21
-22.023500
31
0.0
0
LINE
8
0
6
CONTINUOUS
10
8.852000
20
-10.500000
30
0.0
11
7.451000
21
-10.500000
31
0.0
0
LINE
8
0
6
CONTINUOUS
10
15.789000
20
-31.601900
30
0.0
11
15.855000
21
-31.601900
31
0.0
0
LINE
8
0
6
CONTINUOUS
10
15.557000
20
-31.601900
30
0.0
11
15.789000
21
-31.601900
31
0.0
0
LINE
8
0
6
CONTINUOUS
10
15.164000
20
-31.601900
30
0.0
11
15.557000
21
-31.601900
31
0.0
0
LINE
8
0
6
CONTINUOUS
10
14.616000
20
-31.601900
30
0.0
11
15.164000
21
-31.601900
31
0.0
0
LINE
8
0
6
CONTINUOUS
10
9.792000
20
-31.601900
30
0.0
11
11.004000
21
-31.601900
31
0.0
0
LINE
8
0
6
CONTINUOUS
10
8.480000
20
-31.601900
30
0.0
11
9.792000
21
-31.601900
31
0.0
0
LINE
8
0
6
CONTINUOUS
10
11.004000
20
-31.601900
30
0.0
11
12.103000
21
-31.601900
31
0.0
0
LINE
8
0
6
CONTINUOUS
10
12.103000
20
-31.601900
30
0.0
11
13.078000
21
-31.601900
31
0.0
0
LINE
8
0
6
CONTINUOUS
10
13.078000
20
-31.601900
30
0.0
11
13.918000
21
-31.601900
31
0.0
0
LINE
8
0
6
CONTINUOUS
10
13.918000
20
-31.601900
30
0.0
11
14.616000
21
-31.601900
31
0.0
0
LINE
8
0
6
CONTINUOUS
10
-16.425000
20
-32.892600
30
0.0
11
-16.667000
21
-32.949400
31
0.0
0
LINE
8
0
6
CONTINUOUS
10
-16.356000
20
-32.892600
30
0.0
11
-16.425000
21
-32.892600
31
0.0
0
LINE
8
0
6
CONTINUOUS
10
-16.667000
20
-32.949400
30
0.0
11
-16.356000
21
-32.892600
31
0.0
0
LINE
8
0
6
CONTINUOUS
10
-16.425000
20
-32.892600
30
0.0
11
-16.667000
21
-32.949400
31
0.0
0
LINE
8
0
6
CONTINUOUS
10
-16.356000
20
-32.892600
30
0.0
11
-16.425000
21
-32.892600
31
0.0
0
LINE
8
0
6
CONTINUOUS
10
-17.000000
20
-33.029100
30
0.0
11
-16.903000
21
-33.029100
31
0.0
0
LINE
8
0
6
CONTINUOUS
10
-16.667000
20
-32.949400
30
0.0
11
-17.000000
21
-33.029100
31
0.0
0
LINE
8
0
6
CONTINUOUS
10
-16.116000
20
-32.892600
30
0.0
11
-16.356000
21
-32.892600
31
0.0
0
LINE
8
0
6
CONTINUOUS
10
-16.903000
20
-33.029100
30
0.0
11
-16.643000
21
-33.029100
31
0.0
0
LINE
8
0
6
CONTINUOUS
10
-15.710000
20
-32.892600
30
0.0
11
-16.116000
21
-32.892600
31
0.0
0
LINE
8
0
6
CONTINUOUS
10
-16.643000
20
-33.029100
30
0.0
11
-16.223000
21
-33.029100
31
0.0
0
LINE
8
0
6
CONTINUOUS
10
-15.142000
20
-32.892600
30
0.0
11
-15.710000
21
-32.892600
31
0.0
0
LINE
8
0
6
CONTINUOUS
10
-16.223000
20
-33.029100
30
0.0
11
-15.647000
21
-33.029100
31
0.0
0
LINE
8
0
6
CONTINUOUS
10
-14.049000
20
-33.029100
30
0.0
11
-13.043000
21
-33.029100
31
0.0
0
LINE
8
0
6
CONTINUOUS
10
-12.539000
20
-32.892600
30
0.0
11
-13.548000
21
-32.892600
31
0.0
0
LINE
8
0
6
CONTINUOUS
10
-13.043000
20
-33.029100
30
0.0
11
-11.911000
21
-33.029100
31
0.0
0
LINE
8
0
6
CONTINUOUS
10
-11.400000
20
-32.892600
30
0.0
11
-12.539000
21
-32.892600
31
0.0
0
LINE
8
0
6
CONTINUOUS
10
-11.911000
20
-33.029100
30
0.0
11
-10.665000
21
-33.029100
31
0.0
0
LINE
8
0
6
CONTINUOUS
10
-10.144000
20
-32.892600
30
0.0
11
-11.400000
21
-32.892600
31
0.0
0
LINE
8
0
6
CONTINUOUS
10
-10.665000
20
-33.029100
30
0.0
11
-9.316000
21
-33.029100
31
0.0
0
LINE
8
0
6
CONTINUOUS
10
-8.785000
20
-32.892600
30
0.0
11
-10.144000
21
-32.892600
31
0.0
0
LINE
8
0
6
CONTINUOUS
10
-9.316000
20
-33.029100
30
0.0
11
-7.878000
21
-33.029100
31
0.0
0
LINE
8
0
6
CONTINUOUS
10
-7.334000
20
-32.892600
30
0.0
11
-8.785000
21
-32.892600
31
0.0
0
LINE
8
0
6
CONTINUOUS
10
-7.878000
20
-33.029100
30
0.0
11
-6.362000
21
-33.029100
31
0.0
0
LINE
8
0
6
CONTINUOUS
10
-5.810000
20
-32.892600
30
0.0
11
-7.334000
21
-32.892600
31
0.0
0
LINE
8
0
6
CONTINUOUS
10
-6.362000
20
-33.029100
30
0.0
11
-4.786000
21
-33.029100
31
0.0
0
LINE
8
0
6
CONTINUOUS
10
-4.225000
20
-32.892600
30
0.0
11
-5.810000
21
-32.892600
31
0.0
0
LINE
8
0
6
CONTINUOUS
10
-4.786000
20
-33.029100
30
0.0
11
-3.164000
21
-33.029100
31
0.0
0
LINE
8
0
6
CONTINUOUS
10
-2.597000
20
-32.892600
30
0.0
11
-4.225000
21
-32.892600
31
0.0
0
LINE
8
0
6
CONTINUOUS
10
-3.164000
20
-33.029100
30
0.0
11
-1.512000
21
-33.029100
31
0.0
0
LINE
8
0
6
CONTINUOUS
10
-0.943000
20
-32.892600
30
0.0
11
-2.597000
21
-32.892600
31
0.0
0
LINE
8
0
6
CONTINUOUS
10
-1.512000
20
-33.029100
30
0.0
11
-0.943000
21
-32.892600
31
0.0
0
LINE
8
0
6
CONTINUOUS
10
-0.943000
20
-32.892600
30
0.0
11
-2.597000
21
-32.892600
31
0.0
0
LINE
8
0
6
CONTINUOUS
10
-1.512000
20
-33.029100
30
0.0
11
0.000000
21
-33.029100
31
0.0
0
LINE
8
0
6
CONTINUOUS
10
0.000000
20
-32.892600
30
0.0
11
-0.943000
21
-32.892600
31
0.0
0
LINE
8
0
6
CONTINUOUS
10
-16.426000
20
-41.694200
30
0.0
11
-16.621000
21
-41.989600
31
0.0
0
LINE
8
0
6
CONTINUOUS
10
-16.358000
20
-41.694200
30
0.0
11
-16.426000
21
-41.694200
31
0.0
0
LINE
8
0
6
CONTINUOUS
10
-16.621000
20
-41.989600
30
0.0
11
-16.358000
21
-41.694200
31
0.0
0
LINE
8
0
6
CONTINUOUS
10
-16.426000
20
-41.694200
30
0.0
11
-16.621000
21
-41.989600
31
0.0
0
LINE
8
0
6
CONTINUOUS
10
-16.621000
20
-41.989600
30
0.0
11
-16.886000
21
-42.400600
31
0.0
0
LINE
8
0
6
CONTINUOUS
10
-6.362000
20
-40.980600
30
0.0
11
-7.878000
21
-40.980600
31
0.0
0
LINE
8
0
6
CONTINUOUS
10
-4.786000
20
-40.980600
30
0.0
11
-6.362000
21
-40.980600
31
0.0
0
LINE
8
0
6
CONTINUOUS
10
0.000000
20
-40.980600
30
0.0
11
-1.512000
21
-40.980600
31
0.0
0
LINE
8
0
6
CONTINUOUS
10
-7.878000
20
-40.980600
30
0.0
11
-9.316000
21
-40.980600
31
0.0
0
LINE
8
0
6
CONTINUOUS
10
-9.316000
20
-40.980600
30
0.0
11
-10.665000
21
-40.980600
31
0.0
0
LINE
8
0
6
CONTINUOUS
10
-10.665000
20
-40.980600
30
0.0
11
-11.911000
21
-40.980600
31
0.0
0
LINE
8
0
6
CONTINUOUS
10
-11.911000
20
-40.980600
30
0.0
11
-13.043000
21
-40.980600
31
0.0
0
LINE
8
0
6
CONTINUOUS
10
-13.043000
20
-40.980600
30
0.0
11
-14.049000
21
-40.980600
31
0.0
0
LINE
8
0
6
CONTINUOUS
10
-15.647000
20
-40.980600
30
0.0
11
-16.223000
21
-40.980600
31
0.0
0
LINE
8
0
6
CONTINUOUS
10
-16.223000
20
-40.980600
30
0.0
11
-16.644000
21
-40.980600
31
0.0
0
LINE
8
0
6
CONTINUOUS
10
-16.644000
20
-40.980600
30
0.0
11
-16.903000
21
-40.980600
31
0.0
0
LINE
8
0
6
CONTINUOUS
10
-16.903000
20
-40.980600
30
0.0
11
-17.000000
21
-40.980600
31
0.0
0
LINE
8
0
6
CONTINUOUS
10
-0.909000
20
-31.601900
30
0.0
11
0.000000
21
-31.601900
31
0.0
0
LINE
8
0
6
CONTINUOUS
10
-2.507000
20
-31.601900
30
0.0
11
-0.909000
21
-31.601900
31
0.0
0
LINE
8
0
6
CONTINUOUS
10
-8.480000
20
-31.601900
30
0.0
11
-7.080000
21
-31.601900
31
0.0
0
LINE
8
0
6
CONTINUOUS
10
-9.792000
20
-31.601900
30
0.0
11
-8.480000
21
-31.601900
31
0.0
0
LINE
8
0
6
CONTINUOUS
10
-11.004000
20
-31.601900
30
0.0
11
-9.792000
21
-31.601900
31
0.0
0
LINE
8
0
6
CONTINUOUS
10
-15.164000
20
-31.601900
30
0.0
11
-14.616000
21
-31.601900
31
0.0
0
LINE
8
0
6
CONTINUOUS
10
-14.616000
20
-31.601900
30
0.0
11
-13.918000
21
-31.601900
31
0.0
0
LINE
8
0
6
CONTINUOUS
10
-13.918000
20
-31.601900
30
0.0
11
-13.078000
21
-31.601900
31
0.0
0
LINE
8
0
6
CONTINUOUS
10
-13.078000
20
-31.601900
30
0.0
11
-12.103000
21
-31.601900
31
0.0
0
LINE
8
0
6
CONTINUOUS
10
-12.103000
20
-31.601900
30
0.0
11
-11.004000
21
-31.601900
31
0.0
0
LINE
8
0
6
CONTINUOUS
10
-15.855000
20
-31.601900
30
0.0
11
-15.789000
21
-31.601900
31
0.0
0
LINE
8
0
6
CONTINUOUS
10
-15.789000
20
-31.601900
30
0.0
11
-15.557000
21
-31.601900
31
0.0
0
LINE
8
0
6
CONTINUOUS
10
-15.557000
20
-31.601900
30
0.0
11
-15.164000
21
-31.601900
31
0.0
0
LINE
8
0
6
CONTINUOUS
10
-15.542000
20
-51.990300
30
0.0
11
-16.115000
21
-51.990300
31
0.0
0
LINE
8
0
6
CONTINUOUS
10
-16.115000
20
-51.990300
30
0.0
11
-16.532000
21
-51.990300
31
0.0
0
LINE
8
0
6
CONTINUOUS
10
-16.532000
20
-51.990300
30
0.0
11
-16.790000
21
-51.990300
31
0.0
0
LINE
8
0
6
CONTINUOUS
10
-16.790000
20
-51.990300
30
0.0
11
-16.886000
21
-51.990300
31
0.0
0
LINE
8
0
6
CONTINUOUS
10
-16.886000
20
-51.990300
30
0.0
11
-16.243000
21
-52.500000
31
0.0
0
LINE
8
0
6
CONTINUOUS
10
-16.790000
20
-51.990300
30
0.0
11
-16.886000
21
-51.990300
31
0.0
0
LINE
8
0
6
CONTINUOUS
10
-16.553000
20
-52.288200
30
0.0
11
-16.312000
21
-52.500000
31
0.0
0
LINE
8
0
6
CONTINUOUS
10
-16.553000
20
-52.288200
30
0.0
11
-16.886000
21
-51.990300
31
0.0
0
LINE
8
0
6
CONTINUOUS
10
0.000000
20
-51.990300
30
0.0
11
-1.502000
21
-51.990300
31
0.0
0
LINE
8
0
6
CONTINUOUS
10
-1.502000
20
-51.990300
30
0.0
11
-3.143000
21
-51.990300
31
0.0
0
LINE
8
0
6
CONTINUOUS
10
-3.143000
20
-51.990300
30
0.0
11
-4.755000
21
-51.990300
31
0.0
0
LINE
8
0
6
CONTINUOUS
10
-4.755000
20
-51.990300
30
0.0
11
-6.320000
21
-51.990300
31
0.0
0
LINE
8
0
6
CONTINUOUS
10
-6.320000
20
-51.990300
30
0.0
11
-7.824000
21
-51.990300
31
0.0
0
LINE
8
0
6
CONTINUOUS
10
-7.824000
20
-51.990300
30
0.0
11
-9.254000
21
-51.990300
31
0.0
0
LINE
8
0
6
CONTINUOUS
10
-9.254000
20
-51.990300
30
0.0
11
-10.593000
21
-51.990300
31
0.0
0
LINE
8
0
6
CONTINUOUS
10
-10.593000
20
-51.990300
30
0.0
11
-11.831000
21
-51.990300
31
0.0
0
LINE
8
0
6
CONTINUOUS
10
-11.831000
20
-51.990300
30
0.0
11
-12.956000
21
-51.990300
31
0.0
0
LINE
8
0
6
CONTINUOUS
10
-12.956000
20
-51.990300
30
0.0
11
-13.955000
21
-51.990300
31
0.0
0
LINE
8
0
6
CONTINUOUS
10
-9.597000
20
-28.605900
30
0.0
11
-10.086000
21
-29.021500
31
0.0
0
LINE
8
0
6
CONTINUOUS
10
-1.756000
20
-28.883200
30
0.0
11
-0.298000
21
-28.605900
31
0.0
0
LINE
8
0
6
CONTINUOUS
10
-9.314000
20
-28.274600
30
0.0
11
-9.597000
21
-28.605900
31
0.0
0
LINE
8
0
6
CONTINUOUS
10
-9.455000
20
-27.268700
30
0.0
11
-9.293000
21
-27.473300
31
0.0
0
LINE
8
0
6
CONTINUOUS
10
-9.561000
20
-27.130800
30
0.0
11
-9.455000
21
-27.268700
31
0.0
0
LINE
8
0
6
CONTINUOUS
10
-9.622000
20
-24.990000
30
0.0
11
-9.635000
21
-25.571000
31
0.0
0
LINE
8
0
6
CONTINUOUS
10
-9.609000
20
-24.255000
30
0.0
11
-9.622000
21
-24.990000
31
0.0
0
LINE
8
0
6
CONTINUOUS
10
-9.699000
20
-27.003700
30
0.0
11
-9.652000
21
-27.052000
31
0.0
0
LINE
8
0
6
CONTINUOUS
10
-9.652000
20
-27.052000
30
0.0
11
-9.561000
21
-27.130800
31
0.0
0
LINE
8
0
6
CONTINUOUS
10
-9.672000
20
-26.752600
30
0.0
11
-9.687000
21
-26.965600
31
0.0
0
LINE
8
0
6
CONTINUOUS
10
-9.654000
20
-26.303000
30
0.0
11
-9.672000
21
-26.752600
31
0.0
0
LINE
8
0
6
CONTINUOUS
10
-9.635000
20
-25.571000
30
0.0
11
-9.654000
21
-26.303000
31
0.0
0
LINE
8
0
6
CONTINUOUS
10
-0.429000
20
-24.255000
30
0.0
11
-2.159000
21
-24.255000
31
0.0
0
LINE
8
0
6
CONTINUOUS
10
-1.122000
20
-27.130800
30
0.0
11
-0.429000
21
-24.255000
31
0.0
0
LINE
8
0
6
CONTINUOUS
10
-9.603000
20
-23.534200
30
0.0
11
-9.604000
21
-23.848200
31
0.0
0
LINE
8
0
6
CONTINUOUS
10
-9.604000
20
-23.848200
30
0.0
11
-9.606000
21
-24.129600
31
0.0
0
LINE
8
0
6
CONTINUOUS
10
-9.606000
20
-24.129600
30
0.0
11
-9.609000
21
-24.255000
31
0.0
0
LINE
8
0
6
CONTINUOUS
10
-9.622000
20
-24.990000
30
0.0
11
-9.609000
21
-24.255000
31
0.0
0
LINE
8
0
6
CONTINUOUS
10
-9.635000
20
-25.571000
30
0.0
11
-9.622000
21
-24.990000
31
0.0
0
LINE
8
0
6
CONTINUOUS
10
-9.604000
20
-23.848200
30
0.0
11
-9.603000
21
-23.534200
31
0.0
0
LINE
8
0
6
CONTINUOUS
10
-9.603000
20
-23.534200
30
0.0
11
-9.603000
21
-22.023500
31
0.0
0
LINE
8
0
6
CONTINUOUS
10
-9.699000
20
-22.951100
30
0.0
11
-9.699000
21
-23.108800
31
0.0
0
LINE
8
0
6
CONTINUOUS
10
-9.699000
20
-26.901500
30
0.0
11
-9.699000
21
-27.003700
31
0.0
0
LINE
8
0
6
CONTINUOUS
10
-9.699000
20
-23.108800
30
0.0
11
-9.699000
21
-24.026400
31
0.0
0
LINE
8
0
6
CONTINUOUS
10
-9.606000
20
-24.129600
30
0.0
11
-9.604000
21
-23.848200
31
0.0
0
LINE
8
0
6
CONTINUOUS
10
-9.609000
20
-24.255000
30
0.0
11
-9.606000
21
-24.129600
31
0.0
0
LINE
8
0
6
CONTINUOUS
10
-9.699000
20
-22.023500
30
0.0
11
-9.699000
21
-22.951100
31
0.0
0
LINE
8
0
6
CONTINUOUS
10
-9.603000
20
-22.023500
30
0.0
11
-9.699000
21
-22.023500
31
0.0
0
LINE
8
0
6
CONTINUOUS
10
-9.687000
20
-26.965600
30
0.0
11
-9.672000
21
-26.752600
31
0.0
0
LINE
8
0
6
CONTINUOUS
10
-9.699000
20
-25.497800
30
0.0
11
-9.699000
21
-26.901500
31
0.0
0
LINE
8
0
6
CONTINUOUS
10
-9.699000
20
-24.026400
30
0.0
11
-9.699000
21
-25.497800
31
0.0
0
LINE
8
0
6
CONTINUOUS
10
-9.603000
20
-22.023500
30
0.0
11
-9.603000
21
-23.534200
31
0.0
0
LINE
8
0
6
CONTINUOUS
10
-12.290000
20
-21.391400
30
0.0
11
-11.679000
21
-21.534200
31
0.0
0
LINE
8
0
6
CONTINUOUS
10
-10.111000
20
-21.924900
30
0.0
11
-9.699000
21
-22.023500
31
0.0
0
LINE
8
0
6
CONTINUOUS
10
-9.699000
20
-22.023500
30
0.0
11
-9.603000
21
-22.023500
31
0.0
0
LINE
8
0
6
CONTINUOUS
10
-10.945000
20
-21.725300
30
0.0
11
-10.111000
21
-21.924900
31
0.0
0
LINE
8
0
6
CONTINUOUS
10
-12.025000
20
-21.466500
30
0.0
11
-10.945000
21
-21.725300
31
0.0
0
LINE
8
0
6
CONTINUOUS
10
-11.679000
20
-21.534200
30
0.0
11
-12.290000
21
-21.391400
31
0.0
0
LINE
8
0
6
CONTINUOUS
10
-13.114000
20
-21.205900
30
0.0
11
-12.025000
21
-21.466500
31
0.0
0
LINE
8
0
6
CONTINUOUS
10
-13.017000
20
-21.225300
30
0.0
11
-13.121000
21
-21.203900
31
0.0
0
LINE
8
0
6
CONTINUOUS
10
-0.754000
20
-10.500000
30
0.0
11
0.000000
21
-10.500000
31
0.0
0
LINE
8
0
6
CONTINUOUS
10
-13.121000
20
-10.500000
30
0.0
11
-12.979000
21
-10.500000
31
0.0
0
LINE
8
0
6
CONTINUOUS
10
-11.137000
20
-10.500000
30
0.0
11
-10.089000
21
-10.500000
31
0.0
0
LINE
8
0
6
CONTINUOUS
10
-8.262000
20
-10.500000
30
0.0
11
-9.472000
21
-10.500000
31
0.0
0
LINE
8
0
6
CONTINUOUS
10
-9.472000
20
-10.500000
30
0.0
11
-8.262000
21
-10.500000
31
0.0
0
LINE
8
0
6
CONTINUOUS
10
-3.164000
20
-40.980600
30
0.0
11
-4.786000
21
-40.980600
31
0.0
0
LINE
8
0
6
CONTINUOUS
10
-1.512000
20
-40.980600
30
0.0
11
-3.164000
21
-40.980600
31
0.0
0
LINE
8
0
6
CONTINUOUS
10
-14.419000
20
-32.892600
30
0.0
11
-15.142000
21
-32.892600
31
0.0
0
LINE
8
0
6
CONTINUOUS
10
-15.647000
20
-33.029100
30
0.0
11
-14.920000
21
-33.029100
31
0.0
0
LINE
8
0
6
CONTINUOUS
10
-13.548000
20
-32.892600
30
0.0
11
-14.419000
21
-32.892600
31
0.0
0
LINE
8
0
6
CONTINUOUS
10
-14.920000
20
-33.029100
30
0.0
11
-14.049000
21
-33.029100
31
0.0
0
LINE
8
0
6
CONTINUOUS
10
-15.647000
20
-40.980600
30
0.0
11
-14.920000
21
-40.980600
31
0.0
0
LINE
8
0
6
CONTINUOUS
10
-14.920000
20
-33.029100
30
0.0
11
-15.647000
21
-33.029100
31
0.0
0
LINE
8
0
6
CONTINUOUS
10
-16.223000
20
-40.980600
30
0.0
11
-15.647000
21
-40.980600
31
0.0
0
LINE
8
0
6
CONTINUOUS
10
-15.647000
20
-33.029100
30
0.0
11
-16.223000
21
-33.029100
31
0.0
0
LINE
8
0
6
CONTINUOUS
10
-16.644000
20
-40.980600
30
0.0
11
-16.223000
21
-40.980600
31
0.0
0
LINE
8
0
6
CONTINUOUS
10
-16.903000
20
-40.980600
30
0.0
11
-16.644000
21
-40.980600
31
0.0
0
LINE
8
0
6
CONTINUOUS
10
-17.000000
20
-40.980600
30
0.0
11
-16.903000
21
-40.980600
31
0.0
0
LINE
8
0
6
CONTINUOUS
10
-16.903000
20
-33.029100
30
0.0
11
-17.000000
21
-33.029100
31
0.0
0
LINE
8
0
6
CONTINUOUS
10
-17.000000
20
-40.980600
30
0.0
11
-17.000000
21
-33.029100
31
0.0
0
LINE
8
0
6
CONTINUOUS
10
-1.512000
20
-40.980600
30
0.0
11
0.000000
21
-40.980600
31
0.0
0
LINE
8
0
6
CONTINUOUS
10
0.000000
20
-33.029100
30
0.0
11
-1.512000
21
-33.029100
31
0.0
0
LINE
8
0
6
CONTINUOUS
10
-6.362000
20
-40.980600
30
0.0
11
-4.786000
21
-40.980600
31
0.0
0
LINE
8
0
6
CONTINUOUS
10
-4.786000
20
-33.029100
30
0.0
11
-6.362000
21
-33.029100
31
0.0
0
LINE
8
0
6
CONTINUOUS
10
-7.878000
20
-40.980600
30
0.0
11
-6.362000
21
-40.980600
31
0.0
0
LINE
8
0
6
CONTINUOUS
10
-6.362000
20
-33.029100
30
0.0
11
-7.878000
21
-33.029100
31
0.0
0
LINE
8
0
6
CONTINUOUS
10
-9.316000
20
-40.980600
30
0.0
11
-7.878000
21
-40.980600
31
0.0
0
LINE
8
0
6
CONTINUOUS
10
-7.878000
20
-33.029100
30
0.0
11
-9.316000
21
-33.029100
31
0.0
0
LINE
8
0
6
CONTINUOUS
10
-10.665000
20
-40.980600
30
0.0
11
-9.316000
21
-40.980600
31
0.0
0
LINE
8
0
6
CONTINUOUS
10
-9.316000
20
-33.029100
30
0.0
11
-10.665000
21
-33.029100
31
0.0
0
LINE
8
0
6
CONTINUOUS
10
-11.911000
20
-40.980600
30
0.0
11
-10.665000
21
-40.980600
31
0.0
0
LINE
8
0
6
CONTINUOUS
10
-10.665000
20
-33.029100
30
0.0
11
-11.911000
21
-33.029100
31
0.0
0
LINE
8
0
6
CONTINUOUS
10
-13.043000
20
-40.980600
30
0.0
11
-11.911000
21
-40.980600
31
0.0
0
LINE
8
0
6
CONTINUOUS
10
-11.911000
20
-33.029100
30
0.0
11
-13.043000
21
-33.029100
31
0.0
0
LINE
8
0
6
CONTINUOUS
10
-14.049000
20
-40.980600
30
0.0
11
-13.043000
21
-40.980600
31
0.0
0
LINE
8
0
6
CONTINUOUS
10
-13.043000
20
-33.029100
30
0.0
11
-14.049000
21
-33.029100
31
0.0
0
LINE
8
0
6
CONTINUOUS
10
-14.920000
20
-40.980600
30
0.0
11
-14.049000
21
-40.980600
31
0.0
0
LINE
8
0
6
CONTINUOUS
10
-14.049000
20
-33.029100
30
0.0
11
-14.920000
21
-33.029100
31
0.0
0
LINE
8
0
6
CONTINUOUS
10
-16.426000
20
-40.980600
30
0.0
11
-16.426000
21
-41.694200
31
0.0
0
LINE
8
0
6
CONTINUOUS
10
-14.049000
20
-40.980600
30
0.0
11
-14.920000
21
-40.980600
31
0.0
0
LINE
8
0
6
CONTINUOUS
10
-14.920000
20
-40.980600
30
0.0
11
-15.647000
21
-40.980600
31
0.0
0
LINE
8
0
6
CONTINUOUS
10
-15.142000
20
-32.892600
30
0.0
11
-14.419000
21
-32.892600
31
0.0
0
LINE
8
0
6
CONTINUOUS
10
-14.419000
20
-32.111700
30
0.0
11
-15.142000
21
-32.111700
31
0.0
0
LINE
8
0
6
CONTINUOUS
10
-15.710000
20
-32.892600
30
0.0
11
-15.142000
21
-32.892600
31
0.0
0
LINE
8
0
6
CONTINUOUS
10
-15.142000
20
-32.111700
30
0.0
11
-15.710000
21
-32.111700
31
0.0
0
LINE
8
0
6
CONTINUOUS
10
-15.710000
20
-32.111700
30
0.0
11
-16.117000
21
-32.111700
31
0.0
0
LINE
8
0
6
CONTINUOUS
10
-16.117000
20
-32.111700
30
0.0
11
-16.358000
21
-32.111700
31
0.0
0
LINE
8
0
6
CONTINUOUS
10
-16.425000
20
-32.892600
30
0.0
11
-16.356000
21
-32.892600
31
0.0
0
LINE
8
0
6
CONTINUOUS
10
-16.426000
20
-32.111700
30
0.0
11
-16.425000
21
-32.892600
31
0.0
0
LINE
8
0
6
CONTINUOUS
10
-16.358000
20
-32.111700
30
0.0
11
-16.426000
21
-32.111700
31
0.0
0
LINE
8
0
6
CONTINUOUS
10
-0.943000
20
-32.892600
30
0.0
11
0.000000
21
-32.892600
31
0.0
0
LINE
8
0
6
CONTINUOUS
10
0.000000
20
-32.111700
30
0.0
11
-0.943000
21
-32.111700
31
0.0
0
LINE
8
0
6
CONTINUOUS
10
-2.597000
20
-32.892600
30
0.0
11
-0.943000
21
-32.892600
31
0.0
0
LINE
8
0
6
CONTINUOUS
10
-0.943000
20
-32.111700
30
0.0
11
-2.597000
21
-32.111700
31
0.0
0
LINE
8
0
6
CONTINUOUS
10
-2.597000
20
-32.111700
30
0.0
11
-4.225000
21
-32.111700
31
0.0
0
LINE
8
0
6
CONTINUOUS
10
-4.225000
20
-32.111700
30
0.0
11
-5.810000
21
-32.111700
31
0.0
0
LINE
8
0
6
CONTINUOUS
10
-5.810000
20
-32.111700
30
0.0
11
-7.334000
21
-32.111700
31
0.0
0
LINE
8
0
6
CONTINUOUS
10
-7.334000
20
-32.111700
30
0.0
11
-8.785000
21
-32.111700
31
0.0
0
LINE
8
0
6
CONTINUOUS
10
-8.785000
20
-32.111700
30
0.0
11
-10.144000
21
-32.111700
31
0.0
0
LINE
8
0
6
CONTINUOUS
10
-10.144000
20
-32.111700
30
0.0
11
-11.400000
21
-32.111700
31
0.0
0
LINE
8
0
6
CONTINUOUS
10
-11.400000
20
-32.111700
30
0.0
11
-12.539000
21
-32.111700
31
0.0
0
LINE
8
0
6
CONTINUOUS
10
-12.539000
20
-32.111700
30
0.0
11
-13.548000
21
-32.111700
31
0.0
0
LINE
8
0
6
CONTINUOUS
10
-14.419000
20
-32.892600
30
0.0
11
-13.548000
21
-32.892600
31
0.0
0
LINE
8
0
6
CONTINUOUS
10
-13.548000
20
-32.111700
30
0.0
11
-14.419000
21
-32.111700
31
0.0
0
LINE
8
0
6
CONTINUOUS
10
-4.078000
20
-31.601900
30
0.0
11
-2.507000
21
-31.601900
31
0.0
0
LINE
8
0
6
CONTINUOUS
10
-5.608000
20
-31.601900
30
0.0
11
-4.078000
21
-31.601900
31
0.0
0
LINE
8
0
6
CONTINUOUS
10
-7.080000
20
-31.601900
30
0.0
11
-5.608000
21
-31.601900
31
0.0
0
LINE
8
0
6
CONTINUOUS
10
-15.855000
20
-31.601900
30
0.0
11
-16.426000
21
-32.111700
31
0.0
0
LINE
8
0
6
CONTINUOUS
10
-15.789000
20
-31.601900
30
0.0
11
-15.855000
21
-31.601900
31
0.0
0
LINE
8
0
6
CONTINUOUS
10
-16.426000
20
-32.111700
30
0.0
11
-16.358000
21
-32.111700
31
0.0
0
LINE
8
0
6
CONTINUOUS
10
-16.358000
20
-32.111700
30
0.0
11
-16.117000
21
-32.111700
31
0.0
0
LINE
8
0
6
CONTINUOUS
10
-15.557000
20
-31.601900
30
0.0
11
-15.789000
21
-31.601900
31
0.0
0
LINE
8
0
6
CONTINUOUS
10
-16.117000
20
-32.111700
30
0.0
11
-15.710000
21
-32.111700
31
0.0
0
LINE
8
0
6
CONTINUOUS
10
-15.164000
20
-31.601900
30
0.0
11
-15.557000
21
-31.601900
31
0.0
0
LINE
8
0
6
CONTINUOUS
10
-15.710000
20
-32.111700
30
0.0
11
-15.142000
21
-32.111700
31
0.0
0
LINE
8
0
6
CONTINUOUS
10
-14.616000
20
-31.601900
30
0.0
11
-15.164000
21
-31.601900
31
0.0
0
LINE
8
0
6
CONTINUOUS
10
-13.918000
20
-31.601900
30
0.0
11
-14.616000
21
-31.601900
31
0.0
0
LINE
8
0
6
CONTINUOUS
10
-15.142000
20
-32.111700
30
0.0
11
-14.419000
21
-32.111700
31
0.0
0
LINE
8
0
6
CONTINUOUS
10
-14.419000
20
-32.111700
30
0.0
11
-13.548000
21
-32.111700
31
0.0
0
LINE
8
0
6
CONTINUOUS
10
-13.078000
20
-31.601900
30
0.0
11
-13.918000
21
-31.601900
31
0.0
0
LINE
8
0
6
CONTINUOUS
10
-13.548000
20
-32.111700
30
0.0
11
-12.539000
21
-32.111700
31
0.0
0
LINE
8
0
6
CONTINUOUS
10
-12.103000
20
-31.601900
30
0.0
11
-13.078000
21
-31.601900
31
0.0
0
LINE
8
0
6
CONTINUOUS
10
-12.539000
20
-32.111700
30
0.0
11
-11.400000
21
-32.111700
31
0.0
0
LINE
8
0
6
CONTINUOUS
10
-11.004000
20
-31.601900
30
0.0
11
-12.103000
21
-31.601900
31
0.0
0
LINE
8
0
6
CONTINUOUS
10
-11.400000
20
-32.111700
30
0.0
11
-10.144000
21
-32.111700
31
0.0
0
LINE
8
0
6
CONTINUOUS
10
-9.792000
20
-31.601900
30
0.0
11
-11.004000
21
-31.601900
31
0.0
0
LINE
8
0
6
CONTINUOUS
10
-10.144000
20
-32.111700
30
0.0
11
-8.785000
21
-32.111700
31
0.0
0
LINE
8
0
6
CONTINUOUS
10
-8.480000
20
-31.601900
30
0.0
11
-9.792000
21
-31.601900
31
0.0
0
LINE
8
0
6
CONTINUOUS
10
-8.785000
20
-32.111700
30
0.0
11
-7.334000
21
-32.111700
31
0.0
0
LINE
8
0
6
CONTINUOUS
10
-7.080000
20
-31.601900
30
0.0
11
-8.480000
21
-31.601900
31
0.0
0
LINE
8
0
6
CONTINUOUS
10
-7.334000
20
-32.111700
30
0.0
11
-5.810000
21
-32.111700
31
0.0
0
LINE
8
0
6
CONTINUOUS
10
-5.608000
20
-31.601900
30
0.0
11
-7.080000
21
-31.601900
31
0.0
0
LINE
8
0
6
CONTINUOUS
10
-5.810000
20
-32.111700
30
0.0
11
-4.225000
21
-32.111700
31
0.0
0
LINE
8
0
6
CONTINUOUS
10
-4.078000
20
-31.601900
30
0.0
11
-5.608000
21
-31.601900
31
0.0
0
LINE
8
0
6
CONTINUOUS
10
-4.225000
20
-32.111700
30
0.0
11
-2.597000
21
-32.111700
31
0.0
0
LINE
8
0
6
CONTINUOUS
10
-2.507000
20
-31.601900
30
0.0
11
-4.078000
21
-31.601900
31
0.0
0
LINE
8
0
6
CONTINUOUS
10
-2.597000
20
-32.111700
30
0.0
11
-0.943000
21
-32.111700
31
0.0
0
LINE
8
0
6
CONTINUOUS
10
-0.909000
20
-31.601900
30
0.0
11
-2.507000
21
-31.601900
31
0.0
0
LINE
8
0
6
CONTINUOUS
10
-0.943000
20
-32.111700
30
0.0
11
0.000000
21
-32.111700
31
0.0
0
LINE
8
0
6
CONTINUOUS
10
0.000000
20
-31.601900
30
0.0
11
-0.909000
21
-31.601900
31
0.0
0
LINE
8
0
6
CONTINUOUS
10
-15.542000
20
-51.990300
30
0.0
11
-14.820000
21
-51.990300
31
0.0
0
LINE
8
0
6
CONTINUOUS
10
-16.115000
20
-51.990300
30
0.0
11
-15.542000
21
-51.990300
31
0.0
0
LINE
8
0
6
CONTINUOUS
10
-16.532000
20
-51.990300
30
0.0
11
-16.115000
21
-51.990300
31
0.0
0
LINE
8
0
6
CONTINUOUS
10
-16.790000
20
-51.990300
30
0.0
11
-16.532000
21
-51.990300
31
0.0
0
LINE
8
0
6
CONTINUOUS
10
-16.886000
20
-51.990300
30
0.0
11
-16.790000
21
-51.990300
31
0.0
0
LINE
8
0
6
CONTINUOUS
10
-16.886000
20
-51.990300
30
0.0
11
-16.886000
21
-42.400600
31
0.0
0
LINE
8
0
6
CONTINUOUS
10
-1.502000
20
-51.990300
30
0.0
11
0.000000
21
-51.990300
31
0.0
0
LINE
8
0
6
CONTINUOUS
10
-3.143000
20
-51.990300
30
0.0
11
-1.502000
21
-51.990300
31
0.0
0
LINE
8
0
6
CONTINUOUS
10
-4.755000
20
-51.990300
30
0.0
11
-3.143000
21
-51.990300
31
0.0
0
LINE
8
0
6
CONTINUOUS
10
-6.320000
20
-51.990300
30
0.0
11
-4.755000
21
-51.990300
31
0.0
0
LINE
8
0
6
CONTINUOUS
10
-7.824000
20
-51.990300
30
0.0
11
-6.320000
21
-51.990300
31
0.0
0
LINE
8
0
6
CONTINUOUS
10
-9.254000
20
-51.990300
30
0.0
11
-7.824000
21
-51.990300
31
0.0
0
LINE
8
0
6
CONTINUOUS
10
-10.593000
20
-51.990300
30
0.0
11
-9.254000
21
-51.990300
31
0.0
0
LINE
8
0
6
CONTINUOUS
10
-11.831000
20
-51.990300
30
0.0
11
-10.593000
21
-51.990300
31
0.0
0
LINE
8
0
6
CONTINUOUS
10
-12.956000
20
-51.990300
30
0.0
11
-11.831000
21
-51.990300
31
0.0
0
LINE
8
0
6
CONTINUOUS
10
-13.955000
20
-51.990300
30
0.0
11
-12.956000
21
-51.990300
31
0.0
0
LINE
8
0
6
CONTINUOUS
10
-14.820000
20
-51.990300
30
0.0
11
-13.955000
21
-51.990300
31
0.0
0
LINE
8
0
6
CONTINUOUS
10
-14.820000
20
-51.990300
30
0.0
11
-15.542000
21
-51.990300
31
0.0
0
LINE
8
0
6
CONTINUOUS
10
-13.955000
20
-51.990300
30
0.0
11
-14.820000
21
-51.990300
31
0.0
0
LINE
8
0
6
CONTINUOUS
10
-11.316000
20
-30.272600
30
0.0
11
-12.352000
21
-31.656200
31
0.0
0
LINE
8
0
6
CONTINUOUS
10
-10.086000
20
-29.021500
30
0.0
11
-11.316000
21
-30.272600
31
0.0
0
LINE
8
0
6
CONTINUOUS
10
-9.293000
20
-27.473300
30
0.0
11
-9.211000
21
-27.876000
31
0.0
0
LINE
8
0
6
CONTINUOUS
10
-9.211000
20
-27.876000
30
0.0
11
-9.314000
21
-28.274600
31
0.0
0
LINE
8
0
6
CONTINUOUS
10
0.000000
20
-10.500000
30
0.0
11
-0.754000
21
-10.500000
31
0.0
0
LINE
8
0
6
CONTINUOUS
10
-0.754000
20
-10.500000
30
0.0
11
-2.531000
21
-10.500000
31
0.0
0
LINE
8
0
6
CONTINUOUS
10
-2.531000
20
-10.500000
30
0.0
11
-4.260000
21
-10.500000
31
0.0
0
LINE
8
0
6
CONTINUOUS
10
-4.260000
20
-10.500000
30
0.0
11
-5.911000
21
-10.500000
31
0.0
0
LINE
8
0
6
CONTINUOUS
10
-5.911000
20
-10.500000
30
0.0
11
-7.451000
21
-10.500000
31
0.0
0
LINE
8
0
6
CONTINUOUS
10
-7.451000
20
-10.500000
30
0.0
11
-8.852000
21
-10.500000
31
0.0
0
LINE
8
0
6
CONTINUOUS
10
-13.121000
20
-10.500000
30
0.0
11
-13.121000
21
-21.203900
31
0.0
0
LINE
8
0
6
CONTINUOUS
10
-12.979000
20
-10.500000
30
0.0
11
-13.121000
21
-10.500000
31
0.0
0
LINE
8
0
6
CONTINUOUS
10
-11.077000
20
-21.675900
30
0.0
11
-10.382000
21
-21.839000
31
0.0
0
LINE
8
0
6
CONTINUOUS
10
-10.089000
20
-10.500000
30
0.0
11
-11.137000
21
-10.500000
31
0.0
0
LINE
8
0
6
CONTINUOUS
10
-11.679000
20
-21.534200
30
0.0
11
-11.077000
21
-21.675900
31
0.0
0
LINE
8
0
6
CONTINUOUS
10
-11.137000
20
-10.500000
30
0.0
11
-11.978000
21
-10.500000
31
0.0
0
LINE
8
0
6
CONTINUOUS
10
-11.978000
20
-10.500000
30
0.0
11
-12.596000
21
-10.500000
31
0.0
0
LINE
8
0
6
CONTINUOUS
10
-12.737000
20
-21.287400
30
0.0
11
-12.290000
21
-21.391400
31
0.0
0
LINE
8
0
6
CONTINUOUS
10
-13.017000
20
-21.225300
30
0.0
11
-12.737000
21
-21.287400
31
0.0
0
LINE
8
0
6
CONTINUOUS
10
-12.596000
20
-10.500000
30
0.0
11
-12.979000
21
-10.500000
31
0.0
0
LINE
8
0
6
CONTINUOUS
10
-10.382000
20
-21.839000
30
0.0
11
-9.603000
21
-22.023500
31
0.0
0
LINE
8
0
6
CONTINUOUS
10
-8.852000
20
-10.500000
30
0.0
11
-10.089000
21
-10.500000
31
0.0
0
LINE
8
0
6
CONTINUOUS
10
-10.382000
20
-21.839000
30
0.0
11
-11.077000
21
-21.675900
31
0.0
0
LINE
8
0
6
CONTINUOUS
10
-1.512000
20
-33.029100
30
0.0
11
-3.164000
21
-33.029100
31
0.0
0
LINE
8
0
6
CONTINUOUS
10
-3.164000
20
-40.980600
30
0.0
11
-1.512000
21
-40.980600
31
0.0
0
LINE
8
0
6
CONTINUOUS
10
-3.164000
20
-33.029100
30
0.0
11
-4.786000
21
-33.029100
31
0.0
0
LINE
8
0
6
CONTINUOUS
10
-4.786000
20
-40.980600
30
0.0
11
-3.164000
21
-40.980600
31
0.0
0
LINE
8
0
6
CONTINUOUS
10
-137.125000
20
-56.500000
30
0.0
11
-143.375000
21
-56.500000
31
0.0
0
LINE
8
0
6
CONTINUOUS
10
-118.750000
20
-57.500000
30
0.0
11
-129.875000
21
-57.500000
31
0.0
0
LINE
8
0
6
CONTINUOUS
10
-143.375000
20
-56.500000
30
0.0
11
-137.125000
21
-56.500000
31
0.0
0
LINE
8
0
6
CONTINUOUS
10
-144.625000
20
-57.500000
30
0.0
11
-148.500000
21
-57.500000
31
0.0
0
LINE
8
0
6
CONTINUOUS
10
-119.703500
20
-71.500000
30
0.0
11
-128.875000
21
-71.500000
31
0.0
0
LINE
8
0
6
CONTINUOUS
10
-143.375000
20
-71.500000
30
0.0
11
-147.250000
21
-71.500000
31
0.0
0
LINE
8
0
6
CONTINUOUS
10
-128.875000
20
-71.500000
30
0.0
11
-119.703500
21
-71.500000
31
0.0
0
LINE
8
0
6
CONTINUOUS
10
-147.250000
20
-71.500000
30
0.0
11
-143.375000
21
-71.500000
31
0.0
0
LINE
8
0
6
CONTINUOUS
10
-74.000000
20
-56.500000
30
0.0
11
-90.375000
21
-56.500000
31
0.0
0
LINE
8
0
6
CONTINUOUS
10
-90.375000
20
-56.500000
30
0.0
11
-74.000000
21
-56.500000
31
0.0
0
LINE
8
0
6
CONTINUOUS
10
-38.750000
20
-57.500000
30
0.0
11
-57.250000
21
-57.500000
31
0.0
0
LINE
8
0
6
CONTINUOUS
10
-39.521000
20
-71.500000
30
0.0
11
-56.875000
21
-71.500000
31
0.0
0
LINE
8
0
6
CONTINUOUS
10
-56.875000
20
-71.500000
30
0.0
11
-39.543000
21
-71.500000
31
0.0
0
LINE
8
0
6
CONTINUOUS
10
56.875000
20
-56.500000
30
0.0
11
50.000000
21
-56.500000
31
0.0
0
LINE
8
0
6
CONTINUOUS
10
91.125000
20
-57.500000
30
0.0
11
74.625000
21
-57.500000
31
0.0
0
LINE
8
0
6
CONTINUOUS
10
50.000000
20
-56.500000
30
0.0
11
56.875000
21
-56.500000
31
0.0
0
LINE
8
0
6
CONTINUOUS
10
38.750000
20
-57.500000
30
0.0
11
19.500000
21
-57.500000
31
0.0
0
LINE
8
0
6
CONTINUOUS
10
87.227000
20
-71.500000
30
0.0
11
74.000000
21
-71.500000
31
0.0
0
LINE
8
0
6
CONTINUOUS
10
38.375000
20
-71.500000
30
0.0
11
38.292000
21
-71.500000
31
0.0
0
LINE
8
0
6
CONTINUOUS
10
37.264000
20
-71.500000
30
0.0
11
19.500000
21
-71.500000
31
0.0
0
LINE
8
0
6
CONTINUOUS
10
74.000000
20
-71.500000
30
0.0
11
87.227000
21
-71.500000
31
0.0
0
LINE
8
0
6
CONTINUOUS
10
19.500000
20
-71.500000
30
0.0
11
37.264000
21
-71.500000
31
0.0
0
LINE
8
0
6
CONTINUOUS
10
38.292000
20
-71.500000
30
0.0
11
38.375000
21
-71.500000
31
0.0
0
LINE
8
0
6
CONTINUOUS
10
128.875000
20
-56.500000
30
0.0
11
117.750000
21
-56.500000
31
0.0
0
LINE
8
0
6
CONTINUOUS
10
147.250000
20
-56.500000
30
0.0
11
143.375000
21
-56.500000
31
0.0
0
LINE
8
0
6
CONTINUOUS
10
117.750000
20
-56.500000
30
0.0
11
128.875000
21
-56.500000
31
0.0
0
LINE
8
0
6
CONTINUOUS
10
144.625000
20
-57.500000
30
0.0
11
138.250000
21
-57.500000
31
0.0
0
LINE
8
0
6
CONTINUOUS
10
143.375000
20
-56.500000
30
0.0
11
147.250000
21
-56.500000
31
0.0
0
LINE
8
0
6
CONTINUOUS
10
143.375000
20
-71.500000
30
0.0
11
137.125000
21
-71.500000
31
0.0
0
LINE
8
0
6
CONTINUOUS
10
137.125000
20
-71.500000
30
0.0
11
143.375000
21
-71.500000
31
0.0
0
LINE
8
0
6
CONTINUOUS
10
105.000000
20
-56.500000
30
0.0
11
117.750000
21
-56.500000
31
0.0
0
LINE
8
0
6
CONTINUOUS
10
117.750000
20
-56.500000
30
0.0
11
128.875000
21
-56.500000
31
0.0
0
LINE
8
0
6
CONTINUOUS
10
128.875000
20
-56.500000
30
0.0
11
137.125000
21
-56.500000
31
0.0
0
LINE
8
0
6
CONTINUOUS
10
143.375000
20
-56.500000
30
0.0
11
147.250000
21
-56.500000
31
0.0
0
LINE
8
0
6
CONTINUOUS
10
147.250000
20
-56.500000
30
0.0
11
148.750000
21
-56.500000
31
0.0
0
LINE
8
0
6
CONTINUOUS
10
105.875000
20
-57.500000
30
0.0
11
118.750000
21
-57.500000
31
0.0
0
LINE
8
0
6
CONTINUOUS
10
117.750000
20
-56.500000
30
0.0
11
105.000000
21
-56.500000
31
0.0
0
LINE
8
0
6
CONTINUOUS
10
118.750000
20
-57.500000
30
0.0
11
129.875000
21
-57.500000
31
0.0
0
LINE
8
0
6
CONTINUOUS
10
128.875000
20
-56.500000
30
0.0
11
117.750000
21
-56.500000
31
0.0
0
LINE
8
0
6
CONTINUOUS
10
129.875000
20
-57.500000
30
0.0
11
138.250000
21
-57.500000
31
0.0
0
LINE
8
0
6
CONTINUOUS
10
137.125000
20
-56.500000
30
0.0
11
128.875000
21
-56.500000
31
0.0
0
LINE
8
0
6
CONTINUOUS
10
138.250000
20
-57.500000
30
0.0
11
144.625000
21
-57.500000
31
0.0
0
LINE
8
0
6
CONTINUOUS
10
143.375000
20
-56.500000
30
0.0
11
137.125000
21
-56.500000
31
0.0
0
LINE
8
0
6
CONTINUOUS
10
144.625000
20
-57.500000
30
0.0
11
148.500000
21
-57.500000
31
0.0
0
LINE
8
0
6
CONTINUOUS
10
147.250000
20
-56.500000
30
0.0
11
143.375000
21
-56.500000
31
0.0
0
LINE
8
0
6
CONTINUOUS
10
148.500000
20
-57.500000
30
0.0
11
150.000000
21
-57.500000
31
0.0
0
LINE
8
0
6
CONTINUOUS
10
148.750000
20
-56.500000
30
0.0
11
147.250000
21
-56.500000
31
0.0
0
LINE
8
0
6
CONTINUOUS
10
150.000000
20
-57.500000
30
0.0
11
148.750000
21
-56.500000
31
0.0
0
LINE
8
0
6
CONTINUOUS
10
105.875000
20
-70.500000
30
0.0
11
118.750000
21
-70.500000
31
0.0
0
LINE
8
0
6
CONTINUOUS
10
118.750000
20
-57.500000
30
0.0
11
105.875000
21
-57.500000
31
0.0
0
LINE
8
0
6
CONTINUOUS
10
118.750000
20
-70.500000
30
0.0
11
129.875000
21
-70.500000
31
0.0
0
LINE
8
0
6
CONTINUOUS
10
129.875000
20
-57.500000
30
0.0
11
118.750000
21
-57.500000
31
0.0
0
LINE
8
0
6
CONTINUOUS
10
129.875000
20
-70.500000
30
0.0
11
138.250000
21
-70.500000
31
0.0
0
LINE
8
0
6
CONTINUOUS
10
138.250000
20
-57.500000
30
0.0
11
129.875000
21
-57.500000
31
0.0
0
LINE
8
0
6
CONTINUOUS
10
138.250000
20
-70.500000
30
0.0
11
144.625000
21
-70.500000
31
0.0
0
LINE
8
0
6
CONTINUOUS
10
144.625000
20
-57.500000
30
0.0
11
138.250000
21
-57.500000
31
0.0
0
LINE
8
0
6
CONTINUOUS
10
144.625000
20
-70.500000
30
0.0
11
148.500000
21
-70.500000
31
0.0
0
LINE
8
0
6
CONTINUOUS
10
148.500000
20
-57.500000
30
0.0
11
144.625000
21
-57.500000
31
0.0
0
LINE
8
0
6
CONTINUOUS
10
148.500000
20
-70.500000
30
0.0
11
150.000000
21
-70.500000
31
0.0
0
LINE
8
0
6
CONTINUOUS
10
150.000000
20
-57.500000
30
0.0
11
148.500000
21
-57.500000
31
0.0
0
LINE
8
0
6
CONTINUOUS
10
150.000000
20
-70.500000
30
0.0
11
150.000000
21
-57.500000
31
0.0
0
LINE
8
0
6
CONTINUOUS
10
105.000000
20
-71.500000
30
0.0
11
117.750000
21
-71.500000
31
0.0
0
LINE
8
0
6
CONTINUOUS
10
118.750000
20
-70.500000
30
0.0
11
105.875000
21
-70.500000
31
0.0
0
LINE
8
0
6
CONTINUOUS
10
117.750000
20
-71.500000
30
0.0
11
128.875000
21
-71.500000
31
0.0
0
LINE
8
0
6
CONTINUOUS
10
129.875000
20
-70.500000
30
0.0
11
118.750000
21
-70.500000
31
0.0
0
LINE
8
0
6
CONTINUOUS
10
128.875000
20
-71.500000
30
0.0
11
137.125000
21
-71.500000
31
0.0
0
LINE
8
0
6
CONTINUOUS
10
138.250000
20
-70.500000
30
0.0
11
129.875000
21
-70.500000
31
0.0
0
LINE
8
0
6
CONTINUOUS
10
137.125000
20
-71.500000
30
0.0
11
143.375000
21
-71.500000
31
0.0
0
LINE
8
0
6
CONTINUOUS
10
144.625000
20
-70.500000
30
0.0
11
138.250000
21
-70.500000
31
0.0
0
LINE
8
0
6
CONTINUOUS
10
143.375000
20
-71.500000
30
0.0
11
147.250000
21
-71.500000
31
0.0
0
LINE
8
0
6
CONTINUOUS
10
148.500000
20
-70.500000
30
0.0
11
144.625000
21
-70.500000
31
0.0
0
LINE
8
0
6
CONTINUOUS
10
147.250000
20
-71.500000
30
0.0
11
148.750000
21
-71.500000
31
0.0
0
LINE
8
0
6
CONTINUOUS
10
150.000000
20
-70.500000
30
0.0
11
148.500000
21
-70.500000
31
0.0
0
LINE
8
0
6
CONTINUOUS
10
148.750000
20
-71.500000
30
0.0
11
150.000000
21
-70.500000
31
0.0
0
LINE
8
0
6
CONTINUOUS
10
117.750000
20
-71.500000
30
0.0
11
105.000000
21
-71.500000
31
0.0
0
LINE
8
0
6
CONTINUOUS
10
137.125000
20
-71.500000
30
0.0
11
128.875000
21
-71.500000
31
0.0
0
LINE
8
0
6
CONTINUOUS
10
143.375000
20
-71.500000
30
0.0
11
137.125000
21
-71.500000
31
0.0
0
LINE
8
0
6
CONTINUOUS
10
148.750000
20
-71.500000
30
0.0
11
147.250000
21
-71.500000
31
0.0
0
LINE
8
0
6
CONTINUOUS
10
90.375000
20
-56.500000
30
0.0
11
105.000000
21
-56.500000
31
0.0
0
LINE
8
0
6
CONTINUOUS
10
56.875000
20
-56.500000
30
0.0
11
74.000000
21
-56.500000
31
0.0
0
LINE
8
0
6
CONTINUOUS
10
38.375000
20
-56.500000
30
0.0
11
56.875000
21
-56.500000
31
0.0
0
LINE
8
0
6
CONTINUOUS
10
0.000000
20
-56.500000
30
0.0
11
19.500000
21
-56.500000
31
0.0
0
LINE
8
0
6
CONTINUOUS
10
91.125000
20
-57.500000
30
0.0
11
105.875000
21
-57.500000
31
0.0
0
LINE
8
0
6
CONTINUOUS
10
105.000000
20
-56.500000
30
0.0
11
90.375000
21
-56.500000
31
0.0
0
LINE
8
0
6
CONTINUOUS
10
74.625000
20
-57.500000
30
0.0
11
91.125000
21
-57.500000
31
0.0
0
LINE
8
0
6
CONTINUOUS
10
90.375000
20
-56.500000
30
0.0
11
74.000000
21
-56.500000
31
0.0
0
LINE
8
0
6
CONTINUOUS
10
57.250000
20
-57.500000
30
0.0
11
74.625000
21
-57.500000
31
0.0
0
LINE
8
0
6
CONTINUOUS
10
74.000000
20
-56.500000
30
0.0
11
56.875000
21
-56.500000
31
0.0
0
LINE
8
0
6
CONTINUOUS
10
38.750000
20
-57.500000
30
0.0
11
57.250000
21
-57.500000
31
0.0
0
LINE
8
0
6
CONTINUOUS
10
56.875000
20
-56.500000
30
0.0
11
38.375000
21
-56.500000
31
0.0
0
LINE
8
0
6
CONTINUOUS
10
19.500000
20
-57.500000
30
0.0
11
38.750000
21
-57.500000
31
0.0
0
LINE
8
0
6
CONTINUOUS
10
38.375000
20
-56.500000
30
0.0
11
19.500000
21
-56.500000
31
0.0
0
LINE
8
0
6
CONTINUOUS
10
0.000000
20
-57.500000
30
0.0
11
19.500000
21
-57.500000
31
0.0
0
LINE
8
0
6
CONTINUOUS
10
19.500000
20
-56.500000
30
0.0
11
0.000000
21
-56.500000
31
0.0
0
LINE
8
0
6
CONTINUOUS
10
91.125000
20
-70.500000
30
0.0
11
105.875000
21
-70.500000
31
0.0
0
LINE
8
0
6
CONTINUOUS
10
105.875000
20
-57.500000
30
0.0
11
91.125000
21
-57.500000
31
0.0
0
LINE
8
0
6
CONTINUOUS
10
74.625000
20
-70.500000
30
0.0
11
91.125000
21
-70.500000
31
0.0
0
LINE
8
0
6
CONTINUOUS
10
91.125000
20
-57.500000
30
0.0
11
74.625000
21
-57.500000
31
0.0
0
LINE
8
0
6
CONTINUOUS
10
57.250000
20
-70.500000
30
0.0
11
74.625000
21
-70.500000
31
0.0
0
LINE
8
0
6
CONTINUOUS
10
74.625000
20
-57.500000
30
0.0
11
57.250000
21
-57.500000
31
0.0
0
LINE
8
0
6
CONTINUOUS
10
38.750000
20
-70.500000
30
0.0
11
57.250000
21
-70.500000
31
0.0
0
LINE
8
0
6
CONTINUOUS
10
57.250000
20
-57.500000
30
0.0
11
38.750000
21
-57.500000
31
0.0
0
LINE
8
0
6
CONTINUOUS
10
19.500000
20
-70.500000
30
0.0
11
38.750000
21
-70.500000
31
0.0
0
LINE
8
0
6
CONTINUOUS
10
38.750000
20
-57.500000
30
0.0
11
19.500000
21
-57.500000
31
0.0
0
LINE
8
0
6
CONTINUOUS
10
0.000000
20
-70.500000
30
0.0
11
19.500000
21
-70.500000
31
0.0
0
LINE
8
0
6
CONTINUOUS
10
19.500000
20
-57.500000
30
0.0
11
0.000000
21
-57.500000
31
0.0
0
LINE
8
0
6
CONTINUOUS
10
90.375000
20
-71.500000
30
0.0
11
105.000000
21
-71.500000
31
0.0
0
LINE
8
0
6
CONTINUOUS
10
105.875000
20
-70.500000
30
0.0
11
91.125000
21
-70.500000
31
0.0
0
LINE
8
0
6
CONTINUOUS
10
74.000000
20
-71.500000
30
0.0
11
90.375000
21
-71.500000
31
0.0
0
LINE
8
0
6
CONTINUOUS
10
91.125000
20
-70.500000
30
0.0
11
74.625000
21
-70.500000
31
0.0
0
LINE
8
0
6
CONTINUOUS
10
56.875000
20
-71.500000
30
0.0
11
74.000000
21
-71.500000
31
0.0
0
LINE
8
0
6
CONTINUOUS
10
74.625000
20
-70.500000
30
0.0
11
57.250000
21
-70.500000
31
0.0
0
LINE
8
0
6
CONTINUOUS
10
38.375000
20
-71.500000
30
0.0
11
56.875000
21
-71.500000
31
0.0
0
LINE
8
0
6
CONTINUOUS
10
57.250000
20
-70.500000
30
0.0
11
38.750000
21
-70.500000
31
0.0
0
LINE
8
0
6
CONTINUOUS
10
19.500000
20
-71.500000
30
0.0
11
38.375000
21
-71.500000
31
0.0
0
LINE
8
0
6
CONTINUOUS
10
38.750000
20
-70.500000
30
0.0
11
19.500000
21
-70.500000
31
0.0
0
LINE
8
0
6
CONTINUOUS
10
0.000000
20
-71.500000
30
0.0
11
19.500000
21
-71.500000
31
0.0
0
LINE
8
0
6
CONTINUOUS
10
19.500000
20
-70.500000
30
0.0
11
0.000000
21
-70.500000
31
0.0
0
LINE
8
0
6
CONTINUOUS
10
105.000000
20
-71.500000
30
0.0
11
90.375000
21
-71.500000
31
0.0
0
LINE
8
0
6
CONTINUOUS
10
90.375000
20
-71.500000
30
0.0
11
74.000000
21
-71.500000
31
0.0
0
LINE
8
0
6
CONTINUOUS
10
74.000000
20
-71.500000
30
0.0
11
56.875000
21
-71.500000
31
0.0
0
LINE
8
0
6
CONTINUOUS
10
56.875000
20
-71.500000
30
0.0
11
51.083000
21
-71.500000
31
0.0
0
LINE
8
0
6
CONTINUOUS
10
38.375000
20
-71.500000
30
0.0
11
19.500000
21
-71.500000
31
0.0
0
LINE
8
0
6
CONTINUOUS
10
19.500000
20
-71.500000
30
0.0
11
0.000000
21
-71.500000
31
0.0
0
LINE
8
0
6
CONTINUOUS
10
-105.000000
20
-56.500000
30
0.0
11
-90.375000
21
-56.500000
31
0.0
0
LINE
8
0
6
CONTINUOUS
10
-90.375000
20
-56.500000
30
0.0
11
-74.000000
21
-56.500000
31
0.0
0
LINE
8
0
6
CONTINUOUS
10
-74.000000
20
-56.500000
30
0.0
11
-56.875000
21
-56.500000
31
0.0
0
LINE
8
0
6
CONTINUOUS
10
-38.375000
20
-56.500000
30
0.0
11
-19.500000
21
-56.500000
31
0.0
0
LINE
8
0
6
CONTINUOUS
10
-19.500000
20
-56.500000
30
0.0
11
0.000000
21
-56.500000
31
0.0
0
LINE
8
0
6
CONTINUOUS
10
-105.875000
20
-57.500000
30
0.0
11
-91.125000
21
-57.500000
31
0.0
0
LINE
8
0
6
CONTINUOUS
10
-90.375000
20
-56.500000
30
0.0
11
-105.000000
21
-56.500000
31
0.0
0
LINE
8
0
6
CONTINUOUS
10
-91.125000
20
-57.500000
30
0.0
11
-74.625000
21
-57.500000
31
0.0
0
LINE
8
0
6
CONTINUOUS
10
-74.000000
20
-56.500000
30
0.0
11
-90.375000
21
-56.500000
31
0.0
0
LINE
8
0
6
CONTINUOUS
10
-74.625000
20
-57.500000
30
0.0
11
-57.250000
21
-57.500000
31
0.0
0
LINE
8
0
6
CONTINUOUS
10
-56.875000
20
-56.500000
30
0.0
11
-74.000000
21
-56.500000
31
0.0
0
LINE
8
0
6
CONTINUOUS
10
-57.250000
20
-57.500000
30
0.0
11
-38.750000
21
-57.500000
31
0.0
0
LINE
8
0
6
CONTINUOUS
10
-38.375000
20
-56.500000
30
0.0
11
-56.875000
21
-56.500000
31
0.0
0
LINE
8
0
6
CONTINUOUS
10
-38.750000
20
-57.500000
30
0.0
11
-19.500000
21
-57.500000
31
0.0
0
LINE
8
0
6
CONTINUOUS
10
-19.500000
20
-56.500000
30
0.0
11
-38.375000
21
-56.500000
31
0.0
0
LINE
8
0
6
CONTINUOUS
10
-19.500000
20
-57.500000
30
0.0
11
0.000000
21
-57.500000
31
0.0
0
LINE
8
0
6
CONTINUOUS
10
0.000000
20
-56.500000
30
0.0
11
-19.500000
21
-56.500000
31
0.0
0
LINE
8
0
6
CONTINUOUS
10
-105.875000
20
-70.500000
30
0.0
11
-91.125000
21
-70.500000
31
0.0
0
LINE
8
0
6
CONTINUOUS
10
-91.125000
20
-57.500000
30
0.0
11
-105.875000
21
-57.500000
31
0.0
0
LINE
8
0
6
CONTINUOUS
10
-91.125000
20
-70.500000
30
0.0
11
-74.625000
21
-70.500000
31
0.0
0
LINE
8
0
6
CONTINUOUS
10
-74.625000
20
-57.500000
30
0.0
11
-91.125000
21
-57.500000
31
0.0
0
LINE
8
0
6
CONTINUOUS
10
-74.625000
20
-70.500000
30
0.0
11
-57.250000
21
-70.500000
31
0.0
0
LINE
8
0
6
CONTINUOUS
10
-57.250000
20
-57.500000
30
0.0
11
-74.625000
21
-57.500000
31
0.0
0
LINE
8
0
6
CONTINUOUS
10
-57.250000
20
-70.500000
30
0.0
11
-38.750000
21
-70.500000
31
0.0
0
LINE
8
0
6
CONTINUOUS
10
-38.750000
20
-57.500000
30
0.0
11
-57.250000
21
-57.500000
31
0.0
0
LINE
8
0
6
CONTINUOUS
10
-38.750000
20
-70.500000
30
0.0
11
-19.500000
21
-70.500000
31
0.0
0
LINE
8
0
6
CONTINUOUS
10
-19.500000
20
-57.500000
30
0.0
11
-38.750000
21
-57.500000
31
0.0
0
LINE
8
0
6
CONTINUOUS
10
-19.500000
20
-70.500000
30
0.0
11
0.000000
21
-70.500000
31
0.0
0
LINE
8
0
6
CONTINUOUS
10
0.000000
20
-57.500000
30
0.0
11
-19.500000
21
-57.500000
31
0.0
0
LINE
8
0
6
CONTINUOUS
10
-105.000000
20
-71.500000
30
0.0
11
-90.375000
21
-71.500000
31
0.0
0
LINE
8
0
6
CONTINUOUS
10
-91.125000
20
-70.500000
30
0.0
11
-105.875000
21
-70.500000
31
0.0
0
LINE
8
0
6
CONTINUOUS
10
-90.375000
20
-71.500000
30
0.0
11
-74.000000
21
-71.500000
31
0.0
0
LINE
8
0
6
CONTINUOUS
10
-74.625000
20
-70.500000
30
0.0
11
-91.125000
21
-70.500000
31
0.0
0
LINE
8
0
6
CONTINUOUS
10
-74.000000
20
-71.500000
30
0.0
11
-56.875000
21
-71.500000
31
0.0
0
LINE
8
0
6
CONTINUOUS
10
-57.250000
20
-70.500000
30
0.0
11
-74.625000
21
-70.500000
31
0.0
0
LINE
8
0
6
CONTINUOUS
10
-56.875000
20
-71.500000
30
0.0
11
-38.375000
21
-71.500000
31
0.0
0
LINE
8
0
6
CONTINUOUS
10
-38.750000
20
-70.500000
30
0.0
11
-57.250000
21
-70.500000
31
0.0
0
LINE
8
0
6
CONTINUOUS
10
-38.375000
20
-71.500000
30
0.0
11
-19.500000
21
-71.500000
31
0.0
0
LINE
8
0
6
CONTINUOUS
10
-19.500000
20
-70.500000
30
0.0
11
-38.750000
21
-70.500000
31
0.0
0
LINE
8
0
6
CONTINUOUS
10
-19.500000
20
-71.500000
30
0.0
11
0.000000
21
-71.500000
31
0.0
0
LINE
8
0
6
CONTINUOUS
10
0.000000
20
-70.500000
30
0.0
11
-19.500000
21
-70.500000
31
0.0
0
LINE
8
0
6
CONTINUOUS
10
-90.375000
20
-71.500000
30
0.0
11
-105.000000
21
-71.500000
31
0.0
0
LINE
8
0
6
CONTINUOUS
10
-74.000000
20
-71.500000
30
0.0
11
-81.317300
21
-71.500000
31
0.0
0
LINE
8
0
6
CONTINUOUS
10
-56.875000
20
-71.500000
30
0.0
11
-74.000000
21
-71.500000
31
0.0
0
LINE
8
0
6
CONTINUOUS
10
-38.375000
20
-71.500000
30
0.0
11
-56.875000
21
-71.500000
31
0.0
0
LINE
8
0
6
CONTINUOUS
10
-19.500000
20
-71.500000
30
0.0
11
-24.675000
21
-71.500000
31
0.0
0
LINE
8
0
6
CONTINUOUS
10
0.000000
20
-71.500000
30
0.0
11
-19.500000
21
-71.500000
31
0.0
0
LINE
8
0
6
CONTINUOUS
10
-117.750000
20
-56.500000
30
0.0
11
-105.000000
21
-56.500000
31
0.0
0
LINE
8
0
6
CONTINUOUS
10
-137.125000
20
-56.500000
30
0.0
11
-128.875000
21
-56.500000
31
0.0
0
LINE
8
0
6
CONTINUOUS
10
-143.375000
20
-56.500000
30
0.0
11
-137.125000
21
-56.500000
31
0.0
0
LINE
8
0
6
CONTINUOUS
10
-148.750000
20
-56.500000
30
0.0
11
-147.250000
21
-56.500000
31
0.0
0
LINE
8
0
6
CONTINUOUS
10
-118.750000
20
-57.500000
30
0.0
11
-105.875000
21
-57.500000
31
0.0
0
LINE
8
0
6
CONTINUOUS
10
-105.000000
20
-56.500000
30
0.0
11
-117.750000
21
-56.500000
31
0.0
0
LINE
8
0
6
CONTINUOUS
10
-129.875000
20
-57.500000
30
0.0
11
-118.750000
21
-57.500000
31
0.0
0
LINE
8
0
6
CONTINUOUS
10
-117.750000
20
-56.500000
30
0.0
11
-128.875000
21
-56.500000
31
0.0
0
LINE
8
0
6
CONTINUOUS
10
-138.250000
20
-57.500000
30
0.0
11
-129.875000
21
-57.500000
31
0.0
0
LINE
8
0
6
CONTINUOUS
10
-128.875000
20
-56.500000
30
0.0
11
-137.125000
21
-56.500000
31
0.0
0
LINE
8
0
6
CONTINUOUS
10
-144.625000
20
-57.500000
30
0.0
11
-138.250000
21
-57.500000
31
0.0
0
LINE
8
0
6
CONTINUOUS
10
-137.125000
20
-56.500000
30
0.0
11
-143.375000
21
-56.500000
31
0.0
0
LINE
8
0
6
CONTINUOUS
10
-148.500000
20
-57.500000
30
0.0
11
-144.625000
21
-57.500000
31
0.0
0
LINE
8
0
6
CONTINUOUS
10
-143.375000
20
-56.500000
30
0.0
11
-147.250000
21
-56.500000
31
0.0
0
LINE
8
0
6
CONTINUOUS
10
-150.000000
20
-57.500000
30
0.0
11
-148.500000
21
-57.500000
31
0.0
0
LINE
8
0
6
CONTINUOUS
10
-148.750000
20
-56.500000
30
0.0
11
-150.000000
21
-57.500000
31
0.0
0
LINE
8
0
6
CONTINUOUS
10
-147.250000
20
-56.500000
30
0.0
11
-148.750000
21
-56.500000
31
0.0
0
LINE
8
0
6
CONTINUOUS
10
-118.750000
20
-70.500000
30
0.0
11
-105.875000
21
-70.500000
31
0.0
0
LINE
8
0
6
CONTINUOUS
10
-105.875000
20
-57.500000
30
0.0
11
-118.750000
21
-57.500000
31
0.0
0
LINE
8
0
6
CONTINUOUS
10
-129.875000
20
-70.500000
30
0.0
11
-118.750000
21
-70.500000
31
0.0
0
LINE
8
0
6
CONTINUOUS
10
-118.750000
20
-57.500000
30
0.0
11
-129.875000
21
-57.500000
31
0.0
0
LINE
8
0
6
CONTINUOUS
10
-138.250000
20
-70.500000
30
0.0
11
-129.875000
21
-70.500000
31
0.0
0
LINE
8
0
6
CONTINUOUS
10
-129.875000
20
-57.500000
30
0.0
11
-138.250000
21
-57.500000
31
0.0
0
LINE
8
0
6
CONTINUOUS
10
-144.625000
20
-70.500000
30
0.0
11
-138.250000
21
-70.500000
31
0.0
0
LINE
8
0
6
CONTINUOUS
10
-138.250000
20
-57.500000
30
0.0
11
-144.625000
21
-57.500000
31
0.0
0
LINE
8
0
6
CONTINUOUS
10
-148.500000
20
-70.500000
30
0.0
11
-144.625000
21
-70.500000
31
0.0
0
LINE
8
0
6
CONTINUOUS
10
-144.625000
20
-57.500000
30
0.0
11
-148.500000
21
-57.500000
31
0.0
0
LINE
8
0
6
CONTINUOUS
10
-150.000000
20
-70.500000
30
0.0
11
-148.500000
21
-70.500000
31
0.0
0
LINE
8
0
6
CONTINUOUS
10
-150.000000
20
-57.500000
30
0.0
11
-150.000000
21
-70.500000
31
0.0
0
LINE
8
0
6
CONTINUOUS
10
-148.500000
20
-57.500000
30
0.0
11
-150.000000
21
-57.500000
31
0.0
0
LINE
8
0
6
CONTINUOUS
10
-117.750000
20
-71.500000
30
0.0
11
-105.000000
21
-71.500000
31
0.0
0
LINE
8
0
6
CONTINUOUS
10
-105.875000
20
-70.500000
30
0.0
11
-118.750000
21
-70.500000
31
0.0
0
LINE
8
0
6
CONTINUOUS
10
-128.875000
20
-71.500000
30
0.0
11
-117.750000
21
-71.500000
31
0.0
0
LINE
8
0
6
CONTINUOUS
10
-118.750000
20
-70.500000
30
0.0
11
-129.875000
21
-70.500000
31
0.0
0
LINE
8
0
6
CONTINUOUS
10
-137.125000
20
-71.500000
30
0.0
11
-128.875000
21
-71.500000
31
0.0
0
LINE
8
0
6
CONTINUOUS
10
-129.875000
20
-70.500000
30
0.0
11
-138.250000
21
-70.500000
31
0.0
0
LINE
8
0
6
CONTINUOUS
10
-143.375000
20
-71.500000
30
0.0
11
-137.125000
21
-71.500000
31
0.0
0
LINE
8
0
6
CONTINUOUS
10
-138.250000
20
-70.500000
30
0.0
11
-144.625000
21
-70.500000
31
0.0
0
LINE
8
0
6
CONTINUOUS
10
-147.250000
20
-71.500000
30
0.0
11
-143.375000
21
-71.500000
31
0.0
0
LINE
8
0
6
CONTINUOUS
10
-144.625000
20
-70.500000
30
0.0
11
-148.500000
21
-70.500000
31
0.0
0
LINE
8
0
6
CONTINUOUS
10
-148.750000
20
-71.500000
30
0.0
11
-147.250000
21
-71.500000
31
0.0
0
LINE
8
0
6
CONTINUOUS
10
-150.000000
20
-70.500000
30
0.0
11
-148.750000
21
-71.500000
31
0.0
0
LINE
8
0
6
CONTINUOUS
10
-148.500000
20
-70.500000
30
0.0
11
-150.000000
21
-70.500000
31
0.0
0
LINE
8
0
6
CONTINUOUS
10
-105.000000
20
-71.500000
30
0.0
11
-117.750000
21
-71.500000
31
0.0
0
LINE
8
0
6
CONTINUOUS
10
-117.750000
20
-71.500000
30
0.0
11
-128.875000
21
-71.500000
31
0.0
0
LINE
8
0
6
CONTINUOUS
10
-128.875000
20
-71.500000
30
0.0
11
-137.125000
21
-71.500000
31
0.0
0
LINE
8
0
6
CONTINUOUS
10
-137.125000
20
-71.500000
30
0.0
11
-137.500000
21
-71.500000
31
0.0
0
LINE
8
0
6
CONTINUOUS
10
-143.375000
20
-71.500000
30
0.0
11
-147.250000
21
-71.500000
31
0.0
0
LINE
8
0
6
CONTINUOUS
10
-147.250000
20
-71.500000
30
0.0
11
-148.750000
21
-71.500000
31
0.0
0
LINE
8
0
6
CONTINUOUS
10
35.300000
20
-52.500000
30
0.0
11
39.600000
21
-52.500000
31
0.0
0
LINE
8
0
6
CONTINUOUS
10
39.600000
20
-52.500000
30
0.0
11
43.300000
21
-52.500000
31
0.0
0
LINE
8
0
6
CONTINUOUS
10
43.300000
20
-52.500000
30
0.0
11
46.100000
21
-52.500000
31
0.0
0
LINE
8
0
6
CONTINUOUS
10
46.100000
20
-52.500000
30
0.0
11
48.200000
21
-52.500000
31
0.0
0
LINE
8
0
6
CONTINUOUS
10
48.200000
20
-52.500000
30
0.0
11
49.500000
21
-52.500000
31
0.0
0
LINE
8
0
6
CONTINUOUS
10
49.500000
20
-52.500000
30
0.0
11
50.000000
21
-52.500000
31
0.0
0
LINE
8
0
6
CONTINUOUS
10
39.600000
20
-52.500000
30
0.0
11
35.300000
21
-52.500000
31
0.0
0
LINE
8
0
6
CONTINUOUS
10
39.600000
20
-56.500000
30
0.0
11
43.300000
21
-56.500000
31
0.0
0
LINE
8
0
6
CONTINUOUS
10
43.300000
20
-52.500000
30
0.0
11
39.600000
21
-52.500000
31
0.0
0
LINE
8
0
6
CONTINUOUS
10
43.300000
20
-56.500000
30
0.0
11
46.100000
21
-56.500000
31
0.0
0
LINE
8
0
6
CONTINUOUS
10
46.100000
20
-52.500000
30
0.0
11
43.300000
21
-52.500000
31
0.0
0
LINE
8
0
6
CONTINUOUS
10
46.100000
20
-56.500000
30
0.0
11
48.200000
21
-56.500000
31
0.0
0
LINE
8
0
6
CONTINUOUS
10
48.200000
20
-52.500000
30
0.0
11
46.100000
21
-52.500000
31
0.0
0
LINE
8
0
6
CONTINUOUS
10
48.200000
20
-56.500000
30
0.0
11
49.500000
21
-56.500000
31
0.0
0
LINE
8
0
6
CONTINUOUS
10
49.500000
20
-52.500000
30
0.0
11
48.200000
21
-52.500000
31
0.0
0
LINE
8
0
6
CONTINUOUS
10
49.500000
20
-56.500000
30
0.0
11
50.000000
21
-56.500000
31
0.0
0
LINE
8
0
6
CONTINUOUS
10
50.000000
20
-52.500000
30
0.0
11
49.500000
21
-52.500000
31
0.0
0
LINE
8
0
6
CONTINUOUS
10
50.000000
20
-56.500000
30
0.0
11
50.000000
21
-52.500000
31
0.0
0
LINE
8
0
6
CONTINUOUS
10
30.400000
20
-52.500000
30
0.0
11
35.300000
21
-52.500000
31
0.0
0
LINE
8
0
6
CONTINUOUS
10
24.900000
20
-52.500000
30
0.0
11
30.400000
21
-52.500000
31
0.0
0
LINE
8
0
6
CONTINUOUS
10
19.100000
20
-52.500000
30
0.0
11
24.900000
21
-52.500000
31
0.0
0
LINE
8
0
6
CONTINUOUS
10
12.900000
20
-52.500000
30
0.0
11
19.100000
21
-52.500000
31
0.0
0
LINE
8
0
6
CONTINUOUS
10
6.500000
20
-52.500000
30
0.0
11
12.900000
21
-52.500000
31
0.0
0
LINE
8
0
6
CONTINUOUS
10
0.000000
20
-52.500000
30
0.0
11
6.500000
21
-52.500000
31
0.0
0
LINE
8
0
6
CONTINUOUS
10
35.300000
20
-52.500000
30
0.0
11
30.400000
21
-52.500000
31
0.0
0
LINE
8
0
6
CONTINUOUS
10
30.400000
20
-52.500000
30
0.0
11
24.900000
21
-52.500000
31
0.0
0
LINE
8
0
6
CONTINUOUS
10
24.900000
20
-52.500000
30
0.0
11
19.100000
21
-52.500000
31
0.0
0
LINE
8
0
6
CONTINUOUS
10
19.100000
20
-52.500000
30
0.0
11
12.900000
21
-52.500000
31
0.0
0
LINE
8
0
6
CONTINUOUS
10
12.900000
20
-52.500000
30
0.0
11
6.500000
21
-52.500000
31
0.0
0
LINE
8
0
6
CONTINUOUS
10
6.500000
20
-52.500000
30
0.0
11
0.000000
21
-52.500000
31
0.0
0
LINE
8
0
6
CONTINUOUS
10
-35.300000
20
-52.500000
30
0.0
11
-30.400000
21
-52.500000
31
0.0
0
LINE
8
0
6
CONTINUOUS
10
-30.400000
20
-52.500000
30
0.0
11
-24.900000
21
-52.500000
31
0.0
0
LINE
8
0
6
CONTINUOUS
10
-24.900000
20
-52.500000
30
0.0
11
-19.100000
21
-52.500000
31
0.0
0
LINE
8
0
6
CONTINUOUS
10
-19.100000
20
-52.500000
30
0.0
11
-12.900000
21
-52.500000
31
0.0
0
LINE
8
0
6
CONTINUOUS
10
-12.900000
20
-52.500000
30
0.0
11
-6.500000
21
-52.500000
31
0.0
0
LINE
8
0
6
CONTINUOUS
10
-6.500000
20
-52.500000
30
0.0
11
0.000000
21
-52.500000
31
0.0
0
LINE
8
0
6
CONTINUOUS
10
-35.300000
20
-56.500000
30
0.0
11
-30.400000
21
-56.500000
31
0.0
0
LINE
8
0
6
CONTINUOUS
10
-30.400000
20
-52.500000
30
0.0
11
-35.300000
21
-52.500000
31
0.0
0
LINE
8
0
6
CONTINUOUS
10
-30.400000
20
-56.500000
30
0.0
11
-24.900000
21
-56.500000
31
0.0
0
LINE
8
0
6
CONTINUOUS
10
-24.900000
20
-52.500000
30
0.0
11
-30.400000
21
-52.500000
31
0.0
0
LINE
8
0
6
CONTINUOUS
10
-24.900000
20
-56.500000
30
0.0
11
-19.100000
21
-56.500000
31
0.0
0
LINE
8
0
6
CONTINUOUS
10
-19.100000
20
-52.500000
30
0.0
11
-24.900000
21
-52.500000
31
0.0
0
LINE
8
0
6
CONTINUOUS
10
-12.900000
20
-52.500000
30
0.0
11
-19.100000
21
-52.500000
31
0.0
0
LINE
8
0
6
CONTINUOUS
10
-6.500000
20
-52.500000
30
0.0
11
-12.900000
21
-52.500000
31
0.0
0
LINE
8
0
6
CONTINUOUS
10
0.000000
20
-52.500000
30
0.0
11
-6.500000
21
-52.500000
31
0.0
0
LINE
8
0
6
CONTINUOUS
10
-39.600000
20
-52.500000
30
0.0
11
-35.300000
21
-52.500000
31
0.0
0
LINE
8
0
6
CONTINUOUS
10
-43.300000
20
-52.500000
30
0.0
11
-39.600000
21
-52.500000
31
0.0
0
LINE
8
0
6
CONTINUOUS
10
-46.100000
20
-52.500000
30
0.0
11
-43.300000
21
-52.500000
31
0.0
0
LINE
8
0
6
CONTINUOUS
10
-48.200000
20
-52.500000
30
0.0
11
-46.100000
21
-52.500000
31
0.0
0
LINE
8
0
6
CONTINUOUS
10
-49.500000
20
-52.500000
30
0.0
11
-48.200000
21
-52.500000
31
0.0
0
LINE
8
0
6
CONTINUOUS
10
-50.000000
20
-52.500000
30
0.0
11
-49.500000
21
-52.500000
31
0.0
0
LINE
8
0
6
CONTINUOUS
10
-35.300000
20
-52.500000
30
0.0
11
-39.600000
21
-52.500000
31
0.0
0
LINE
8
0
6
CONTINUOUS
10
-39.600000
20
-52.500000
30
0.0
11
-43.300000
21
-52.500000
31
0.0
0
LINE
8
0
6
CONTINUOUS
10
-43.300000
20
-52.500000
30
0.0
11
-46.100000
21
-52.500000
31
0.0
0
LINE
8
0
6
CONTINUOUS
10
-46.100000
20
-52.500000
30
0.0
11
-48.200000
21
-52.500000
31
0.0
0
LINE
8
0
6
CONTINUOUS
10
-48.200000
20
-52.500000
30
0.0
11
-49.500000
21
-52.500000
31
0.0
0
LINE
8
0
6
CONTINUOUS
10
-50.000000
20
-52.500000
30
0.0
11
-50.000000
21
-56.500000
31
0.0
0
LINE
8
0
6
CONTINUOUS
10
-49.500000
20
-52.500000
30
0.0
11
-50.000000
21
-52.500000
31
0.0
0
ENDSEC
0
EOF
